  0
SECTION
  2
HEADER
  9
$ACADVER
  1
AC1014
  9
$INSBASE
 10
0.000000
 20
0.000000
 30
0.0
  9
$VIEWCTR
 10
7.531722
 20
4.5
  9
$VIEWSIZE
 40
9.0
  9
$SNAPMODE
 70
     0
  9
$SNAPUNIT
 10
1.0
 20
1.0
  9
$SNAPBASE
 10
0.0
 20
0.0
  9
$SNAPANG
 50
0.0
  9
$SNAPSTYLE
 70
     0
  9
$SNAPISOPAIR
 70
     0
  9
$GRIDMODE
 70
     0
  9
$GRIDUNIT
 10
0.0
 20
0.0
  9
$ORTHOMODE
 70
     0
  9
$REGENMODE
 70
     1
  9
$FILLMODE
 70
     1
  9
$QTEXTMODE
 70
     0
  9
$DRAGMODE
 70
     2
  9
$LTSCALE
  40
     1.000000
  9
$OSMODE
 70
     0
  9
$ATTMODE
 70
     1
  9
$TEXTSIZE
 40
0.2
  9
$TRACEWID
 40
0.05
  9
$TEXTSTYLE
  7
STANDARD
  9
$CELTYPE
  6
BYLAYER
  9
$CECOLOR
 62
   256
  9
$DIMSCALE
 40
1.0
  9
$DIMASZ
 40
0.18
  9
$DIMEXO
 40
0.0625
  9
$DIMDLI
 40
0.38
  9
$DIMRND
 40
0.0
  9
$DIMDLE
 40
0.0
  9
$DIMEXE
 40
0.18
  9
$DIMTP
 40
0.0
  9
$DIMTM
 40
0.0
  9
$DIMTXT
 40
0.18
  9
$DIMCEN
 40
0.09
  9
$DIMTSZ
 40
0.0
  9
$DIMTOL
 70
     0
  9
$DIMLIM
 70
     0
  9
$DIMTIH
 70
     1
  9
$DIMTOH
 70
     1
  9
$DIMSE1
 70
     0
  9
$DIMSE2
 70
     0
  9
$DIMTAD
 70
     0
  9
$DIMZIN
 70
     0
  9
$DIMBLK
  1

  9
$LUNITS
 70
     2
  9
$LUPREC
 70
     4
  9
$AXISMODE
 70
     0
  9
$AXISUNIT
 10
0.0
 20
0.0
  9
$SKETCHINC
 40
0.1
  9
$FILLETRAD
 40
0.0
  9
$AUNITS
 70
     0
  9
$AUPREC
 70
     0
  9
$MENU
  1
ACAD
  9
$ELEVATION
 40
0.0
  9
$THICKNESS
 40
0.0
  9
$VIEWDIR
 10
0.0
 20
0.0
 30
1.0
  9
$LIMCHECK
 70
     0
  9
$BLIPMODE
 70
     1
  9
$CHAMFERA
 40
0.0
  9
$CHAMFERB
 40
0.0
  9
$FASTZOOM
 70
     1
  9
$SKPOLY
 70
     0
  9
$TDCREATE
 40
0000000.0000000000
  9
$TDUPDATE
 40
0000000.0000000000
  9
$TDINDWG
 40
0.0000000000
  9
$TDUSRTIMER
 40
0.0000000000
  9
$USRTIMER
 70
     1
  9
$ANGBASE
 50
0.0
  9
$ANGDIR
 70
     0
  9
$PDMODE
 70
     0
  9
$PDSIZE
 40
0.0
  9
$PLINEWID
 40
0.0
  9
$COORDS
 70
     0
  9
$USERI1
 70
     0
  9
$USERI2
 70
     0
  9
$USERI3
 70
     0
  9
$USERI4
 70
     0
  9
$USERI5
 70
     0
  9
$USERR1
 40
0.0
  9
$USERR2
 40
0.0
  9
$USERR3
 40
0.0
  9
$USERR4
 40
0.0
  9
$USERR5
 40
0.0
  9
$CLAYER
  8
M0
  9
$EXTMIN
 10
11.111111
 20
11.111111
  9
$EXTMAX
 10
222.222228
 20
316.666675
  9
$LIMMIN
 10
0.0
 20
0.0
  9
$LIMMAX
 10
210.0
 20
297.0
  9
$HANDSEED
  5
335
  0
ENDSEC
  0
SECTION
  2
CLASSES
  0
ENDSEC
  0
SECTION
  2
TABLES
  0
TABLE
  2
VPORT
  5
8
100
AcDbSymbolTable
 70
     2
  0
VPORT
  5
14
100
AcDbSymbolTableRecord
100
AcDbViewportTableRecord
  2
*ACTIVE
 70
     0
 10
0.0
 20
0.0
 11
1.0
 21
1.0
 12
484.0
 22
297.0
 13
0.0
 23
0.0
 14
1.0
 24
1.0
 15
0.0
 25
0.0
 16
0.0
 26
0.0
 36
1.0
 17
0.0
 27
0.0
 37
0.0
 40
594.0
 41
2.0
 42
50.0
 43
0.0
 44
0.0
 50
0.0
 51
0.0
 71
     0
 72
   100
 73
     1
 74
     1
 75
     0
 76
     0
 77
     0
 78
     0
  0
ENDTAB
  0
TABLE
  2
LTYPE
  5
5
100
AcDbSymbolTable
 70
     5
  0
LTYPE
  5
15
100
AcDbSymbolTableRecord
100
AcDbLinetypeTableRecord
  2
BYBLOCK
 70
     0
  3

 72
    65
 73
     0
 40
0.0
  0
LTYPE
  5
16
100
AcDbSymbolTableRecord
100
AcDbLinetypeTableRecord
  2
BYLAYER
 70
     0
  3

 72
    65
 73
     0
 40
0.0
  0
LTYPE
  5
17
100
AcDbSymbolTableRecord
100
AcDbLinetypeTableRecord
  2
CONTINUOUS
 70
    64
  3
Solid line
 72
    65
 73
     0
 40
0.0
  0
LTYPE
  5
18
100
AcDbSymbolTableRecord
100
AcDbLinetypeTableRecord
  2
DASHED
 70
    64
  3
__ __ __ __ __ __ __ __ __ __ __ __ __ __ __ __
 72
    65
 73
     2
 40
0.75
 49
0.5
 74
     0
 49
-0.25
 74
     0
  0
LTYPE
  5
19
100
AcDbSymbolTableRecord
100
AcDbLinetypeTableRecord
  2
DASHDOT
 70
    64
  3
__ . __ . __ . __ . __ . __ . __ . __ . __ . __
 72
    65
 73
     4
 40
1.0
 49
0.5
 74
     0
 49
-0.25
 74
     0
 49
0.0
 74
     0
 49
-0.25
 74
     0
  0
LTYPE
  5
1A
100
AcDbSymbolTableRecord
100
AcDbLinetypeTableRecord
  2
DIVIDE
 70
    64
  3
____ . . ____ . . ____ . . ____ . . ____ . . __
 72
    65
 73
     6
 40
1.25
 49
0.5
 74
     0
 49
-0.25
 74
     0
 49
0.0
 74
     0
 49
-0.25
 74
     0
 49
0.0
 74
     0
 49
-0.25
 74
     0
  0
LTYPE
  5
1B
100
AcDbSymbolTableRecord
100
AcDbLinetypeTableRecord
  2
DOT
 70
    64
  3
. . . . . . . . . . . . . . . . . . . . . . . .
 72
    65
 73
     2
 40
0.25
 49
0.0
 74
     0
 49
-0.25
 74
     0
  0
ENDTAB
  0
TABLE
  2
LAYER
  5
2
100
AcDbSymbolTable
 70
   102
  0
LAYER
  5
F
100
AcDbSymbolTableRecord
100
AcDbLayerTableRecord
  2
0
 70
     0
 62
     7
  6
CONTINUOUS
  0
LAYER
  5
1C
100
AcDbSymbolTableRecord
100
AcDbLayerTableRecord
  2
DEFPOINTS
 70
     0
 62
     7
  6
CONTINUOUS
  0
LAYER
  5
1D
100
AcDbSymbolTableRecord
100
AcDbLayerTableRecord
  2
M0
 70
     0
 62
     3
  6
CONTINUOUS
  0
LAYER
  5
1E
100
AcDbSymbolTableRecord
100
AcDbLayerTableRecord
  2
M1
 70
     0
 62
     3
  6
CONTINUOUS
  0
LAYER
  5
1F
100
AcDbSymbolTableRecord
100
AcDbLayerTableRecord
  2
DD0
 70
     0
 62
     4
  6
CONTINUOUS
  0
LAYER
  5
20
100
AcDbSymbolTableRecord
100
AcDbLayerTableRecord
  2
DN0
 70
     0
 62
     2
  6
CONTINUOUS
  0
ENDTAB
  0
TABLE
  2
STYLE
  5
3
100
AcDbSymbolTable
 70
     2
  0
STYLE
  5
10
100
AcDbSymbolTableRecord
100
AcDbTextStyleTableRecord
  2
STANDARD
 70
     0
 40
0.0
 41
1.0
 50
0.0
 71
     0
 42
0.2
  3
txt
  4
BIGFONT
  0
ENDTAB
  0
TABLE
  2
VIEW
  5
6
100
AcDbSymbolTable
 70
     0
  0
ENDTAB
  0
TABLE
  2
UCS
  5
7
100
AcDbSymbolTable
 70
     0
  0
ENDTAB
  0
TABLE
  2
APPID
  5
9
100
AcDbSymbolTable
 70
     1
  0
APPID
  5
11
100
AcDbSymbolTableRecord
100
AcDbRegAppTableRecord
  2
ACAD
 70
     0
  0
ENDTAB
  0
TABLE
  2
DIMSTYLE
  5
A
100
AcDbSymbolTable
 70
     2
  0
DIMSTYLE
105
27
100
AcDbSymbolTableRecord
100
AcDbDimStyleTableRecord
  2
STANDARD
 70
     0
  3

  4

  5

  6
_OPEN
  7
_OPEN
 40
1.0
 41
3.333333
 42
1.0
 43
8.0
 44
1.0
 45
0.0
 46
0.0
 47
0.0
 48
0.0
140
3.5
141
0.09
142
0.0
143
0.03937
144
1.0
145
0.0
146
1.0
147
0.6
 71
     0
 72
     0
 73
     1
 74
     1
 75
     0
 76
     0
 77
     3
 78
     8
170
     0
171
     2
172
     0
173
     1
174
     0
175
     0
176
     0
177
     0
178
     0
270
     2
271
     2
272
     4
273
     2
274
     2
340
10
275
     0
280
     0
281
     0
282
     0
283
     1
284
     0
285
     0
286
     0
287
     3
288
     0
  0
DIMSTYLE
105
28
100
AcDbSymbolTableRecord
100
AcDbDimStyleTableRecord
  2
LEADSTYL
 70
     0
  3

  4

  5

  6
_OPEN
  7
_OPEN
 40
1.0
 41
3.333333
 42
0.0625
 43
0.38
 44
0.18
 45
0.0
 46
0.0
 47
0.0
 48
0.0
140
3.5
141
0.09
142
0.0
143
25.4
144
1.0
145
0.0
146
1.0
147
0.6
 71
     0
 72
     0
 73
     1
 74
     1
 75
     0
 76
     0
 77
     0
 78
     0
170
     0
171
     2
172
     0
173
     1
174
     0
175
     0
176
     0
177
     0
178
     0
270
     2
271
     4
272
     4
273
     2
274
     2
340
10
275
     0
280
     0
281
     0
282
     0
283
     1
284
     0
285
     0
286
     0
287
     3
288
     0
  0
ENDTAB
  0
TABLE
  2
BLOCK_RECORD
  5
1
100
AcDbSymbolTable
 70
    16
  0
BLOCK_RECORD
  5
21
100
AcDbSymbolTableRecord
100
AcDbBlockTableRecord
  2
*MODEL_SPACE
  0
BLOCK_RECORD
  5
24
100
AcDbSymbolTableRecord
100
AcDbBlockTableRecord
  2
*PAPER_SPACE
  0
BLOCK_RECORD
  5
29
100
AcDbSymbolTableRecord
100
AcDbBlockTableRecord
  2
_NONE
  0
BLOCK_RECORD
  5
2D
100
AcDbSymbolTableRecord
100
AcDbBlockTableRecord
  2
_OPEN
  0
BLOCK_RECORD
  5
33
100
AcDbSymbolTableRecord
100
AcDbBlockTableRecord
  2
_CLOSED
  0
BLOCK_RECORD
  5
3A
100
AcDbSymbolTableRecord
100
AcDbBlockTableRecord
  2
_ORIGIN
  0
BLOCK_RECORD
  5
3F
100
AcDbSymbolTableRecord
100
AcDbBlockTableRecord
  2
_DOT
  0
BLOCK_RECORD
  5
47
100
AcDbSymbolTableRecord
100
AcDbBlockTableRecord
  2
_OBLIQUE
  0
BLOCK_RECORD
  5
4B
100
AcDbSymbolTableRecord
100
AcDbBlockTableRecord
  2
DIMS0
  0
BLOCK_RECORD
  5
57
100
AcDbSymbolTableRecord
100
AcDbBlockTableRecord
  2
DIMS1
  0
BLOCK_RECORD
  5
63
100
AcDbSymbolTableRecord
100
AcDbBlockTableRecord
  2
DIMS2
  0
BLOCK_RECORD
  5
6F
100
AcDbSymbolTableRecord
100
AcDbBlockTableRecord
  2
DIMS3
  0
BLOCK_RECORD
  5
7B
100
AcDbSymbolTableRecord
100
AcDbBlockTableRecord
  2
DIMS4
  0
BLOCK_RECORD
  5
84
100
AcDbSymbolTableRecord
100
AcDbBlockTableRecord
  2
DIMS5
  0
BLOCK_RECORD
  5
90
100
AcDbSymbolTableRecord
100
AcDbBlockTableRecord
  2
DIMS6
  0
BLOCK_RECORD
  5
95
100
AcDbSymbolTableRecord
100
AcDbBlockTableRecord
  2
DIMS7
  0
BLOCK_RECORD
  5
9C
100
AcDbSymbolTableRecord
100
AcDbBlockTableRecord
  2
DIMS8
  0
BLOCK_RECORD
  5
A8
100
AcDbSymbolTableRecord
100
AcDbBlockTableRecord
  2
DIMS9
  0
ENDTAB
  0
ENDSEC
  0
SECTION
  2
BLOCKS
  0
BLOCK
  5
22
100
AcDbEntity
  8
0
100
AcDbBlockBegin
  2
*MODEL_SPACE
 70
     0
 10
0.0
 20
0.0
 30
0.0
  3
*MODEL_SPACE
  1

  0
ENDBLK
  5
23
100
AcDbEntity
  8
0
100
AcDbBlockEnd
  0
BLOCK
  5
25
100
AcDbEntity
 67
     1
  8
0
100
AcDbBlockBegin
  2
*PAPER_SPACE
 70
     0
 10
0.0
 20
0.0
 30
0.0
  3
*PAPER_SPACE
  1

  0
ENDBLK
  5
26
100
AcDbEntity
 67
     1
  8
0
100
AcDbBlockEnd
  0
BLOCK
  5
2A
100
AcDbEntity
  8
0
100
AcDbBlockBegin
  2
_NONE
 70
     0
 10
0.0
 20
0.0
  0
CIRCLE
  5
2B
100
AcDbEntity
  8
0
 62
     0
100
AcDbCircle
 10
0.0
 20
0.0
 40
0.25
  0
ENDBLK
  5
2C
100
AcDbEntity
  8
0
100
AcDbBlockEnd
  0
BLOCK
  5
2E
100
AcDbEntity
  8
0
100
AcDbBlockBegin
  2
_OPEN
 70
     0
 10
0.0
 20
0.0
  0
LINE
  5
2F
100
AcDbEntity
  8
0
 62
     0
100
AcDbLine
 10
-0.965926
 20
0.258819
 11
0.0
 21
0.0
  0
LINE
  5
30
100
AcDbEntity
  8
0
 62
     0
100
AcDbLine
 10
0.0
 20
0.0
 11
-0.965926
 21
-0.258819
  0
LINE
  5
31
100
AcDbEntity
  8
0
 62
     0
100
AcDbLine
 10
0.0
 20
0.0
 11
-1.0
 21
0.0
  0
ENDBLK
  5
32
100
AcDbEntity
  8
0
100
AcDbBlockEnd
  0
BLOCK
  5
34
100
AcDbEntity
  8
0
100
AcDbBlockBegin
  2
_CLOSED
 70
     0
 10
0.0
 20
0.0
  0
LINE
  5
35
100
AcDbEntity
  8
0
 62
     0
100
AcDbLine
 10
-0.965926
 20
0.258819
 11
0.0
 21
0.0
  0
LINE
  5
36
100
AcDbEntity
  8
0
 62
     0
100
AcDbLine
 10
0.0
 20
0.0
 11
-0.965926
 21
-0.258819
  0
LINE
  5
37
100
AcDbEntity
  8
0
 62
     0
100
AcDbLine
 10
-0.965926
 20
0.258819
 11
-0.965926
 21
-0.258819
  0
LINE
  5
38
100
AcDbEntity
  8
0
 62
     0
100
AcDbLine
 10
0.0
 20
0.0
 11
-1.0
 21
0.0
  0
ENDBLK
  5
39
100
AcDbEntity
  8
0
100
AcDbBlockEnd
  0
BLOCK
  5
3B
100
AcDbEntity
  8
0
100
AcDbBlockBegin
  2
_ORIGIN
 70
     0
 10
0.0
 20
0.0
  0
CIRCLE
  5
3C
100
AcDbEntity
  8
0
 62
     0
100
AcDbCircle
 10
0.0
 20
0.0
 40
0.5
  0
LINE
  5
3D
100
AcDbEntity
  8
0
 62
     0
100
AcDbLine
 10
0.0
 20
0.0
 11
-1.0
 21
0.0
  0
ENDBLK
  5
3E
100
AcDbEntity
  8
0
100
AcDbBlockEnd
  0
BLOCK
  5
40
100
AcDbEntity
  8
0
100
AcDbBlockBegin
  2
_DOT
 70
     0
 10
0.0
 20
0.0
  0
POLYLINE
  5
41
100
AcDbEntity
  8
0
 62
     0
100
AcDb2dPolyline
 66
     1
 70
     1
 40
0.5
 41
0.5
  0
VERTEX
  5
42
100
AcDbEntity
  8
0
 62
     0
100
AcDbVertex
100
AcDb2dVertex
 10
-0.25
 20
0.0
 42
1.0
  0
VERTEX
  5
43
100
AcDbEntity
  8
0
 62
     0
100
AcDbVertex
100
AcDb2dVertex
 10
0.25
 20
0.0
 42
1.0
  0
SEQEND
  5
44
100
AcDbEntity
  8
0
 62
     0
  0
LINE
  5
45
100
AcDbEntity
  8
0
 62
     0
100
AcDbLine
 10
-0.5
 20
0.0
 11
-1.0
 21
0.0
  0
ENDBLK
  5
46
100
AcDbEntity
  8
0
100
AcDbBlockEnd
  0
BLOCK
  5
48
100
AcDbEntity
  8
0
100
AcDbBlockBegin
  2
_OBLIQUE
 70
     0
 10
0.0
 20
0.0
  0
LINE
  5
49
100
AcDbEntity
  8
0
 62
     0
100
AcDbLine
 10
-0.353553
 20
-0.353553
 11
0.353553
 21
0.353553
  0
ENDBLK
  5
4A
100
AcDbEntity
  8
0
100
AcDbBlockEnd
  0
BLOCK
  5
4C
100
AcDbEntity
  8
DD0
100
AcDbBlockBegin
  2
DIMS0
 70
     0
 10
0.0
 20
0.0
  0
LINE
  5
4D
100
AcDbEntity
  8
DD0
100
AcDbLine
 10
35.379197
 20
265.893002
 11
23.437647
 21
265.893002
  0
LINE
  5
4E
100
AcDbEntity
  8
DD0
100
AcDbLine
 10
33.880311
 20
200.891424
 11
23.437647
 21
200.891424
  0
LINE
  5
4F
100
AcDbEntity
  8
DD0
100
AcDbLine
 10
25.411488
 20
262.673249
 11
24.548758
 21
265.893002
  0
LINE
  5
50
100
AcDbEntity
  8
DD0
100
AcDbLine
 10
24.548758
 20
265.893002
 11
23.686028
 21
262.673249
  0
LINE
  5
51
100
AcDbEntity
  8
DD0
100
AcDbLine
 10
23.686028
 20
204.111177
 11
24.548758
 21
200.891424
  0
LINE
  5
52
100
AcDbEntity
  8
DD0
100
AcDbLine
 10
24.548758
 20
200.891424
 11
25.411488
 21
204.111177
  0
LINE
  5
53
100
AcDbEntity
  8
DD0
100
AcDbLine
 10
24.548758
 20
265.893002
 11
24.548758
 21
200.891424
  0
TEXT
  5
54
100
AcDbEntity
  8
DD0
100
AcDbText
 10
23.882091
 20
230.178324
 40
3.5
  1
６５
 50
90.000003
 41
0.833333
  7
STANDARD
100
AcDbText
  0
ENDBLK
  5
55
100
AcDbEntity
  8
DD0
100
AcDbBlockEnd
  0
BLOCK
  5
58
100
AcDbEntity
  8
DD0
100
AcDbBlockBegin
  2
DIMS1
 70
     0
 10
0.0
 20
0.0
  0
LINE
  5
59
100
AcDbEntity
  8
DD0
100
AcDbLine
 10
34.490309
 20
265.00411
 11
34.490309
 21
278.025452
  0
LINE
  5
5A
100
AcDbEntity
  8
DD0
100
AcDbLine
 10
77.491406
 20
266.502404
 11
77.491406
 21
278.025452
  0
LINE
  5
5B
100
AcDbEntity
  8
DD0
100
AcDbLine
 10
37.710061
 20
277.777071
 11
34.490309
 21
276.914341
  0
LINE
  5
5C
100
AcDbEntity
  8
DD0
100
AcDbLine
 10
34.490309
 20
276.914341
 11
37.710061
 21
276.051611
  0
LINE
  5
5D
100
AcDbEntity
  8
DD0
100
AcDbLine
 10
74.271653
 20
276.051611
 11
77.491406
 21
276.914341
  0
LINE
  5
5E
100
AcDbEntity
  8
DD0
100
AcDbLine
 10
77.491406
 20
276.914341
 11
74.271653
 21
277.777071
  0
LINE
  5
5F
100
AcDbEntity
  8
DD0
100
AcDbLine
 10
34.490309
 20
276.914341
 11
77.491406
 21
276.914341
  0
TEXT
  5
60
100
AcDbEntity
  8
DD0
100
AcDbText
 10
52.776967
 20
277.581015
 40
3.5
  1
４３
 41
0.833333
  7
STANDARD
100
AcDbText
  0
ENDBLK
  5
61
100
AcDbEntity
  8
DD0
100
AcDbBlockEnd
  0
BLOCK
  5
64
100
AcDbEntity
  8
DD0
100
AcDbBlockBegin
  2
DIMS2
 70
     0
 10
0.0
 20
0.0
  0
LINE
  5
65
100
AcDbEntity
  8
DD0
100
AcDbLine
 10
98.684873
 20
201.10108
 11
98.684873
 21
194.449129
  0
LINE
  5
66
100
AcDbEntity
  8
DD0
100
AcDbLine
 10
108.684967
 20
216.280167
 11
108.684967
 21
194.449129
  0
LINE
  5
67
100
AcDbEntity
  8
DD0
100
AcDbLine
 10
101.904626
 20
196.42297
 11
98.684873
 21
195.56024
  0
LINE
  5
68
100
AcDbEntity
  8
DD0
100
AcDbLine
 10
98.684873
 20
195.56024
 11
101.904626
 21
194.69751
  0
LINE
  5
69
100
AcDbEntity
  8
DD0
100
AcDbLine
 10
105.465214
 20
194.69751
 11
108.684967
 21
195.56024
  0
LINE
  5
6A
100
AcDbEntity
  8
DD0
100
AcDbLine
 10
108.684967
 20
195.56024
 11
105.465214
 21
196.42297
  0
LINE
  5
6B
100
AcDbEntity
  8
DD0
100
AcDbLine
 10
98.684873
 20
195.56024
 11
108.684967
 21
195.56024
  0
TEXT
  5
6C
100
AcDbEntity
  8
DD0
100
AcDbText
 10
96.971024
 20
191.171354
 40
3.5
  1
最小１０
 41
0.833333
  7
STANDARD
100
AcDbText
  0
ENDBLK
  5
6D
100
AcDbEntity
  8
DD0
100
AcDbBlockEnd
  0
BLOCK
  5
70
100
AcDbEntity
  8
DD0
100
AcDbBlockBegin
  2
DIMS3
 70
     0
 10
0.0
 20
0.0
  0
LINE
  5
71
100
AcDbEntity
  8
DD0
100
AcDbLine
 10
105.684961
 20
236.252515
 11
105.684961
 21
278.025452
  0
LINE
  5
72
100
AcDbEntity
  8
DD0
100
AcDbLine
 10
108.684967
 20
250.502394
 11
108.684967
 21
278.025452
  0
LINE
  5
73
100
AcDbEntity
  8
DD0
100
AcDbLine
 10
102.465209
 20
276.051611
 11
105.684961
 21
276.914341
  0
LINE
  5
74
100
AcDbEntity
  8
DD0
100
AcDbLine
 10
105.684961
 20
276.914341
 11
102.465209
 21
277.777071
  0
LINE
  5
75
100
AcDbEntity
  8
DD0
100
AcDbLine
 10
111.904719
 20
277.777071
 11
108.684967
 21
276.914341
  0
LINE
  5
76
100
AcDbEntity
  8
DD0
100
AcDbLine
 10
108.684967
 20
276.914341
 11
111.904719
 21
276.051611
  0
LINE
  5
77
100
AcDbEntity
  8
DD0
100
AcDbLine
 10
102.018295
 20
276.914341
 11
112.351633
 21
276.914341
  0
TEXT
  5
78
100
AcDbEntity
  8
DD0
100
AcDbText
 10
105.721076
 20
277.581015
 40
3.5
  1
３
 41
0.833333
  7
STANDARD
100
AcDbText
  0
ENDBLK
  5
79
100
AcDbEntity
  8
DD0
100
AcDbBlockEnd
  0
BLOCK
  5
7C
100
AcDbEntity
  8
DD0
100
AcDbBlockBegin
  2
DIMS4
 70
     0
 10
0.0
 20
0.0
  0
LINE
  5
7D
100
AcDbEntity
  8
DD0
100
AcDbLine
 10
210.689109
 20
267.064216
 11
210.689109
 21
278.025452
  0
LINE
  5
7E
100
AcDbEntity
  8
DD0
100
AcDbLine
 10
207.469357
 20
276.051611
 11
210.689109
 21
276.914341
  0
LINE
  5
7F
100
AcDbEntity
  8
DD0
100
AcDbLine
 10
210.689109
 20
276.914341
 11
207.469357
 21
277.777071
  0
LINE
  5
80
100
AcDbEntity
  8
DD0
100
AcDbLine
 10
108.684967
 20
276.914341
 11
210.689109
 21
276.914341
  0
TEXT
  5
81
100
AcDbEntity
  8
DD0
100
AcDbText
 10
154.723135
 20
277.581015
 40
3.5
  1
１０２
 41
0.833333
  7
STANDARD
100
AcDbText
  0
ENDBLK
  5
82
100
AcDbEntity
  8
DD0
100
AcDbBlockEnd
  0
BLOCK
  5
85
100
AcDbEntity
  8
DD0
100
AcDbBlockBegin
  2
DIMS5
 70
     0
 10
0.0
 20
0.0
  0
LINE
  5
86
100
AcDbEntity
  8
DD0
100
AcDbLine
 10
200.689109
 20
199.841992
 11
200.689109
 21
194.449129
  0
LINE
  5
87
100
AcDbEntity
  8
DD0
100
AcDbLine
 10
210.689109
 20
199.841992
 11
210.689109
 21
194.449129
  0
LINE
  5
88
100
AcDbEntity
  8
DD0
100
AcDbLine
 10
203.908862
 20
196.42297
 11
200.689109
 21
195.56024
  0
LINE
  5
89
100
AcDbEntity
  8
DD0
100
AcDbLine
 10
200.689109
 20
195.56024
 11
203.908862
 21
194.69751
  0
LINE
  5
8A
100
AcDbEntity
  8
DD0
100
AcDbLine
 10
207.469357
 20
194.69751
 11
210.689109
 21
195.56024
  0
LINE
  5
8B
100
AcDbEntity
  8
DD0
100
AcDbLine
 10
210.689109
 20
195.56024
 11
207.469357
 21
196.42297
  0
LINE
  5
8C
100
AcDbEntity
  8
DD0
100
AcDbLine
 10
200.689109
 20
195.56024
 11
210.689109
 21
195.56024
  0
TEXT
  5
8D
100
AcDbEntity
  8
DD0
100
AcDbText
 10
202.475228
 20
196.226914
 40
3.5
  1
１０
 41
0.833333
  7
STANDARD
100
AcDbText
  0
ENDBLK
  5
8E
100
AcDbEntity
  8
DD0
100
AcDbBlockEnd
  0
BLOCK
  5
91
100
AcDbEntity
  8
DD0
100
AcDbBlockBegin
  2
DIMS6
 70
     0
 10
0.0
 20
0.0
  0
TEXT
  5
92
100
AcDbEntity
  8
DD0
100
AcDbText
 10
79.050627
 20
78.71394
 40
3.5
  1
２－Ｍ４ねじ穴
 41
0.666667
  7
STANDARD
100
AcDbText
  0
ENDBLK
  5
93
100
AcDbEntity
  8
DD0
100
AcDbBlockEnd
  0
BLOCK
  5
96
100
AcDbEntity
  8
DD0
100
AcDbBlockBegin
  2
DIMS7
 70
     0
 10
0.0
 20
0.0
  0
LINE
  5
97
100
AcDbEntity
  8
DD0
100
AcDbLine
 10
75.923972
 20
89.405788
 11
73.45594
 21
91.646307
  0
LINE
  5
98
100
AcDbEntity
  8
DD0
100
AcDbLine
 10
73.45594
 20
91.646307
 11
74.473059
 21
88.471944
  0
LINE
  5
99
100
AcDbEntity
  8
DD0
100
AcDbLine
 10
73.45594
 20
91.646307
 11
78.966524
 21
83.084507
  0
ENDBLK
  5
9A
100
AcDbEntity
  8
DD0
100
AcDbBlockEnd
  0
BLOCK
  5
9D
100
AcDbEntity
  8
DD0
100
AcDbBlockBegin
  2
DIMS8
 70
     0
 10
0.0
 20
0.0
  0
LINE
  5
9E
100
AcDbEntity
  8
DD0
100
AcDbLine
 10
77.69996
 20
93.672462
 11
89.868048
 21
93.672462
  0
LINE
  5
9F
100
AcDbEntity
  8
DD0
100
AcDbLine
 10
44.199962
 20
148.672438
 11
89.868048
 21
148.672438
  0
LINE
  5
A0
100
AcDbEntity
  8
DD0
100
AcDbLine
 10
87.894206
 20
96.892215
 11
88.756937
 21
93.672462
  0
LINE
  5
A1
100
AcDbEntity
  8
DD0
100
AcDbLine
 10
88.756937
 20
93.672462
 11
89.619667
 21
96.892215
  0
LINE
  5
A2
100
AcDbEntity
  8
DD0
100
AcDbLine
 10
89.619667
 20
145.452686
 11
88.756937
 21
148.672438
  0
LINE
  5
A3
100
AcDbEntity
  8
DD0
100
AcDbLine
 10
88.756937
 20
148.672438
 11
87.894206
 21
145.452686
  0
LINE
  5
A4
100
AcDbEntity
  8
DD0
100
AcDbLine
 10
88.756937
 20
93.672462
 11
88.756937
 21
148.672438
  0
TEXT
  5
A5
100
AcDbEntity
  8
DD0
100
AcDbText
 10
88.090272
 20
117.958565
 40
3.5
  1
５５
 50
90.000003
 41
0.833333
  7
STANDARD
100
AcDbText
  0
ENDBLK
  5
A6
100
AcDbEntity
  8
DD0
100
AcDbBlockEnd
  0
BLOCK
  5
A9
100
AcDbEntity
  8
DD0
100
AcDbBlockBegin
  2
DIMS9
 70
     0
 10
0.0
 20
0.0
  0
LINE
  5
AA
100
AcDbEntity
  8
DD0
100
AcDbLine
 10
38.991437
 20
153.880958
 11
38.991437
 21
163.541959
  0
LINE
  5
AB
100
AcDbEntity
  8
DD0
100
AcDbLine
 10
71.991435
 20
99.380971
 11
71.991435
 21
163.541959
  0
LINE
  5
AC
100
AcDbEntity
  8
DD0
100
AcDbLine
 10
42.21119
 20
163.293578
 11
38.991437
 21
162.430848
  0
LINE
  5
AD
100
AcDbEntity
  8
DD0
100
AcDbLine
 10
38.991437
 20
162.430848
 11
42.21119
 21
161.568118
  0
LINE
  5
AE
100
AcDbEntity
  8
DD0
100
AcDbLine
 10
68.771682
 20
161.568118
 11
71.991435
 21
162.430848
  0
LINE
  5
AF
100
AcDbEntity
  8
DD0
100
AcDbLine
 10
71.991435
 20
162.430848
 11
68.771682
 21
163.293578
  0
LINE
  5
B0
100
AcDbEntity
  8
DD0
100
AcDbLine
 10
38.991437
 20
162.430848
 11
71.991435
 21
162.430848
  0
TEXT
  5
B1
100
AcDbEntity
  8
DD0
100
AcDbText
 10
52.277547
 20
163.097522
 40
3.5
  1
３３
 41
0.833333
  7
STANDARD
100
AcDbText
  0
ENDBLK
  5
B2
100
AcDbEntity
  8
DD0
100
AcDbBlockEnd
  0
ENDSEC
  0
SECTION
  2
ENTITIES
  0
INSERT
  5
56
100
AcDbEntity
  8
DD0
100
AcDbBlockReference
  2
DIMS0
 10
0.0
 20
0.0
  0
INSERT
  5
62
100
AcDbEntity
  8
DD0
100
AcDbBlockReference
  2
DIMS1
 10
0.0
 20
0.0
  0
INSERT
  5
6E
100
AcDbEntity
  8
DD0
100
AcDbBlockReference
  2
DIMS2
 10
0.0
 20
0.0
  0
INSERT
  5
7A
100
AcDbEntity
  8
DD0
100
AcDbBlockReference
  2
DIMS3
 10
0.0
 20
0.0
  0
INSERT
  5
83
100
AcDbEntity
  8
DD0
100
AcDbBlockReference
  2
DIMS4
 10
0.0
 20
0.0
  0
INSERT
  5
8F
100
AcDbEntity
  8
DD0
100
AcDbBlockReference
  2
DIMS5
 10
0.0
 20
0.0
  0
INSERT
  5
94
100
AcDbEntity
  8
DD0
100
AcDbBlockReference
  2
DIMS6
 10
0.0
 20
0.0
  0
INSERT
  5
9B
100
AcDbEntity
  8
DD0
100
AcDbBlockReference
  2
DIMS7
 10
0.0
 20
0.0
  0
INSERT
  5
A7
100
AcDbEntity
  8
DD0
100
AcDbBlockReference
  2
DIMS8
 10
0.0
 20
0.0
  0
INSERT
  5
B3
100
AcDbEntity
  8
DD0
100
AcDbBlockReference
  2
DIMS9
 10
0.0
 20
0.0
  0
LINE
  5
B4
100
AcDbEntity
  8
M0
 62
     4
100
AcDbLine
 10
34.991421
 20
200.891424
 11
46.991421
 21
200.891424
  0
LINE
  5
B5
100
AcDbEntity
  8
M0
 62
     4
100
AcDbLine
 10
77.491421
 20
204.891409
 11
77.491421
 21
233.391424
  0
LINE
  5
B6
100
AcDbEntity
  8
M0
 62
     4
100
AcDbLine
 10
34.491421
 20
233.391424
 11
34.491421
 21
201.391424
  0
LINE
  5
B7
100
AcDbEntity
  8
M0
  6
DASHDOT
 62
     4
100
AcDbLine
 10
55.991421
 20
198.607244
 11
55.991421
 21
233.391424
  0
LINE
  5
B8
100
AcDbEntity
  8
M0
 62
     4
100
AcDbLine
 10
37.041409
 20
218.891424
 11
44.941418
 21
218.891424
  0
LINE
  5
B9
100
AcDbEntity
  8
M0
 62
     4
100
AcDbLine
 10
37.041409
 20
227.591421
 11
44.941418
 21
227.591421
  0
LINE
  5
BA
100
AcDbEntity
  8
M0
 62
     4
100
AcDbLine
 10
74.941418
 20
227.591421
 11
74.941418
 21
204.891424
  0
LINE
  5
BB
100
AcDbEntity
  8
M0
 62
     4
100
AcDbLine
 10
67.041409
 20
227.591421
 11
67.041409
 21
202.891424
  0
LINE
  5
BC
100
AcDbEntity
  8
M0
 62
     4
100
AcDbLine
 10
64.941418
 20
227.591421
 11
64.941418
 21
202.891424
  0
LINE
  5
BD
100
AcDbEntity
  8
M0
 62
     4
100
AcDbLine
 10
57.041409
 20
227.591421
 11
57.041409
 21
202.891424
  0
LINE
  5
BE
100
AcDbEntity
  8
M0
 62
     4
100
AcDbLine
 10
54.941418
 20
227.591421
 11
54.941418
 21
202.891424
  0
LINE
  5
BF
100
AcDbEntity
  8
M0
 62
     4
100
AcDbLine
 10
47.041409
 20
227.591421
 11
47.041409
 21
202.891424
  0
LINE
  5
C0
100
AcDbEntity
  8
M0
 62
     4
100
AcDbLine
 10
44.941418
 20
227.591421
 11
44.941418
 21
201.391424
  0
LINE
  5
C1
100
AcDbEntity
  8
M0
 62
     4
100
AcDbLine
 10
37.041409
 20
227.591421
 11
37.041409
 21
200.891424
  0
LINE
  5
C2
100
AcDbEntity
  8
M0
 62
     4
100
AcDbLine
 10
47.041409
 20
227.591421
 11
54.941418
 21
227.591421
  0
LINE
  5
C3
100
AcDbEntity
  8
M0
 62
     4
100
AcDbLine
 10
67.041409
 20
227.591421
 11
74.941418
 21
227.591421
  0
LINE
  5
C4
100
AcDbEntity
  8
M0
 62
     4
100
AcDbLine
 10
57.041409
 20
227.591421
 11
64.941418
 21
227.591421
  0
LINE
  5
C5
100
AcDbEntity
  8
M0
 62
     4
100
AcDbLine
 10
37.041409
 20
208.891424
 11
44.941418
 21
208.891424
  0
LINE
  5
C6
100
AcDbEntity
  8
M0
 62
     4
100
AcDbLine
 10
67.041409
 20
208.891424
 11
74.941418
 21
208.891424
  0
LINE
  5
C7
100
AcDbEntity
  8
M0
 62
     4
100
AcDbLine
 10
57.041409
 20
208.891424
 11
64.941418
 21
208.891424
  0
LINE
  5
C8
100
AcDbEntity
  8
M0
 62
     4
100
AcDbLine
 10
57.041409
 20
218.891424
 11
64.941418
 21
218.891424
  0
LINE
  5
C9
100
AcDbEntity
  8
M0
 62
     4
100
AcDbLine
 10
47.041409
 20
208.891424
 11
54.941418
 21
208.891424
  0
LINE
  5
CA
100
AcDbEntity
  8
M0
 62
     4
100
AcDbLine
 10
47.041409
 20
218.891424
 11
54.941418
 21
218.891424
  0
LINE
  5
CB
100
AcDbEntity
  8
M0
 62
     4
100
AcDbLine
 10
34.991421
 20
213.391424
 11
36.541409
 21
213.391424
  0
LINE
  5
CC
100
AcDbEntity
  8
M0
 62
     4
100
AcDbLine
 10
45.441418
 20
212.391424
 11
46.541409
 21
212.391424
  0
LINE
  5
CD
100
AcDbEntity
  8
M0
 62
     4
100
AcDbLine
 10
55.441418
 20
212.391424
 11
56.541409
 21
212.391424
  0
LINE
  5
CE
100
AcDbEntity
  8
M0
 62
     4
100
AcDbLine
 10
65.441418
 20
212.391424
 11
66.541409
 21
212.391424
  0
LINE
  5
CF
100
AcDbEntity
  8
M0
 62
     4
100
AcDbLine
 10
75.441418
 20
212.391424
 11
76.991421
 21
212.391424
  0
LINE
  5
D0
100
AcDbEntity
  8
M0
 62
     4
100
AcDbLine
 10
67.041409
 20
218.891424
 11
74.941418
 21
218.891424
  0
ARC
  5
D1
100
AcDbEntity
  8
M0
 62
     4
100
AcDbCircle
 10
34.991421
 20
213.891424
 40
0.5
100
AcDbArc
 50
180.0
 51
270.0
  0
ARC
  5
D2
100
AcDbEntity
  8
M0
 62
     4
100
AcDbCircle
 10
36.541409
 20
213.891424
 40
0.5
100
AcDbArc
 50
270.0
 51
360.0
  0
ARC
  5
D3
100
AcDbEntity
  8
M0
 62
     4
100
AcDbCircle
 10
45.441418
 20
212.891424
 40
0.5
100
AcDbArc
 50
180.0
 51
270.0
  0
ARC
  5
D4
100
AcDbEntity
  8
M0
 62
     4
100
AcDbCircle
 10
55.441418
 20
212.891424
 40
0.5
100
AcDbArc
 50
180.0
 51
269.998251
  0
ARC
  5
D5
100
AcDbEntity
  8
M0
 62
     4
100
AcDbCircle
 10
65.441418
 20
212.891424
 40
0.5
100
AcDbArc
 50
180.0
 51
269.998251
  0
ARC
  5
D6
100
AcDbEntity
  8
M0
 62
     4
100
AcDbCircle
 10
75.441418
 20
212.891424
 40
0.5
100
AcDbArc
 50
180.0
 51
269.998251
  0
ARC
  5
D7
100
AcDbEntity
  8
M0
 62
     4
100
AcDbCircle
 10
46.541409
 20
212.891424
 40
0.5
100
AcDbArc
 50
270.0
 51
360.0
  0
ARC
  5
D8
100
AcDbEntity
  8
M0
 62
     4
100
AcDbCircle
 10
56.541409
 20
212.891424
 40
0.5
100
AcDbArc
 50
269.998251
 51
360.0
  0
ARC
  5
D9
100
AcDbEntity
  8
M0
 62
     4
100
AcDbCircle
 10
66.541409
 20
212.891424
 40
0.5
100
AcDbArc
 50
269.998251
 51
360.0
  0
ARC
  5
DA
100
AcDbEntity
  8
M0
 62
     4
100
AcDbCircle
 10
76.991421
 20
212.891424
 40
0.5
100
AcDbArc
 50
269.998251
 51
360.0
  0
LINE
  5
DB
100
AcDbEntity
  8
M0
 62
     4
100
AcDbLine
 10
34.991421
 20
203.391424
 11
36.541409
 21
203.391424
  0
ARC
  5
DC
100
AcDbEntity
  8
M0
 62
     4
100
AcDbCircle
 10
34.991421
 20
203.891424
 40
0.5
100
AcDbArc
 50
180.0
 51
270.0
  0
ARC
  5
DD
100
AcDbEntity
  8
M0
 62
     4
100
AcDbCircle
 10
36.541409
 20
203.891424
 40
0.5
100
AcDbArc
 50
270.0
 51
360.0
  0
ARC
  5
DE
100
AcDbEntity
  8
M0
 62
     4
100
AcDbCircle
 10
34.991421
 20
201.391424
 40
0.5
100
AcDbArc
 50
179.999966
 51
270.0
  0
LINE
  5
DF
100
AcDbEntity
  8
M0
 62
     4
100
AcDbLine
 10
75.441418
 20
204.391424
 11
76.991421
 21
204.391424
  0
LINE
  5
E0
100
AcDbEntity
  8
M0
 62
     4
100
AcDbLine
 10
65.441418
 20
202.391424
 11
66.541409
 21
202.391424
  0
LINE
  5
E1
100
AcDbEntity
  8
M0
 62
     4
100
AcDbLine
 10
55.441418
 20
202.391424
 11
56.541409
 21
202.391424
  0
LINE
  5
E2
100
AcDbEntity
  8
M0
 62
     4
100
AcDbLine
 10
45.441418
 20
202.391424
 11
46.541409
 21
202.391424
  0
LINE
  5
E3
100
AcDbEntity
  8
M0
 62
     4
100
AcDbLine
 10
47.491421
 20
208.891424
 11
47.491421
 21
201.391424
  0
ARC
  5
E4
100
AcDbEntity
  8
M0
 62
     4
100
AcDbCircle
 10
75.441418
 20
204.891424
 40
0.5
100
AcDbArc
 50
180.0
 51
269.998251
  0
ARC
  5
E5
100
AcDbEntity
  8
M0
 62
     4
100
AcDbCircle
 10
76.991421
 20
204.891424
 40
0.5
100
AcDbArc
 50
269.998251
 51
360.0
  0
ARC
  5
E6
100
AcDbEntity
  8
M0
 62
     4
100
AcDbCircle
 10
65.441418
 20
202.891424
 40
0.5
100
AcDbArc
 50
180.0
 51
269.998251
  0
ARC
  5
E7
100
AcDbEntity
  8
M0
 62
     4
100
AcDbCircle
 10
66.541409
 20
202.891424
 40
0.5
100
AcDbArc
 50
269.998251
 51
360.0
  0
ARC
  5
E8
100
AcDbEntity
  8
M0
 62
     4
100
AcDbCircle
 10
55.441418
 20
202.891424
 40
0.5
100
AcDbArc
 50
180.0
 51
269.998251
  0
ARC
  5
E9
100
AcDbEntity
  8
M0
 62
     4
100
AcDbCircle
 10
56.541409
 20
202.891424
 40
0.5
100
AcDbArc
 50
269.998251
 51
360.0
  0
ARC
  5
EA
100
AcDbEntity
  8
M0
 62
     4
100
AcDbCircle
 10
45.441418
 20
202.891424
 40
0.5
100
AcDbArc
 50
180.0
 51
270.0
  0
ARC
  5
EB
100
AcDbEntity
  8
M0
 62
     4
100
AcDbCircle
 10
46.541409
 20
202.891424
 40
0.5
100
AcDbArc
 50
270.0
 51
360.0
  0
ARC
  5
EC
100
AcDbEntity
  8
M0
 62
     4
100
AcDbCircle
 10
45.441418
 20
201.391424
 40
0.5
100
AcDbArc
 50
179.999966
 51
270.0
  0
ARC
  5
ED
100
AcDbEntity
  8
M0
 62
     4
100
AcDbCircle
 10
46.991421
 20
201.391424
 40
0.5
100
AcDbArc
 50
270.0
 51
360.0
  0
LINE
  5
EE
100
AcDbEntity
  8
M0
  6
DASHDOT
 62
     4
100
AcDbLine
 10
68.905347
 20
223.091421
 11
73.311444
 21
223.091421
  0
LINE
  5
EF
100
AcDbEntity
  8
M0
  6
DASHDOT
 62
     4
100
AcDbLine
 10
58.33067
 20
223.091421
 11
63.393704
 21
223.091421
  0
LINE
  5
F0
100
AcDbEntity
  8
M0
  6
DASHDOT
 62
     4
100
AcDbLine
 10
48.845532
 20
223.091421
 11
53.187543
 21
223.091421
  0
LINE
  5
F1
100
AcDbEntity
  8
M0
  6
DASHDOT
 62
     4
100
AcDbLine
 10
39.039944
 20
223.091421
 11
43.38194
 21
223.091421
  0
LINE
  5
F2
100
AcDbEntity
  8
M0
  6
DASHDOT
 62
     4
100
AcDbLine
 10
68.745129
 20
213.591421
 11
73.391553
 21
213.591421
  0
LINE
  5
F3
100
AcDbEntity
  8
M0
  6
DASHDOT
 62
     4
100
AcDbLine
 10
58.827374
 20
213.591421
 11
63.025174
 21
213.591421
  0
LINE
  5
F4
100
AcDbEntity
  8
M0
  6
DASHDOT
 62
     4
100
AcDbLine
 10
48.749402
 20
213.591421
 11
53.411847
 21
213.591421
  0
LINE
  5
F5
100
AcDbEntity
  8
M0
  6
DASHDOT
 62
     4
100
AcDbLine
 10
38.607327
 20
213.591421
 11
43.75047
 21
213.591421
  0
LINE
  5
F6
100
AcDbEntity
  8
M0
 62
     4
100
AcDbLine
 10
76.991421
 20
265.891287
 11
64.991421
 21
265.891287
  0
LINE
  5
F7
100
AcDbEntity
  8
M0
 62
     4
100
AcDbLine
 10
34.491421
 20
261.891287
 11
34.491421
 21
233.391317
  0
LINE
  5
F8
100
AcDbEntity
  8
M0
 62
     4
100
AcDbLine
 10
77.491391
 20
233.391287
 11
77.491406
 21
265.391287
  0
LINE
  5
F9
100
AcDbEntity
  8
M0
  6
DASHDOT
 62
     4
100
AcDbLine
 10
83.741391
 20
233.391287
 11
28.241421
 21
233.391348
  0
LINE
  5
FA
100
AcDbEntity
  8
M0
  6
DASHDOT
 62
     4
100
AcDbLine
 10
55.991437
 20
268.944693
 11
55.991421
 21
233.391317
  0
LINE
  5
FB
100
AcDbEntity
  8
M0
 62
     4
100
AcDbLine
 10
74.941418
 20
247.891317
 11
67.041409
 21
247.891317
  0
LINE
  5
FC
100
AcDbEntity
  8
M0
 62
     4
100
AcDbLine
 10
74.941418
 20
239.19132
 11
67.041409
 21
239.19132
  0
LINE
  5
FD
100
AcDbEntity
  8
M0
 62
     4
100
AcDbLine
 10
37.041425
 20
239.19132
 11
37.041425
 21
261.891287
  0
LINE
  5
FE
100
AcDbEntity
  8
M0
 62
     4
100
AcDbLine
 10
44.941434
 20
239.19132
 11
44.941434
 21
263.891287
  0
LINE
  5
FF
100
AcDbEntity
  8
M0
 62
     4
100
AcDbLine
 10
47.041425
 20
239.19132
 11
47.041425
 21
263.891287
  0
LINE
  5
100
100
AcDbEntity
  8
M0
 62
     4
100
AcDbLine
 10
54.941434
 20
239.19132
 11
54.941434
 21
263.891287
  0
LINE
  5
101
100
AcDbEntity
  8
M0
 62
     4
100
AcDbLine
 10
57.041425
 20
239.19132
 11
57.041425
 21
263.891287
  0
LINE
  5
102
100
AcDbEntity
  8
M0
 62
     4
100
AcDbLine
 10
64.941418
 20
239.19132
 11
64.941434
 21
263.891287
  0
LINE
  5
103
100
AcDbEntity
  8
M0
 62
     4
100
AcDbLine
 10
67.041409
 20
239.19132
 11
67.041425
 21
265.391287
  0
LINE
  5
104
100
AcDbEntity
  8
M0
 62
     4
100
AcDbLine
 10
74.941418
 20
239.19132
 11
74.941418
 21
265.891043
  0
LINE
  5
105
100
AcDbEntity
  8
M0
 62
     4
100
AcDbLine
 10
64.941418
 20
239.19132
 11
57.041425
 21
239.19132
  0
LINE
  5
106
100
AcDbEntity
  8
M0
 62
     4
100
AcDbLine
 10
44.941434
 20
239.19132
 11
37.041425
 21
239.19132
  0
LINE
  5
107
100
AcDbEntity
  8
M0
 62
     4
100
AcDbLine
 10
54.941434
 20
239.19132
 11
47.041425
 21
239.19132
  0
LINE
  5
108
100
AcDbEntity
  8
M0
 62
     4
100
AcDbLine
 10
74.941418
 20
257.891287
 11
67.041409
 21
257.891287
  0
LINE
  5
109
100
AcDbEntity
  8
M0
 62
     4
100
AcDbLine
 10
44.941434
 20
257.891287
 11
37.041425
 21
257.891287
  0
LINE
  5
10A
100
AcDbEntity
  8
M0
 62
     4
100
AcDbLine
 10
54.941434
 20
257.891287
 11
47.041425
 21
257.891287
  0
LINE
  5
10B
100
AcDbEntity
  8
M0
 62
     4
100
AcDbLine
 10
54.941434
 20
247.891317
 11
47.041425
 21
247.891317
  0
LINE
  5
10C
100
AcDbEntity
  8
M0
 62
     4
100
AcDbLine
 10
64.941418
 20
257.891287
 11
57.041425
 21
257.891287
  0
LINE
  5
10D
100
AcDbEntity
  8
M0
 62
     4
100
AcDbLine
 10
64.941418
 20
247.891317
 11
57.041425
 21
247.891317
  0
LINE
  5
10E
100
AcDbEntity
  8
M0
 62
     4
100
AcDbLine
 10
76.991406
 20
253.391287
 11
75.441418
 21
253.391287
  0
LINE
  5
10F
100
AcDbEntity
  8
M0
 62
     4
100
AcDbLine
 10
66.541409
 20
254.391287
 11
65.441418
 21
254.391287
  0
LINE
  5
110
100
AcDbEntity
  8
M0
 62
     4
100
AcDbLine
 10
56.541425
 20
254.391287
 11
55.441434
 21
254.391287
  0
LINE
  5
111
100
AcDbEntity
  8
M0
 62
     4
100
AcDbLine
 10
46.541425
 20
254.391287
 11
45.441434
 21
254.391287
  0
LINE
  5
112
100
AcDbEntity
  8
M0
 62
     4
100
AcDbLine
 10
36.541425
 20
254.391287
 11
34.991421
 21
254.391287
  0
LINE
  5
113
100
AcDbEntity
  8
M0
 62
     4
100
AcDbLine
 10
44.941434
 20
247.891317
 11
37.041425
 21
247.891317
  0
ARC
  5
114
100
AcDbEntity
  8
M0
 62
     4
100
AcDbCircle
 10
76.991406
 20
252.891287
 40
0.5
100
AcDbArc
 50
0.0
 51
90.0
  0
ARC
  5
115
100
AcDbEntity
  8
M0
 62
     4
100
AcDbCircle
 10
75.441418
 20
252.891287
 40
0.5
100
AcDbArc
 50
90.0
 51
180.0
  0
ARC
  5
116
100
AcDbEntity
  8
M0
 62
     4
100
AcDbCircle
 10
66.541409
 20
253.891287
 40
0.5
100
AcDbArc
 50
0.0
 51
90.0
  0
ARC
  5
117
100
AcDbEntity
  8
M0
 62
     4
100
AcDbCircle
 10
56.541425
 20
253.891287
 40
0.5
100
AcDbArc
 50
0.0
 51
90.0
  0
ARC
  5
118
100
AcDbEntity
  8
M0
 62
     4
100
AcDbCircle
 10
46.541425
 20
253.891287
 40
0.5
100
AcDbArc
 50
0.0
 51
90.0
  0
ARC
  5
119
100
AcDbEntity
  8
M0
 62
     4
100
AcDbCircle
 10
36.541425
 20
253.891287
 40
0.5
100
AcDbArc
 50
0.0
 51
90.0
  0
ARC
  5
11A
100
AcDbEntity
  8
M0
 62
     4
100
AcDbCircle
 10
65.441418
 20
253.891287
 40
0.5
100
AcDbArc
 50
90.0
 51
180.0
  0
ARC
  5
11B
100
AcDbEntity
  8
M0
 62
     4
100
AcDbCircle
 10
55.441434
 20
253.891287
 40
0.5
100
AcDbArc
 50
90.0
 51
180.0
  0
ARC
  5
11C
100
AcDbEntity
  8
M0
 62
     4
100
AcDbCircle
 10
45.441434
 20
253.891287
 40
0.5
100
AcDbArc
 50
90.0
 51
180.0
  0
ARC
  5
11D
100
AcDbEntity
  8
M0
 62
     4
100
AcDbCircle
 10
34.991421
 20
253.891287
 40
0.5
100
AcDbArc
 50
90.0
 51
180.0
  0
LINE
  5
11E
100
AcDbEntity
  8
M0
 62
     4
100
AcDbLine
 10
76.991406
 20
263.391287
 11
75.441434
 21
263.391287
  0
ARC
  5
11F
100
AcDbEntity
  8
M0
 62
     4
100
AcDbCircle
 10
76.991406
 20
262.891287
 40
0.5
100
AcDbArc
 50
0.0
 51
90.0
  0
ARC
  5
120
100
AcDbEntity
  8
M0
 62
     4
100
AcDbCircle
 10
75.441434
 20
262.891287
 40
0.5
100
AcDbArc
 50
90.0
 51
180.0
  0
ARC
  5
121
100
AcDbEntity
  8
M0
 62
     4
100
AcDbCircle
 10
76.991421
 20
265.391287
 40
0.5
100
AcDbArc
 50
0.0
 51
90.0
  0
LINE
  5
122
100
AcDbEntity
  8
M0
 62
     4
100
AcDbLine
 10
36.541425
 20
262.391287
 11
34.991421
 21
262.391287
  0
LINE
  5
123
100
AcDbEntity
  8
M0
 62
     4
100
AcDbLine
 10
46.541425
 20
264.391287
 11
45.441434
 21
264.391287
  0
LINE
  5
124
100
AcDbEntity
  8
M0
 62
     4
100
AcDbLine
 10
56.541425
 20
264.391287
 11
55.441434
 21
264.391287
  0
LINE
  5
125
100
AcDbEntity
  8
M0
 62
     4
100
AcDbLine
 10
66.541425
 20
264.391287
 11
65.441434
 21
264.391287
  0
LINE
  5
126
100
AcDbEntity
  8
M0
 62
     4
100
AcDbLine
 10
64.491406
 20
257.891287
 11
64.491421
 21
265.391287
  0
ARC
  5
127
100
AcDbEntity
  8
M0
 62
     4
100
AcDbCircle
 10
36.541425
 20
261.891287
 40
0.5
100
AcDbArc
 50
0.0
 51
90.0
  0
ARC
  5
128
100
AcDbEntity
  8
M0
 62
     4
100
AcDbCircle
 10
34.991421
 20
261.891287
 40
0.5
100
AcDbArc
 50
90.0
 51
180.0
  0
ARC
  5
129
100
AcDbEntity
  8
M0
 62
     4
100
AcDbCircle
 10
46.541425
 20
263.891287
 40
0.5
100
AcDbArc
 50
0.0
 51
90.0
  0
ARC
  5
12A
100
AcDbEntity
  8
M0
 62
     4
100
AcDbCircle
 10
45.441434
 20
263.891287
 40
0.5
100
AcDbArc
 50
90.0
 51
180.0
  0
ARC
  5
12B
100
AcDbEntity
  8
M0
 62
     4
100
AcDbCircle
 10
56.541425
 20
263.891287
 40
0.5
100
AcDbArc
 50
0.0
 51
90.0
  0
ARC
  5
12C
100
AcDbEntity
  8
M0
 62
     4
100
AcDbCircle
 10
55.441434
 20
263.891287
 40
0.5
100
AcDbArc
 50
90.0
 51
180.0
  0
ARC
  5
12D
100
AcDbEntity
  8
M0
 62
     4
100
AcDbCircle
 10
66.541425
 20
263.891287
 40
0.5
100
AcDbArc
 50
0.0
 51
90.0
  0
ARC
  5
12E
100
AcDbEntity
  8
M0
 62
     4
100
AcDbCircle
 10
65.441434
 20
263.891287
 40
0.5
100
AcDbArc
 50
90.0
 51
180.0
  0
ARC
  5
12F
100
AcDbEntity
  8
M0
 62
     4
100
AcDbCircle
 10
66.541425
 20
265.391287
 40
0.5
100
AcDbArc
 50
0.0
 51
90.0
  0
ARC
  5
130
100
AcDbEntity
  8
M0
 62
     4
100
AcDbCircle
 10
64.991421
 20
265.391287
 40
0.5
100
AcDbArc
 50
90.0
 51
180.0
  0
LINE
  5
131
100
AcDbEntity
  8
M0
  6
DASHDOT
 62
     4
100
AcDbLine
 10
43.077496
 20
243.69132
 11
38.671399
 21
243.69132
  0
LINE
  5
132
100
AcDbEntity
  8
M0
  6
DASHDOT
 62
     4
100
AcDbLine
 10
53.652173
 20
243.69132
 11
48.589139
 21
243.69132
  0
LINE
  5
133
100
AcDbEntity
  8
M0
  6
DASHDOT
 62
     4
100
AcDbLine
 10
63.137296
 20
243.69132
 11
58.7953
 21
243.69132
  0
LINE
  5
134
100
AcDbEntity
  8
M0
  6
DASHDOT
 62
     4
100
AcDbLine
 10
72.942883
 20
243.69132
 11
68.600888
 21
243.69132
  0
LINE
  5
135
100
AcDbEntity
  8
M0
  6
DASHDOT
 62
     4
100
AcDbLine
 10
43.237714
 20
253.191092
 11
38.59129
 21
253.191092
  0
LINE
  5
136
100
AcDbEntity
  8
M0
  6
DASHDOT
 62
     4
100
AcDbLine
 10
53.155469
 20
253.191092
 11
48.957669
 21
253.191092
  0
LINE
  5
137
100
AcDbEntity
  8
M0
  6
DASHDOT
 62
     4
100
AcDbLine
 10
63.233426
 20
253.191092
 11
58.570996
 21
253.191092
  0
LINE
  5
138
100
AcDbEntity
  8
M0
  6
DASHDOT
 62
     4
100
AcDbLine
 10
73.3755
 20
253.191092
 11
68.232358
 21
253.191092
  0
LINE
  5
139
100
AcDbEntity
  8
M0
 62
     4
100
AcDbLine
 10
38.607327
 20
205.591421
 11
43.75047
 21
205.591421
  0
LINE
  5
13A
100
AcDbEntity
  8
M0
 62
     4
100
AcDbLine
 10
73.3755
 20
261.191092
 11
68.232358
 21
261.191092
  0
LINE
  5
13B
100
AcDbEntity
  8
M0
 62
     4
100
AcDbLine
 10
58.991452
 20
230.891272
 11
57.491421
 21
230.891272
  0
LINE
  5
13C
100
AcDbEntity
  8
M0
 62
     4
100
AcDbLine
 10
58.991452
 20
236.491262
 11
57.491421
 21
236.491262
  0
LINE
  5
13D
100
AcDbEntity
  8
M0
 62
     4
100
AcDbLine
 10
52.491452
 20
235.991232
 11
52.491452
 21
231.391241
  0
LINE
  5
13E
100
AcDbEntity
  8
M0
 62
     4
100
AcDbLine
 10
59.491452
 20
235.991247
 11
59.491452
 21
231.391256
  0
LINE
  5
13F
100
AcDbEntity
  8
M0
 62
     4
100
AcDbLine
 10
56.491421
 20
234.991262
 11
55.491452
 21
234.991262
  0
LINE
  5
140
100
AcDbEntity
  8
M0
 62
     4
100
AcDbLine
 10
56.491421
 20
231.791265
 11
55.491421
 21
231.791265
  0
LINE
  5
141
100
AcDbEntity
  8
M0
 62
     4
100
AcDbLine
 10
56.991421
 20
235.991247
 11
56.991421
 21
235.491247
  0
LINE
  5
142
100
AcDbEntity
  8
M0
 62
     4
100
AcDbLine
 10
54.991452
 20
235.991232
 11
54.991452
 21
235.491247
  0
LINE
  5
143
100
AcDbEntity
  8
M0
 62
     4
100
AcDbLine
 10
56.991421
 20
231.29125
 11
56.991421
 21
231.391256
  0
LINE
  5
144
100
AcDbEntity
  8
M0
 62
     4
100
AcDbLine
 10
54.991421
 20
231.29125
 11
54.991421
 21
231.391241
  0
LINE
  5
145
100
AcDbEntity
  8
M0
 62
     4
100
AcDbLine
 10
54.491421
 20
230.891256
 11
52.991452
 21
230.891256
  0
LINE
  5
146
100
AcDbEntity
  8
M0
 62
     4
100
AcDbLine
 10
54.491452
 20
236.491247
 11
52.991452
 21
236.491247
  0
ARC
  5
147
100
AcDbEntity
  8
M0
 62
     4
100
AcDbCircle
 10
55.491452
 20
235.491247
 40
0.5
100
AcDbArc
 50
180.0
 51
269.998251
  0
ARC
  5
148
100
AcDbEntity
  8
M0
 62
     4
100
AcDbCircle
 10
56.491421
 20
235.491247
 40
0.5
100
AcDbArc
 50
269.998251
 51
360.0
  0
ARC
  5
149
100
AcDbEntity
  8
M0
 62
     4
100
AcDbCircle
 10
57.491421
 20
235.991247
 40
0.5
100
AcDbArc
 50
90.0
 51
180.0
  0
ARC
  5
14A
100
AcDbEntity
  8
M0
 62
     4
100
AcDbCircle
 10
54.491452
 20
235.991232
 40
0.5
100
AcDbArc
 50
0.0
 51
90.0
  0
ARC
  5
14B
100
AcDbEntity
  8
M0
 62
     4
100
AcDbCircle
 10
57.491421
 20
231.391256
 40
0.5
100
AcDbArc
 50
180.0
 51
269.998251
  0
ARC
  5
14C
100
AcDbEntity
  8
M0
 62
     4
100
AcDbCircle
 10
54.491421
 20
231.391241
 40
0.5
100
AcDbArc
 50
269.998251
 51
360.0
  0
ARC
  5
14D
100
AcDbEntity
  8
M0
 62
     4
100
AcDbCircle
 10
56.491421
 20
231.29125
 40
0.5
100
AcDbArc
 50
0.0
 51
90.0
  0
ARC
  5
14E
100
AcDbEntity
  8
M0
 62
     4
100
AcDbCircle
 10
55.491421
 20
231.29125
 40
0.5
100
AcDbArc
 50
90.0
 51
180.0
  0
ARC
  5
14F
100
AcDbEntity
  8
M0
 62
     4
100
AcDbCircle
 10
58.991452
 20
235.991247
 40
0.5
100
AcDbArc
 50
0.0
 51
90.0
  0
ARC
  5
150
100
AcDbEntity
  8
M0
 62
     4
100
AcDbCircle
 10
52.991452
 20
235.991232
 40
0.5
100
AcDbArc
 50
90.0
 51
180.0
  0
ARC
  5
151
100
AcDbEntity
  8
M0
 62
     4
100
AcDbCircle
 10
52.991452
 20
231.391241
 40
0.5
100
AcDbArc
 50
180.0
 51
269.998251
  0
ARC
  5
152
100
AcDbEntity
  8
M0
 62
     4
100
AcDbCircle
 10
58.991452
 20
231.391256
 40
0.5
100
AcDbArc
 50
269.998251
 51
360.0
  0
LINE
  5
153
100
AcDbEntity
  8
M0
 62
     4
100
AcDbLine
 10
167.684964
 20
200.891287
 11
181.684964
 21
200.891287
  0
LINE
  5
154
100
AcDbEntity
  8
M0
 62
     4
100
AcDbLine
 10
181.684964
 20
200.891287
 11
181.684964
 21
265.891287
  0
LINE
  5
155
100
AcDbEntity
  8
M0
 62
     4
100
AcDbLine
 10
181.684964
 20
265.891287
 11
167.684949
 21
265.891287
  0
LINE
  5
156
100
AcDbEntity
  8
M0
 62
     4
100
AcDbLine
 10
108.684964
 20
249.391287
 11
108.684964
 21
217.391287
  0
LINE
  5
157
100
AcDbEntity
  8
M0
  6
DASHDOT
 62
     4
100
AcDbLine
 10
102.434964
 20
233.391287
 11
187.934964
 21
233.391287
  0
LINE
  5
158
100
AcDbEntity
  8
M0
 62
     4
100
AcDbLine
 10
133.684964
 20
207.391378
 11
133.684964
 21
209.391272
  0
LINE
  5
159
100
AcDbEntity
  8
M0
 62
     4
100
AcDbLine
 10
113.684964
 20
254.391287
 11
130.684964
 21
254.391287
  0
LINE
  5
15A
100
AcDbEntity
  8
M0
 62
     4
100
AcDbLine
 10
113.684964
 20
212.391287
 11
130.684964
 21
212.391287
  0
ARC
  5
15B
100
AcDbEntity
  8
M0
 62
     4
100
AcDbCircle
 10
113.684964
 20
249.391287
 40
4.999997
100
AcDbArc
 50
90.0
 51
180.0
  0
ARC
  5
15C
100
AcDbEntity
  8
M0
 62
     4
100
AcDbCircle
 10
113.684964
 20
217.391287
 40
4.999997
100
AcDbArc
 50
179.999967
 51
270.0
  0
LINE
  5
15D
100
AcDbEntity
  8
M0
 62
     4
100
AcDbLine
 10
138.684964
 20
264.390799
 11
164.114011
 21
264.390799
  0
LINE
  5
15E
100
AcDbEntity
  8
M0
 62
     4
100
AcDbLine
 10
133.684964
 20
256.391043
 11
133.684964
 21
259.390799
  0
ARC
  5
15F
100
AcDbEntity
  8
M0
 62
     4
100
AcDbCircle
 10
138.684964
 20
259.390799
 40
4.999997
100
AcDbArc
 50
90.0
 51
180.0
  0
LINE
  5
160
100
AcDbEntity
  8
M0
 62
     4
100
AcDbLine
 10
138.684964
 20
263.390799
 11
175.389096
 21
263.390799
  0
ARC
  5
161
100
AcDbEntity
  8
M0
 62
     4
100
AcDbCircle
 10
138.684964
 20
258.390799
 40
4.999997
100
AcDbArc
 50
90.0
 51
180.0
  0
LINE
  5
162
100
AcDbEntity
  8
M0
 62
     4
100
AcDbLine
 10
138.684964
 20
204.391394
 11
158.684964
 21
204.391394
  0
LINE
  5
163
100
AcDbEntity
  8
M0
 62
     4
100
AcDbLine
 10
138.684964
 20
202.391378
 11
164.114148
 21
202.391378
  0
ARC
  5
164
100
AcDbEntity
  8
M0
 62
     4
100
AcDbCircle
 10
138.684964
 20
207.391378
 40
4.999997
100
AcDbArc
 50
179.999956
 51
269.999825
  0
ARC
  5
165
100
AcDbEntity
  8
M0
 62
     4
100
AcDbCircle
 10
138.684964
 20
209.391394
 40
4.999997
100
AcDbArc
 50
179.999956
 51
269.999825
  0
LINE
  5
166
100
AcDbEntity
  8
M0
 62
     4
100
AcDbLine
 10
163.684964
 20
213.391287
 11
181.684964
 21
213.391287
  0
LINE
  5
167
100
AcDbEntity
  8
M0
 62
     4
100
AcDbLine
 10
160.684964
 20
210.391287
 11
160.684964
 21
206.391394
  0
ARC
  5
168
100
AcDbEntity
  8
M0
 62
     4
100
AcDbCircle
 10
163.684964
 20
210.391287
 40
2.999998
100
AcDbArc
 50
90.0
 51
179.999964
  0
ARC
  5
169
100
AcDbEntity
  8
M0
 62
     4
100
AcDbCircle
 10
158.684964
 20
206.391394
 40
1.999998
100
AcDbArc
 50
269.999563
 51
360.0
  0
LINE
  5
16A
100
AcDbEntity
  8
M0
 62
     4
100
AcDbLine
 10
162.684964
 20
209.891287
 11
162.684964
 21
204.391378
  0
LINE
  5
16B
100
AcDbEntity
  8
M0
 62
     4
100
AcDbLine
 10
163.684964
 20
210.891287
 11
181.684964
 21
210.891287
  0
ARC
  5
16C
100
AcDbEntity
  8
M0
 62
     4
100
AcDbCircle
 10
163.684964
 20
209.891287
 40
1.0
100
AcDbArc
 50
90.0
 51
179.999945
  0
ARC
  5
16D
100
AcDbEntity
  8
M0
 62
     4
100
AcDbCircle
 10
160.684964
 20
204.391378
 40
1.999998
100
AcDbArc
 50
269.999563
 51
360.0
  0
ARC
  5
16E
100
AcDbEntity
  8
M0
 62
     4
100
AcDbCircle
 10
167.684964
 20
205.891287
 40
4.999997
100
AcDbArc
 50
179.999956
 51
269.999825
  0
ARC
  5
16F
100
AcDbEntity
  8
M0
 62
     4
100
AcDbCircle
 10
167.684964
 20
260.891043
 40
4.999995
100
AcDbArc
 50
90.0
 51
135.577037
  0
ARC
  5
170
100
AcDbEntity
  8
M0
 62
     4
100
AcDbCircle
 10
130.684964
 20
209.391287
 40
2.999998
100
AcDbArc
 50
0.0
 51
90.0
  0
ARC
  5
171
100
AcDbEntity
  8
M0
 62
     4
100
AcDbCircle
 10
130.684964
 20
257.391287
 40
2.999998
100
AcDbArc
 50
269.999709
 51
360.0
  0
LINE
  5
172
100
AcDbEntity
  8
M0
 62
     4
100
AcDbLine
 10
113.684964
 20
253.391287
 11
130.684964
 21
253.391287
  0
ARC
  5
173
100
AcDbEntity
  8
M0
 62
     4
100
AcDbCircle
 10
113.684964
 20
248.391287
 40
4.999997
100
AcDbArc
 50
90.0
 51
180.0
  0
ARC
  5
174
100
AcDbEntity
  8
M0
 62
     4
100
AcDbCircle
 10
130.684964
 20
256.391287
 40
2.999998
100
AcDbArc
 50
269.999709
 51
360.0
  0
CIRCLE
  5
175
100
AcDbEntity
  8
M0
 62
     6
100
AcDbCircle
 10
70.991421
 20
213.591421
 40
3.0
  0
LINE
  5
176
100
AcDbEntity
  8
M0
 62
     6
100
AcDbLine
 10
68.032666
 20
217.538763
 11
67.216412
 21
214.89147
  0
LINE
  5
177
100
AcDbEntity
  8
M0
 62
     6
100
AcDbLine
 10
68.032666
 20
209.644171
 11
67.216412
 21
212.291494
  0
LINE
  5
178
100
AcDbEntity
  8
M0
 62
     6
100
AcDbLine
 10
73.950146
 20
217.538778
 11
74.766415
 21
214.89147
  0
LINE
  5
179
100
AcDbEntity
  8
M0
 62
     6
100
AcDbLine
 10
73.950146
 20
209.644156
 11
74.766415
 21
212.291494
  0
LINE
  5
17A
100
AcDbEntity
  8
M0
 62
     6
100
AcDbLine
 10
68.510464
 20
209.291494
 11
73.472333
 21
209.291494
  0
LINE
  5
17B
100
AcDbEntity
  8
M0
 62
     6
100
AcDbLine
 10
74.766415
 20
212.291494
 11
74.766415
 21
214.89147
  0
LINE
  5
17C
100
AcDbEntity
  8
M0
 62
     6
100
AcDbLine
 10
73.472333
 20
217.89147
 11
68.510464
 21
217.891455
  0
LINE
  5
17D
100
AcDbEntity
  8
M0
 62
     6
100
AcDbLine
 10
67.216412
 20
214.89147
 11
67.216412
 21
212.291494
  0
LINE
  5
17E
100
AcDbEntity
  8
M0
  6
DASHDOT
 62
     6
100
AcDbLine
 10
64.716412
 20
213.591421
 11
77.266415
 21
213.591421
  0
LINE
  5
17F
100
AcDbEntity
  8
M0
  6
DASHDOT
 62
     6
100
AcDbLine
 10
70.991421
 20
206.79151
 11
70.991421
 21
220.39147
  0
LINE
  5
180
100
AcDbEntity
  8
M0
 62
     6
100
AcDbLine
 10
72.582196
 20
212.000601
 11
69.400388
 21
215.182364
  0
LINE
  5
181
100
AcDbEntity
  8
M0
 62
     6
100
AcDbLine
 10
71.34483
 20
215.005606
 11
69.577161
 21
213.237906
  0
LINE
  5
182
100
AcDbEntity
  8
M0
 62
     6
100
AcDbLine
 10
72.405438
 20
213.944937
 11
70.637814
 21
212.177359
  0
ARC
  5
183
100
AcDbEntity
  8
M0
 62
     6
100
AcDbCircle
 10
68.510464
 20
217.391455
 40
0.5
100
AcDbArc
 50
90.0
 51
162.865663
  0
ARC
  5
184
100
AcDbEntity
  8
M0
 62
     6
100
AcDbCircle
 10
68.510464
 20
209.791494
 40
0.5
100
AcDbArc
 50
197.137551
 51
270.0
  0
ARC
  5
185
100
AcDbEntity
  8
M0
 62
     6
100
AcDbCircle
 10
73.472333
 20
209.791494
 40
0.5
100
AcDbArc
 50
270.0
 51
342.861653
  0
ARC
  5
186
100
AcDbEntity
  8
M0
 62
     6
100
AcDbCircle
 10
73.472333
 20
217.391455
 40
0.5
100
AcDbArc
 50
17.134787
 51
90.0
  0
CIRCLE
  5
187
100
AcDbEntity
  8
M0
 62
     6
100
AcDbCircle
 10
70.991421
 20
223.091421
 40
3.0
  0
LINE
  5
188
100
AcDbEntity
  8
M0
 62
     6
100
AcDbLine
 10
68.032666
 20
227.038763
 11
67.216412
 21
224.39147
  0
LINE
  5
189
100
AcDbEntity
  8
M0
 62
     6
100
AcDbLine
 10
68.032666
 20
219.144171
 11
67.216412
 21
221.791494
  0
LINE
  5
18A
100
AcDbEntity
  8
M0
 62
     6
100
AcDbLine
 10
73.950146
 20
227.038778
 11
74.766415
 21
224.39147
  0
LINE
  5
18B
100
AcDbEntity
  8
M0
 62
     6
100
AcDbLine
 10
73.950146
 20
219.144156
 11
74.766415
 21
221.791494
  0
LINE
  5
18C
100
AcDbEntity
  8
M0
 62
     6
100
AcDbLine
 10
74.766415
 20
221.791494
 11
74.766415
 21
224.39147
  0
LINE
  5
18D
100
AcDbEntity
  8
M0
 62
     6
100
AcDbLine
 10
73.472333
 20
227.39147
 11
68.510464
 21
227.391455
  0
LINE
  5
18E
100
AcDbEntity
  8
M0
 62
     6
100
AcDbLine
 10
67.216412
 20
224.39147
 11
67.216412
 21
221.791494
  0
LINE
  5
18F
100
AcDbEntity
  8
M0
  6
DASHDOT
 62
     6
100
AcDbLine
 10
64.716412
 20
223.091421
 11
77.266415
 21
223.091421
  0
LINE
  5
190
100
AcDbEntity
  8
M0
  6
DASHDOT
 62
     6
100
AcDbLine
 10
70.991421
 20
216.29151
 11
70.991421
 21
229.89147
  0
LINE
  5
191
100
AcDbEntity
  8
M0
 62
     6
100
AcDbLine
 10
72.582196
 20
221.500601
 11
69.400388
 21
224.682364
  0
LINE
  5
192
100
AcDbEntity
  8
M0
 62
     6
100
AcDbLine
 10
71.34483
 20
224.505606
 11
69.577161
 21
222.737906
  0
LINE
  5
193
100
AcDbEntity
  8
M0
 62
     6
100
AcDbLine
 10
72.405438
 20
223.444937
 11
70.637814
 21
221.677359
  0
ARC
  5
194
100
AcDbEntity
  8
M0
 62
     6
100
AcDbCircle
 10
68.510464
 20
226.891455
 40
0.5
100
AcDbArc
 50
90.0
 51
162.865663
  0
ARC
  5
195
100
AcDbEntity
  8
M0
 62
     6
100
AcDbCircle
 10
73.472333
 20
226.891455
 40
0.5
100
AcDbArc
 50
17.134787
 51
90.0
  0
CIRCLE
  5
196
100
AcDbEntity
  8
M0
 62
     6
100
AcDbCircle
 10
60.991421
 20
223.091421
 40
3.0
  0
LINE
  5
197
100
AcDbEntity
  8
M0
 62
     6
100
AcDbLine
 10
58.032666
 20
227.038763
 11
57.216412
 21
224.39147
  0
LINE
  5
198
100
AcDbEntity
  8
M0
 62
     6
100
AcDbLine
 10
58.032666
 20
219.144171
 11
57.216412
 21
221.791494
  0
LINE
  5
199
100
AcDbEntity
  8
M0
 62
     6
100
AcDbLine
 10
63.950146
 20
227.038778
 11
64.766415
 21
224.39147
  0
LINE
  5
19A
100
AcDbEntity
  8
M0
 62
     6
100
AcDbLine
 10
63.950146
 20
219.144156
 11
64.766415
 21
221.791494
  0
LINE
  5
19B
100
AcDbEntity
  8
M0
 62
     6
100
AcDbLine
 10
64.766415
 20
221.791494
 11
64.766415
 21
224.39147
  0
LINE
  5
19C
100
AcDbEntity
  8
M0
 62
     6
100
AcDbLine
 10
63.472333
 20
227.39147
 11
58.510464
 21
227.391455
  0
LINE
  5
19D
100
AcDbEntity
  8
M0
 62
     6
100
AcDbLine
 10
57.216412
 20
224.39147
 11
57.216412
 21
221.791494
  0
LINE
  5
19E
100
AcDbEntity
  8
M0
  6
DASHDOT
 62
     6
100
AcDbLine
 10
54.716412
 20
223.091421
 11
67.266415
 21
223.091421
  0
LINE
  5
19F
100
AcDbEntity
  8
M0
  6
DASHDOT
 62
     6
100
AcDbLine
 10
60.991421
 20
216.29151
 11
60.991421
 21
229.89147
  0
LINE
  5
1A0
100
AcDbEntity
  8
M0
 62
     6
100
AcDbLine
 10
62.582196
 20
221.500601
 11
59.400388
 21
224.682364
  0
LINE
  5
1A1
100
AcDbEntity
  8
M0
 62
     6
100
AcDbLine
 10
61.34483
 20
224.505606
 11
59.577161
 21
222.737906
  0
LINE
  5
1A2
100
AcDbEntity
  8
M0
 62
     6
100
AcDbLine
 10
62.405438
 20
223.444937
 11
60.637814
 21
221.677359
  0
ARC
  5
1A3
100
AcDbEntity
  8
M0
 62
     6
100
AcDbCircle
 10
58.510464
 20
226.891455
 40
0.5
100
AcDbArc
 50
90.0
 51
162.865663
  0
ARC
  5
1A4
100
AcDbEntity
  8
M0
 62
     6
100
AcDbCircle
 10
63.472333
 20
226.891455
 40
0.5
100
AcDbArc
 50
17.134787
 51
90.0
  0
CIRCLE
  5
1A5
100
AcDbEntity
  8
M0
 62
     6
100
AcDbCircle
 10
60.991421
 20
213.591421
 40
3.0
  0
LINE
  5
1A6
100
AcDbEntity
  8
M0
 62
     6
100
AcDbLine
 10
58.032666
 20
217.538763
 11
57.216412
 21
214.89147
  0
LINE
  5
1A7
100
AcDbEntity
  8
M0
 62
     6
100
AcDbLine
 10
58.032666
 20
209.644171
 11
57.216412
 21
212.291494
  0
LINE
  5
1A8
100
AcDbEntity
  8
M0
 62
     6
100
AcDbLine
 10
63.950146
 20
217.538778
 11
64.766415
 21
214.89147
  0
LINE
  5
1A9
100
AcDbEntity
  8
M0
 62
     6
100
AcDbLine
 10
63.950146
 20
209.644156
 11
64.766415
 21
212.291494
  0
LINE
  5
1AA
100
AcDbEntity
  8
M0
 62
     6
100
AcDbLine
 10
58.510464
 20
209.291494
 11
63.472333
 21
209.291494
  0
LINE
  5
1AB
100
AcDbEntity
  8
M0
 62
     6
100
AcDbLine
 10
64.766415
 20
212.291494
 11
64.766415
 21
214.89147
  0
LINE
  5
1AC
100
AcDbEntity
  8
M0
 62
     6
100
AcDbLine
 10
63.472333
 20
217.89147
 11
58.510464
 21
217.891455
  0
LINE
  5
1AD
100
AcDbEntity
  8
M0
 62
     6
100
AcDbLine
 10
57.216412
 20
214.89147
 11
57.216412
 21
212.291494
  0
LINE
  5
1AE
100
AcDbEntity
  8
M0
  6
DASHDOT
 62
     6
100
AcDbLine
 10
54.716412
 20
213.591421
 11
67.266415
 21
213.591421
  0
LINE
  5
1AF
100
AcDbEntity
  8
M0
  6
DASHDOT
 62
     6
100
AcDbLine
 10
60.991421
 20
206.79151
 11
60.991421
 21
220.39147
  0
LINE
  5
1B0
100
AcDbEntity
  8
M0
 62
     6
100
AcDbLine
 10
62.582196
 20
212.000601
 11
59.400388
 21
215.182364
  0
LINE
  5
1B1
100
AcDbEntity
  8
M0
 62
     6
100
AcDbLine
 10
61.34483
 20
215.005606
 11
59.577161
 21
213.237906
  0
LINE
  5
1B2
100
AcDbEntity
  8
M0
 62
     6
100
AcDbLine
 10
62.405438
 20
213.944937
 11
60.637814
 21
212.177359
  0
ARC
  5
1B3
100
AcDbEntity
  8
M0
 62
     6
100
AcDbCircle
 10
58.510464
 20
217.391455
 40
0.5
100
AcDbArc
 50
90.0
 51
162.865663
  0
ARC
  5
1B4
100
AcDbEntity
  8
M0
 62
     6
100
AcDbCircle
 10
58.510464
 20
209.791494
 40
0.5
100
AcDbArc
 50
197.137551
 51
270.0
  0
ARC
  5
1B5
100
AcDbEntity
  8
M0
 62
     6
100
AcDbCircle
 10
63.472333
 20
209.791494
 40
0.5
100
AcDbArc
 50
270.0
 51
342.861653
  0
ARC
  5
1B6
100
AcDbEntity
  8
M0
 62
     6
100
AcDbCircle
 10
63.472333
 20
217.391455
 40
0.5
100
AcDbArc
 50
17.134787
 51
90.0
  0
CIRCLE
  5
1B7
100
AcDbEntity
  8
M0
 62
     6
100
AcDbCircle
 10
50.991421
 20
223.091421
 40
3.0
  0
LINE
  5
1B8
100
AcDbEntity
  8
M0
 62
     6
100
AcDbLine
 10
48.032666
 20
227.038763
 11
47.216412
 21
224.39147
  0
LINE
  5
1B9
100
AcDbEntity
  8
M0
 62
     6
100
AcDbLine
 10
48.032666
 20
219.144171
 11
47.216412
 21
221.791494
  0
LINE
  5
1BA
100
AcDbEntity
  8
M0
 62
     6
100
AcDbLine
 10
53.950146
 20
227.038778
 11
54.766415
 21
224.39147
  0
LINE
  5
1BB
100
AcDbEntity
  8
M0
 62
     6
100
AcDbLine
 10
53.950146
 20
219.144156
 11
54.766415
 21
221.791494
  0
LINE
  5
1BC
100
AcDbEntity
  8
M0
 62
     6
100
AcDbLine
 10
54.766415
 20
221.791494
 11
54.766415
 21
224.39147
  0
LINE
  5
1BD
100
AcDbEntity
  8
M0
 62
     6
100
AcDbLine
 10
53.472333
 20
227.39147
 11
48.510464
 21
227.391455
  0
LINE
  5
1BE
100
AcDbEntity
  8
M0
 62
     6
100
AcDbLine
 10
47.216412
 20
224.39147
 11
47.216412
 21
221.791494
  0
LINE
  5
1BF
100
AcDbEntity
  8
M0
  6
DASHDOT
 62
     6
100
AcDbLine
 10
44.716412
 20
223.091421
 11
57.266415
 21
223.091421
  0
LINE
  5
1C0
100
AcDbEntity
  8
M0
  6
DASHDOT
 62
     6
100
AcDbLine
 10
50.991421
 20
216.29151
 11
50.991421
 21
229.89147
  0
LINE
  5
1C1
100
AcDbEntity
  8
M0
 62
     6
100
AcDbLine
 10
52.582196
 20
221.500601
 11
49.400388
 21
224.682364
  0
LINE
  5
1C2
100
AcDbEntity
  8
M0
 62
     6
100
AcDbLine
 10
51.34483
 20
224.505606
 11
49.577161
 21
222.737906
  0
LINE
  5
1C3
100
AcDbEntity
  8
M0
 62
     6
100
AcDbLine
 10
52.405438
 20
223.444937
 11
50.637814
 21
221.677359
  0
ARC
  5
1C4
100
AcDbEntity
  8
M0
 62
     6
100
AcDbCircle
 10
48.510464
 20
226.891455
 40
0.5
100
AcDbArc
 50
90.0
 51
162.865663
  0
ARC
  5
1C5
100
AcDbEntity
  8
M0
 62
     6
100
AcDbCircle
 10
53.472333
 20
226.891455
 40
0.5
100
AcDbArc
 50
17.134787
 51
90.0
  0
CIRCLE
  5
1C6
100
AcDbEntity
  8
M0
 62
     6
100
AcDbCircle
 10
50.991421
 20
213.591421
 40
3.0
  0
LINE
  5
1C7
100
AcDbEntity
  8
M0
 62
     6
100
AcDbLine
 10
48.032666
 20
217.538763
 11
47.216412
 21
214.89147
  0
LINE
  5
1C8
100
AcDbEntity
  8
M0
 62
     6
100
AcDbLine
 10
48.032666
 20
209.644171
 11
47.216412
 21
212.291494
  0
LINE
  5
1C9
100
AcDbEntity
  8
M0
 62
     6
100
AcDbLine
 10
53.950146
 20
217.538778
 11
54.766415
 21
214.89147
  0
LINE
  5
1CA
100
AcDbEntity
  8
M0
 62
     6
100
AcDbLine
 10
53.950146
 20
209.644156
 11
54.766415
 21
212.291494
  0
LINE
  5
1CB
100
AcDbEntity
  8
M0
 62
     6
100
AcDbLine
 10
48.510464
 20
209.291494
 11
53.472333
 21
209.291494
  0
LINE
  5
1CC
100
AcDbEntity
  8
M0
 62
     6
100
AcDbLine
 10
54.766415
 20
212.291494
 11
54.766415
 21
214.89147
  0
LINE
  5
1CD
100
AcDbEntity
  8
M0
 62
     6
100
AcDbLine
 10
53.472333
 20
217.89147
 11
48.510464
 21
217.891455
  0
LINE
  5
1CE
100
AcDbEntity
  8
M0
 62
     6
100
AcDbLine
 10
47.216412
 20
214.89147
 11
47.216412
 21
212.291494
  0
LINE
  5
1CF
100
AcDbEntity
  8
M0
  6
DASHDOT
 62
     6
100
AcDbLine
 10
44.716412
 20
213.591421
 11
57.266415
 21
213.591421
  0
LINE
  5
1D0
100
AcDbEntity
  8
M0
  6
DASHDOT
 62
     6
100
AcDbLine
 10
50.991421
 20
206.79151
 11
50.991421
 21
220.39147
  0
LINE
  5
1D1
100
AcDbEntity
  8
M0
 62
     6
100
AcDbLine
 10
52.582196
 20
212.000601
 11
49.400388
 21
215.182364
  0
LINE
  5
1D2
100
AcDbEntity
  8
M0
 62
     6
100
AcDbLine
 10
51.34483
 20
215.005606
 11
49.577161
 21
213.237906
  0
LINE
  5
1D3
100
AcDbEntity
  8
M0
 62
     6
100
AcDbLine
 10
52.405438
 20
213.944937
 11
50.637814
 21
212.177359
  0
ARC
  5
1D4
100
AcDbEntity
  8
M0
 62
     6
100
AcDbCircle
 10
48.510464
 20
217.391455
 40
0.5
100
AcDbArc
 50
90.0
 51
162.865663
  0
ARC
  5
1D5
100
AcDbEntity
  8
M0
 62
     6
100
AcDbCircle
 10
48.510464
 20
209.791494
 40
0.5
100
AcDbArc
 50
197.137551
 51
270.0
  0
ARC
  5
1D6
100
AcDbEntity
  8
M0
 62
     6
100
AcDbCircle
 10
53.472333
 20
209.791494
 40
0.5
100
AcDbArc
 50
270.0
 51
342.861653
  0
ARC
  5
1D7
100
AcDbEntity
  8
M0
 62
     6
100
AcDbCircle
 10
53.472333
 20
217.391455
 40
0.5
100
AcDbArc
 50
17.134787
 51
90.0
  0
CIRCLE
  5
1D8
100
AcDbEntity
  8
M0
 62
     6
100
AcDbCircle
 10
40.991421
 20
223.091421
 40
3.0
  0
LINE
  5
1D9
100
AcDbEntity
  8
M0
 62
     6
100
AcDbLine
 10
38.032666
 20
227.038763
 11
37.216412
 21
224.39147
  0
LINE
  5
1DA
100
AcDbEntity
  8
M0
 62
     6
100
AcDbLine
 10
38.032666
 20
219.144171
 11
37.216412
 21
221.791494
  0
LINE
  5
1DB
100
AcDbEntity
  8
M0
 62
     6
100
AcDbLine
 10
43.950146
 20
227.038778
 11
44.766415
 21
224.39147
  0
LINE
  5
1DC
100
AcDbEntity
  8
M0
 62
     6
100
AcDbLine
 10
43.950146
 20
219.144156
 11
44.766415
 21
221.791494
  0
LINE
  5
1DD
100
AcDbEntity
  8
M0
 62
     6
100
AcDbLine
 10
44.766415
 20
221.791494
 11
44.766415
 21
224.39147
  0
LINE
  5
1DE
100
AcDbEntity
  8
M0
 62
     6
100
AcDbLine
 10
43.472333
 20
227.39147
 11
38.510464
 21
227.391455
  0
LINE
  5
1DF
100
AcDbEntity
  8
M0
 62
     6
100
AcDbLine
 10
37.216412
 20
224.39147
 11
37.216412
 21
221.791494
  0
LINE
  5
1E0
100
AcDbEntity
  8
M0
  6
DASHDOT
 62
     6
100
AcDbLine
 10
34.716412
 20
223.091421
 11
47.266415
 21
223.091421
  0
LINE
  5
1E1
100
AcDbEntity
  8
M0
  6
DASHDOT
 62
     6
100
AcDbLine
 10
40.991421
 20
216.29151
 11
40.991421
 21
229.89147
  0
LINE
  5
1E2
100
AcDbEntity
  8
M0
 62
     6
100
AcDbLine
 10
42.582196
 20
221.500601
 11
39.400388
 21
224.682364
  0
LINE
  5
1E3
100
AcDbEntity
  8
M0
 62
     6
100
AcDbLine
 10
41.34483
 20
224.505606
 11
39.577161
 21
222.737906
  0
LINE
  5
1E4
100
AcDbEntity
  8
M0
 62
     6
100
AcDbLine
 10
42.405438
 20
223.444937
 11
40.637814
 21
221.677359
  0
ARC
  5
1E5
100
AcDbEntity
  8
M0
 62
     6
100
AcDbCircle
 10
38.510464
 20
226.891455
 40
0.5
100
AcDbArc
 50
90.0
 51
162.865663
  0
ARC
  5
1E6
100
AcDbEntity
  8
M0
 62
     6
100
AcDbCircle
 10
43.472333
 20
226.891455
 40
0.5
100
AcDbArc
 50
17.134787
 51
90.0
  0
CIRCLE
  5
1E7
100
AcDbEntity
  8
M0
 62
     6
100
AcDbCircle
 10
40.991421
 20
213.591421
 40
3.0
  0
LINE
  5
1E8
100
AcDbEntity
  8
M0
 62
     6
100
AcDbLine
 10
38.032666
 20
217.538763
 11
37.216412
 21
214.89147
  0
LINE
  5
1E9
100
AcDbEntity
  8
M0
 62
     6
100
AcDbLine
 10
38.032666
 20
209.644171
 11
37.216412
 21
212.291494
  0
LINE
  5
1EA
100
AcDbEntity
  8
M0
 62
     6
100
AcDbLine
 10
43.950146
 20
217.538778
 11
44.766415
 21
214.89147
  0
LINE
  5
1EB
100
AcDbEntity
  8
M0
 62
     6
100
AcDbLine
 10
43.950146
 20
209.644156
 11
44.766415
 21
212.291494
  0
LINE
  5
1EC
100
AcDbEntity
  8
M0
 62
     6
100
AcDbLine
 10
38.510464
 20
209.291494
 11
43.472333
 21
209.291494
  0
LINE
  5
1ED
100
AcDbEntity
  8
M0
 62
     6
100
AcDbLine
 10
44.766415
 20
212.291494
 11
44.766415
 21
214.89147
  0
LINE
  5
1EE
100
AcDbEntity
  8
M0
 62
     6
100
AcDbLine
 10
43.472333
 20
217.89147
 11
38.510464
 21
217.891455
  0
LINE
  5
1EF
100
AcDbEntity
  8
M0
 62
     6
100
AcDbLine
 10
37.216412
 20
214.89147
 11
37.216412
 21
212.291494
  0
LINE
  5
1F0
100
AcDbEntity
  8
M0
  6
DASHDOT
 62
     6
100
AcDbLine
 10
34.716412
 20
213.591421
 11
47.266415
 21
213.591421
  0
LINE
  5
1F1
100
AcDbEntity
  8
M0
  6
DASHDOT
 62
     6
100
AcDbLine
 10
40.991421
 20
206.79151
 11
40.991421
 21
220.39147
  0
LINE
  5
1F2
100
AcDbEntity
  8
M0
 62
     6
100
AcDbLine
 10
42.582196
 20
212.000601
 11
39.400388
 21
215.182364
  0
LINE
  5
1F3
100
AcDbEntity
  8
M0
 62
     6
100
AcDbLine
 10
41.34483
 20
215.005606
 11
39.577161
 21
213.237906
  0
LINE
  5
1F4
100
AcDbEntity
  8
M0
 62
     6
100
AcDbLine
 10
42.405438
 20
213.944937
 11
40.637814
 21
212.177359
  0
ARC
  5
1F5
100
AcDbEntity
  8
M0
 62
     6
100
AcDbCircle
 10
38.510464
 20
217.391455
 40
0.5
100
AcDbArc
 50
90.0
 51
162.865663
  0
ARC
  5
1F6
100
AcDbEntity
  8
M0
 62
     6
100
AcDbCircle
 10
38.510464
 20
209.791494
 40
0.5
100
AcDbArc
 50
197.137551
 51
270.0
  0
ARC
  5
1F7
100
AcDbEntity
  8
M0
 62
     6
100
AcDbCircle
 10
43.472333
 20
209.791494
 40
0.5
100
AcDbArc
 50
270.0
 51
342.861653
  0
ARC
  5
1F8
100
AcDbEntity
  8
M0
 62
     6
100
AcDbCircle
 10
43.472333
 20
217.391455
 40
0.5
100
AcDbArc
 50
17.134787
 51
90.0
  0
CIRCLE
  5
1F9
100
AcDbEntity
  8
M0
 62
     6
100
AcDbCircle
 10
70.991421
 20
243.691305
 40
3.0
  0
LINE
  5
1FA
100
AcDbEntity
  8
M0
 62
     6
100
AcDbLine
 10
68.032666
 20
247.638647
 11
67.216412
 21
244.991354
  0
LINE
  5
1FB
100
AcDbEntity
  8
M0
 62
     6
100
AcDbLine
 10
68.032666
 20
239.744055
 11
67.216412
 21
242.391378
  0
LINE
  5
1FC
100
AcDbEntity
  8
M0
 62
     6
100
AcDbLine
 10
73.950146
 20
247.638662
 11
74.766415
 21
244.991354
  0
LINE
  5
1FD
100
AcDbEntity
  8
M0
 62
     6
100
AcDbLine
 10
73.950146
 20
239.74404
 11
74.766415
 21
242.391378
  0
LINE
  5
1FE
100
AcDbEntity
  8
M0
 62
     6
100
AcDbLine
 10
68.510464
 20
239.391378
 11
73.472333
 21
239.391378
  0
LINE
  5
1FF
100
AcDbEntity
  8
M0
 62
     6
100
AcDbLine
 10
74.766415
 20
242.391378
 11
74.766415
 21
244.991354
  0
LINE
  5
200
100
AcDbEntity
  8
M0
 62
     6
100
AcDbLine
 10
67.216412
 20
244.991354
 11
67.216412
 21
242.391378
  0
LINE
  5
201
100
AcDbEntity
  8
M0
  6
DASHDOT
 62
     6
100
AcDbLine
 10
64.716412
 20
243.691305
 11
77.266415
 21
243.691305
  0
LINE
  5
202
100
AcDbEntity
  8
M0
  6
DASHDOT
 62
     6
100
AcDbLine
 10
70.991421
 20
236.891394
 11
70.991421
 21
250.491354
  0
LINE
  5
203
100
AcDbEntity
  8
M0
 62
     6
100
AcDbLine
 10
72.582196
 20
242.100485
 11
69.400388
 21
245.282248
  0
LINE
  5
204
100
AcDbEntity
  8
M0
 62
     6
100
AcDbLine
 10
71.34483
 20
245.10549
 11
69.577161
 21
243.33779
  0
LINE
  5
205
100
AcDbEntity
  8
M0
 62
     6
100
AcDbLine
 10
72.405438
 20
244.044821
 11
70.637814
 21
242.277243
  0
ARC
  5
206
100
AcDbEntity
  8
M0
 62
     6
100
AcDbCircle
 10
68.510464
 20
239.891378
 40
0.5
100
AcDbArc
 50
197.137551
 51
270.0
  0
ARC
  5
207
100
AcDbEntity
  8
M0
 62
     6
100
AcDbCircle
 10
73.472333
 20
239.891378
 40
0.5
100
AcDbArc
 50
270.0
 51
342.861653
  0
CIRCLE
  5
208
100
AcDbEntity
  8
M0
 62
     6
100
AcDbCircle
 10
70.991421
 20
253.190847
 40
3.0
  0
LINE
  5
209
100
AcDbEntity
  8
M0
 62
     6
100
AcDbLine
 10
68.032666
 20
257.138189
 11
67.216412
 21
254.490896
  0
LINE
  5
20A
100
AcDbEntity
  8
M0
 62
     6
100
AcDbLine
 10
68.032666
 20
249.243597
 11
67.216412
 21
251.890921
  0
LINE
  5
20B
100
AcDbEntity
  8
M0
 62
     6
100
AcDbLine
 10
73.950146
 20
257.138205
 11
74.766415
 21
254.490896
  0
LINE
  5
20C
100
AcDbEntity
  8
M0
 62
     6
100
AcDbLine
 10
73.950146
 20
249.243582
 11
74.766415
 21
251.890921
  0
LINE
  5
20D
100
AcDbEntity
  8
M0
 62
     6
100
AcDbLine
 10
68.510464
 20
248.890921
 11
73.472333
 21
248.890921
  0
LINE
  5
20E
100
AcDbEntity
  8
M0
 62
     6
100
AcDbLine
 10
74.766415
 20
251.890921
 11
74.766415
 21
254.490896
  0
LINE
  5
20F
100
AcDbEntity
  8
M0
 62
     6
100
AcDbLine
 10
73.472333
 20
257.490896
 11
68.510464
 21
257.490881
  0
LINE
  5
210
100
AcDbEntity
  8
M0
 62
     6
100
AcDbLine
 10
67.216412
 20
254.490896
 11
67.216412
 21
251.890921
  0
LINE
  5
211
100
AcDbEntity
  8
M0
  6
DASHDOT
 62
     6
100
AcDbLine
 10
64.716412
 20
253.190847
 11
77.266415
 21
253.190847
  0
LINE
  5
212
100
AcDbEntity
  8
M0
  6
DASHDOT
 62
     6
100
AcDbLine
 10
70.991421
 20
246.390936
 11
70.991421
 21
259.990896
  0
LINE
  5
213
100
AcDbEntity
  8
M0
 62
     6
100
AcDbLine
 10
72.582196
 20
251.600027
 11
69.400388
 21
254.78179
  0
LINE
  5
214
100
AcDbEntity
  8
M0
 62
     6
100
AcDbLine
 10
71.34483
 20
254.605032
 11
69.577161
 21
252.837332
  0
LINE
  5
215
100
AcDbEntity
  8
M0
 62
     6
100
AcDbLine
 10
72.405438
 20
253.544363
 11
70.637814
 21
251.776785
  0
ARC
  5
216
100
AcDbEntity
  8
M0
 62
     6
100
AcDbCircle
 10
68.510464
 20
256.990881
 40
0.5
100
AcDbArc
 50
90.0
 51
162.865663
  0
ARC
  5
217
100
AcDbEntity
  8
M0
 62
     6
100
AcDbCircle
 10
68.510464
 20
249.390921
 40
0.5
100
AcDbArc
 50
197.137551
 51
270.0
  0
ARC
  5
218
100
AcDbEntity
  8
M0
 62
     6
100
AcDbCircle
 10
73.472333
 20
249.390921
 40
0.5
100
AcDbArc
 50
270.0
 51
342.861653
  0
ARC
  5
219
100
AcDbEntity
  8
M0
 62
     6
100
AcDbCircle
 10
73.472333
 20
256.990881
 40
0.5
100
AcDbArc
 50
17.134787
 51
90.0
  0
CIRCLE
  5
21A
100
AcDbEntity
  8
M0
 62
     6
100
AcDbCircle
 10
60.991421
 20
253.190847
 40
3.0
  0
LINE
  5
21B
100
AcDbEntity
  8
M0
 62
     6
100
AcDbLine
 10
58.032666
 20
257.138189
 11
57.216412
 21
254.490896
  0
LINE
  5
21C
100
AcDbEntity
  8
M0
 62
     6
100
AcDbLine
 10
58.032666
 20
249.243597
 11
57.216412
 21
251.890921
  0
LINE
  5
21D
100
AcDbEntity
  8
M0
 62
     6
100
AcDbLine
 10
63.950146
 20
257.138205
 11
64.766415
 21
254.490896
  0
LINE
  5
21E
100
AcDbEntity
  8
M0
 62
     6
100
AcDbLine
 10
63.950146
 20
249.243582
 11
64.766415
 21
251.890921
  0
LINE
  5
21F
100
AcDbEntity
  8
M0
 62
     6
100
AcDbLine
 10
58.510464
 20
248.890921
 11
63.472333
 21
248.890921
  0
LINE
  5
220
100
AcDbEntity
  8
M0
 62
     6
100
AcDbLine
 10
64.766415
 20
251.890921
 11
64.766415
 21
254.490896
  0
LINE
  5
221
100
AcDbEntity
  8
M0
 62
     6
100
AcDbLine
 10
63.472333
 20
257.490896
 11
58.510464
 21
257.490881
  0
LINE
  5
222
100
AcDbEntity
  8
M0
 62
     6
100
AcDbLine
 10
57.216412
 20
254.490896
 11
57.216412
 21
251.890921
  0
LINE
  5
223
100
AcDbEntity
  8
M0
  6
DASHDOT
 62
     6
100
AcDbLine
 10
54.716412
 20
253.190847
 11
67.266415
 21
253.190847
  0
LINE
  5
224
100
AcDbEntity
  8
M0
  6
DASHDOT
 62
     6
100
AcDbLine
 10
60.991421
 20
246.390936
 11
60.991421
 21
259.990896
  0
LINE
  5
225
100
AcDbEntity
  8
M0
 62
     6
100
AcDbLine
 10
62.582196
 20
251.600027
 11
59.400388
 21
254.78179
  0
LINE
  5
226
100
AcDbEntity
  8
M0
 62
     6
100
AcDbLine
 10
61.34483
 20
254.605032
 11
59.577161
 21
252.837332
  0
LINE
  5
227
100
AcDbEntity
  8
M0
 62
     6
100
AcDbLine
 10
62.405438
 20
253.544363
 11
60.637814
 21
251.776785
  0
ARC
  5
228
100
AcDbEntity
  8
M0
 62
     6
100
AcDbCircle
 10
58.510464
 20
256.990881
 40
0.5
100
AcDbArc
 50
90.0
 51
162.865663
  0
ARC
  5
229
100
AcDbEntity
  8
M0
 62
     6
100
AcDbCircle
 10
58.510464
 20
249.390921
 40
0.5
100
AcDbArc
 50
197.137551
 51
270.0
  0
ARC
  5
22A
100
AcDbEntity
  8
M0
 62
     6
100
AcDbCircle
 10
63.472333
 20
249.390921
 40
0.5
100
AcDbArc
 50
270.0
 51
342.861653
  0
ARC
  5
22B
100
AcDbEntity
  8
M0
 62
     6
100
AcDbCircle
 10
63.472333
 20
256.990881
 40
0.5
100
AcDbArc
 50
17.134787
 51
90.0
  0
CIRCLE
  5
22C
100
AcDbEntity
  8
M0
 62
     6
100
AcDbCircle
 10
60.991421
 20
243.691305
 40
3.0
  0
LINE
  5
22D
100
AcDbEntity
  8
M0
 62
     6
100
AcDbLine
 10
58.032666
 20
247.638647
 11
57.216412
 21
244.991354
  0
LINE
  5
22E
100
AcDbEntity
  8
M0
 62
     6
100
AcDbLine
 10
58.032666
 20
239.744055
 11
57.216412
 21
242.391378
  0
LINE
  5
22F
100
AcDbEntity
  8
M0
 62
     6
100
AcDbLine
 10
63.950146
 20
247.638662
 11
64.766415
 21
244.991354
  0
LINE
  5
230
100
AcDbEntity
  8
M0
 62
     6
100
AcDbLine
 10
63.950146
 20
239.74404
 11
64.766415
 21
242.391378
  0
LINE
  5
231
100
AcDbEntity
  8
M0
 62
     6
100
AcDbLine
 10
58.510464
 20
239.391378
 11
63.472333
 21
239.391378
  0
LINE
  5
232
100
AcDbEntity
  8
M0
 62
     6
100
AcDbLine
 10
64.766415
 20
242.391378
 11
64.766415
 21
244.991354
  0
LINE
  5
233
100
AcDbEntity
  8
M0
 62
     6
100
AcDbLine
 10
57.216412
 20
244.991354
 11
57.216412
 21
242.391378
  0
LINE
  5
234
100
AcDbEntity
  8
M0
  6
DASHDOT
 62
     6
100
AcDbLine
 10
54.716412
 20
243.691305
 11
67.266415
 21
243.691305
  0
LINE
  5
235
100
AcDbEntity
  8
M0
  6
DASHDOT
 62
     6
100
AcDbLine
 10
60.991421
 20
236.891394
 11
60.991421
 21
250.491354
  0
LINE
  5
236
100
AcDbEntity
  8
M0
 62
     6
100
AcDbLine
 10
62.582196
 20
242.100485
 11
59.400388
 21
245.282248
  0
LINE
  5
237
100
AcDbEntity
  8
M0
 62
     6
100
AcDbLine
 10
61.34483
 20
245.10549
 11
59.577161
 21
243.33779
  0
LINE
  5
238
100
AcDbEntity
  8
M0
 62
     6
100
AcDbLine
 10
62.405438
 20
244.044821
 11
60.637814
 21
242.277243
  0
ARC
  5
239
100
AcDbEntity
  8
M0
 62
     6
100
AcDbCircle
 10
58.510464
 20
239.891378
 40
0.5
100
AcDbArc
 50
197.137551
 51
270.0
  0
ARC
  5
23A
100
AcDbEntity
  8
M0
 62
     6
100
AcDbCircle
 10
63.472333
 20
239.891378
 40
0.5
100
AcDbArc
 50
270.0
 51
342.861653
  0
CIRCLE
  5
23B
100
AcDbEntity
  8
M0
 62
     6
100
AcDbCircle
 10
50.991421
 20
243.691305
 40
3.0
  0
LINE
  5
23C
100
AcDbEntity
  8
M0
 62
     6
100
AcDbLine
 10
48.032666
 20
247.638647
 11
47.216412
 21
244.991354
  0
LINE
  5
23D
100
AcDbEntity
  8
M0
 62
     6
100
AcDbLine
 10
48.032666
 20
239.744055
 11
47.216412
 21
242.391378
  0
LINE
  5
23E
100
AcDbEntity
  8
M0
 62
     6
100
AcDbLine
 10
53.950146
 20
247.638662
 11
54.766415
 21
244.991354
  0
LINE
  5
23F
100
AcDbEntity
  8
M0
 62
     6
100
AcDbLine
 10
53.950146
 20
239.74404
 11
54.766415
 21
242.391378
  0
LINE
  5
240
100
AcDbEntity
  8
M0
 62
     6
100
AcDbLine
 10
48.510464
 20
239.391378
 11
53.472333
 21
239.391378
  0
LINE
  5
241
100
AcDbEntity
  8
M0
 62
     6
100
AcDbLine
 10
54.766415
 20
242.391378
 11
54.766415
 21
244.991354
  0
LINE
  5
242
100
AcDbEntity
  8
M0
 62
     6
100
AcDbLine
 10
47.216412
 20
244.991354
 11
47.216412
 21
242.391378
  0
LINE
  5
243
100
AcDbEntity
  8
M0
  6
DASHDOT
 62
     6
100
AcDbLine
 10
44.716412
 20
243.691305
 11
57.266415
 21
243.691305
  0
LINE
  5
244
100
AcDbEntity
  8
M0
  6
DASHDOT
 62
     6
100
AcDbLine
 10
50.991421
 20
236.891394
 11
50.991421
 21
250.491354
  0
LINE
  5
245
100
AcDbEntity
  8
M0
 62
     6
100
AcDbLine
 10
52.582196
 20
242.100485
 11
49.400388
 21
245.282248
  0
LINE
  5
246
100
AcDbEntity
  8
M0
 62
     6
100
AcDbLine
 10
51.34483
 20
245.10549
 11
49.577161
 21
243.33779
  0
LINE
  5
247
100
AcDbEntity
  8
M0
 62
     6
100
AcDbLine
 10
52.405438
 20
244.044821
 11
50.637814
 21
242.277243
  0
ARC
  5
248
100
AcDbEntity
  8
M0
 62
     6
100
AcDbCircle
 10
48.510464
 20
239.891378
 40
0.5
100
AcDbArc
 50
197.137551
 51
270.0
  0
ARC
  5
249
100
AcDbEntity
  8
M0
 62
     6
100
AcDbCircle
 10
53.472333
 20
239.891378
 40
0.5
100
AcDbArc
 50
270.0
 51
342.861653
  0
CIRCLE
  5
24A
100
AcDbEntity
  8
M0
 62
     6
100
AcDbCircle
 10
50.991421
 20
253.190847
 40
3.0
  0
LINE
  5
24B
100
AcDbEntity
  8
M0
 62
     6
100
AcDbLine
 10
48.032666
 20
257.138189
 11
47.216412
 21
254.490896
  0
LINE
  5
24C
100
AcDbEntity
  8
M0
 62
     6
100
AcDbLine
 10
48.032666
 20
249.243597
 11
47.216412
 21
251.890921
  0
LINE
  5
24D
100
AcDbEntity
  8
M0
 62
     6
100
AcDbLine
 10
53.950146
 20
257.138205
 11
54.766415
 21
254.490896
  0
LINE
  5
24E
100
AcDbEntity
  8
M0
 62
     6
100
AcDbLine
 10
53.950146
 20
249.243582
 11
54.766415
 21
251.890921
  0
LINE
  5
24F
100
AcDbEntity
  8
M0
 62
     6
100
AcDbLine
 10
48.510464
 20
248.890921
 11
53.472333
 21
248.890921
  0
LINE
  5
250
100
AcDbEntity
  8
M0
 62
     6
100
AcDbLine
 10
54.766415
 20
251.890921
 11
54.766415
 21
254.490896
  0
LINE
  5
251
100
AcDbEntity
  8
M0
 62
     6
100
AcDbLine
 10
53.472333
 20
257.490896
 11
48.510464
 21
257.490881
  0
LINE
  5
252
100
AcDbEntity
  8
M0
 62
     6
100
AcDbLine
 10
47.216412
 20
254.490896
 11
47.216412
 21
251.890921
  0
LINE
  5
253
100
AcDbEntity
  8
M0
  6
DASHDOT
 62
     6
100
AcDbLine
 10
44.716412
 20
253.190847
 11
57.266415
 21
253.190847
  0
LINE
  5
254
100
AcDbEntity
  8
M0
  6
DASHDOT
 62
     6
100
AcDbLine
 10
50.991421
 20
246.390936
 11
50.991421
 21
259.990896
  0
LINE
  5
255
100
AcDbEntity
  8
M0
 62
     6
100
AcDbLine
 10
52.582196
 20
251.600027
 11
49.400388
 21
254.78179
  0
LINE
  5
256
100
AcDbEntity
  8
M0
 62
     6
100
AcDbLine
 10
51.34483
 20
254.605032
 11
49.577161
 21
252.837332
  0
LINE
  5
257
100
AcDbEntity
  8
M0
 62
     6
100
AcDbLine
 10
52.405438
 20
253.544363
 11
50.637814
 21
251.776785
  0
ARC
  5
258
100
AcDbEntity
  8
M0
 62
     6
100
AcDbCircle
 10
48.510464
 20
256.990881
 40
0.5
100
AcDbArc
 50
90.0
 51
162.865663
  0
ARC
  5
259
100
AcDbEntity
  8
M0
 62
     6
100
AcDbCircle
 10
48.510464
 20
249.390921
 40
0.5
100
AcDbArc
 50
197.137551
 51
270.0
  0
ARC
  5
25A
100
AcDbEntity
  8
M0
 62
     6
100
AcDbCircle
 10
53.472333
 20
249.390921
 40
0.5
100
AcDbArc
 50
270.0
 51
342.861653
  0
ARC
  5
25B
100
AcDbEntity
  8
M0
 62
     6
100
AcDbCircle
 10
53.472333
 20
256.990881
 40
0.5
100
AcDbArc
 50
17.134787
 51
90.0
  0
CIRCLE
  5
25C
100
AcDbEntity
  8
M0
 62
     6
100
AcDbCircle
 10
40.991452
 20
253.190847
 40
3.0
  0
LINE
  5
25D
100
AcDbEntity
  8
M0
 62
     6
100
AcDbLine
 10
38.032697
 20
257.138189
 11
37.216443
 21
254.490896
  0
LINE
  5
25E
100
AcDbEntity
  8
M0
 62
     6
100
AcDbLine
 10
38.032697
 20
249.243597
 11
37.216443
 21
251.890921
  0
LINE
  5
25F
100
AcDbEntity
  8
M0
 62
     6
100
AcDbLine
 10
43.950177
 20
257.138205
 11
44.766446
 21
254.490896
  0
LINE
  5
260
100
AcDbEntity
  8
M0
 62
     6
100
AcDbLine
 10
43.950177
 20
249.243582
 11
44.766446
 21
251.890921
  0
LINE
  5
261
100
AcDbEntity
  8
M0
 62
     6
100
AcDbLine
 10
38.510495
 20
248.890921
 11
43.472363
 21
248.890921
  0
LINE
  5
262
100
AcDbEntity
  8
M0
 62
     6
100
AcDbLine
 10
44.766446
 20
251.890921
 11
44.766446
 21
254.490896
  0
LINE
  5
263
100
AcDbEntity
  8
M0
 62
     6
100
AcDbLine
 10
43.472363
 20
257.490896
 11
38.510495
 21
257.490881
  0
LINE
  5
264
100
AcDbEntity
  8
M0
 62
     6
100
AcDbLine
 10
37.216443
 20
254.490896
 11
37.216443
 21
251.890921
  0
LINE
  5
265
100
AcDbEntity
  8
M0
  6
DASHDOT
 62
     6
100
AcDbLine
 10
34.716443
 20
253.190847
 11
47.266446
 21
253.190847
  0
LINE
  5
266
100
AcDbEntity
  8
M0
  6
DASHDOT
 62
     6
100
AcDbLine
 10
40.991452
 20
246.390936
 11
40.991452
 21
259.990896
  0
LINE
  5
267
100
AcDbEntity
  8
M0
 62
     6
100
AcDbLine
 10
42.582227
 20
251.600027
 11
39.400418
 21
254.78179
  0
LINE
  5
268
100
AcDbEntity
  8
M0
 62
     6
100
AcDbLine
 10
41.344861
 20
254.605032
 11
39.577191
 21
252.837332
  0
LINE
  5
269
100
AcDbEntity
  8
M0
 62
     6
100
AcDbLine
 10
42.405469
 20
253.544363
 11
40.637845
 21
251.776785
  0
ARC
  5
26A
100
AcDbEntity
  8
M0
 62
     6
100
AcDbCircle
 10
38.510495
 20
256.990881
 40
0.5
100
AcDbArc
 50
90.0
 51
162.865663
  0
ARC
  5
26B
100
AcDbEntity
  8
M0
 62
     6
100
AcDbCircle
 10
38.510495
 20
249.390921
 40
0.5
100
AcDbArc
 50
197.137551
 51
270.0
  0
ARC
  5
26C
100
AcDbEntity
  8
M0
 62
     6
100
AcDbCircle
 10
43.472363
 20
249.390921
 40
0.5
100
AcDbArc
 50
270.0
 51
342.861653
  0
ARC
  5
26D
100
AcDbEntity
  8
M0
 62
     6
100
AcDbCircle
 10
43.472363
 20
256.990881
 40
0.5
100
AcDbArc
 50
17.134787
 51
90.0
  0
CIRCLE
  5
26E
100
AcDbEntity
  8
M0
 62
     6
100
AcDbCircle
 10
40.991452
 20
243.691305
 40
3.0
  0
LINE
  5
26F
100
AcDbEntity
  8
M0
 62
     6
100
AcDbLine
 10
38.032697
 20
247.638647
 11
37.216443
 21
244.991354
  0
LINE
  5
270
100
AcDbEntity
  8
M0
 62
     6
100
AcDbLine
 10
38.032697
 20
239.744055
 11
37.216443
 21
242.391378
  0
LINE
  5
271
100
AcDbEntity
  8
M0
 62
     6
100
AcDbLine
 10
43.950177
 20
247.638662
 11
44.766446
 21
244.991354
  0
LINE
  5
272
100
AcDbEntity
  8
M0
 62
     6
100
AcDbLine
 10
43.950177
 20
239.74404
 11
44.766446
 21
242.391378
  0
LINE
  5
273
100
AcDbEntity
  8
M0
 62
     6
100
AcDbLine
 10
38.510495
 20
239.391378
 11
43.472363
 21
239.391378
  0
LINE
  5
274
100
AcDbEntity
  8
M0
 62
     6
100
AcDbLine
 10
44.766446
 20
242.391378
 11
44.766446
 21
244.991354
  0
LINE
  5
275
100
AcDbEntity
  8
M0
 62
     6
100
AcDbLine
 10
37.216443
 20
244.991354
 11
37.216443
 21
242.391378
  0
LINE
  5
276
100
AcDbEntity
  8
M0
  6
DASHDOT
 62
     6
100
AcDbLine
 10
34.716443
 20
243.691305
 11
47.266446
 21
243.691305
  0
LINE
  5
277
100
AcDbEntity
  8
M0
  6
DASHDOT
 62
     6
100
AcDbLine
 10
40.991452
 20
236.891394
 11
40.991452
 21
250.491354
  0
LINE
  5
278
100
AcDbEntity
  8
M0
 62
     6
100
AcDbLine
 10
42.582227
 20
242.100485
 11
39.400418
 21
245.282248
  0
LINE
  5
279
100
AcDbEntity
  8
M0
 62
     6
100
AcDbLine
 10
41.344861
 20
245.10549
 11
39.577191
 21
243.33779
  0
LINE
  5
27A
100
AcDbEntity
  8
M0
 62
     6
100
AcDbLine
 10
42.405469
 20
244.044821
 11
40.637845
 21
242.277243
  0
ARC
  5
27B
100
AcDbEntity
  8
M0
 62
     6
100
AcDbCircle
 10
38.510495
 20
239.891378
 40
0.5
100
AcDbArc
 50
197.137551
 51
270.0
  0
ARC
  5
27C
100
AcDbEntity
  8
M0
 62
     6
100
AcDbCircle
 10
43.472363
 20
239.891378
 40
0.5
100
AcDbArc
 50
270.0
 51
342.861653
  0
CIRCLE
  5
27D
100
AcDbEntity
  8
M0
 62
     6
100
AcDbCircle
 10
70.991421
 20
261.190847
 40
3.0
  0
LINE
  5
27E
100
AcDbEntity
  8
M0
 62
     6
100
AcDbLine
 10
68.032666
 20
265.138189
 11
67.216412
 21
262.490896
  0
LINE
  5
27F
100
AcDbEntity
  8
M0
 62
     6
100
AcDbLine
 10
67.832944
 20
257.891043
 11
67.216412
 21
259.890799
  0
LINE
  5
280
100
AcDbEntity
  8
M0
 62
     6
100
AcDbLine
 10
73.950146
 20
265.138205
 11
74.766415
 21
262.490896
  0
LINE
  5
281
100
AcDbEntity
  8
M0
 62
     6
100
AcDbLine
 10
74.149853
 20
257.891043
 11
74.766415
 21
259.890799
  0
LINE
  5
282
100
AcDbEntity
  8
M0
 62
     6
100
AcDbLine
 10
74.766415
 20
259.890921
 11
74.766415
 21
262.490896
  0
LINE
  5
283
100
AcDbEntity
  8
M0
 62
     6
100
AcDbLine
 10
73.472333
 20
265.490896
 11
68.510464
 21
265.490881
  0
LINE
  5
284
100
AcDbEntity
  8
M0
 62
     6
100
AcDbLine
 10
67.216412
 20
262.490896
 11
67.216412
 21
259.890921
  0
LINE
  5
285
100
AcDbEntity
  8
M0
  6
DASHDOT
 62
     6
100
AcDbLine
 10
64.716412
 20
261.190847
 11
77.266415
 21
261.190847
  0
LINE
  5
286
100
AcDbEntity
  8
M0
  6
DASHDOT
 62
     6
100
AcDbLine
 10
70.991421
 20
254.390936
 11
70.991421
 21
267.990896
  0
LINE
  5
287
100
AcDbEntity
  8
M0
 62
     6
100
AcDbLine
 10
72.582196
 20
259.600027
 11
69.400388
 21
262.78179
  0
LINE
  5
288
100
AcDbEntity
  8
M0
 62
     6
100
AcDbLine
 10
71.34483
 20
262.605032
 11
69.577161
 21
260.837332
  0
LINE
  5
289
100
AcDbEntity
  8
M0
 62
     6
100
AcDbLine
 10
72.405438
 20
261.544363
 11
70.637814
 21
259.776785
  0
ARC
  5
28A
100
AcDbEntity
  8
M0
 62
     6
100
AcDbCircle
 10
68.510464
 20
264.990881
 40
0.5
100
AcDbArc
 50
90.0
 51
162.865663
  0
ARC
  5
28B
100
AcDbEntity
  8
M0
 62
     6
100
AcDbCircle
 10
73.472333
 20
264.990881
 40
0.5
100
AcDbArc
 50
17.134787
 51
90.0
  0
CIRCLE
  5
28C
100
AcDbEntity
  8
M0
 62
     6
100
AcDbCircle
 10
40.991421
 20
205.591421
 40
3.0
  0
LINE
  5
28D
100
AcDbEntity
  8
M0
 62
     6
100
AcDbLine
 10
37.833066
 20
208.891424
 11
37.216412
 21
206.89147
  0
LINE
  5
28E
100
AcDbEntity
  8
M0
 62
     6
100
AcDbLine
 10
38.032666
 20
201.644171
 11
37.216412
 21
204.291494
  0
LINE
  5
28F
100
AcDbEntity
  8
M0
 62
     6
100
AcDbLine
 10
44.149747
 20
208.891424
 11
44.766415
 21
206.89147
  0
LINE
  5
290
100
AcDbEntity
  8
M0
 62
     6
100
AcDbLine
 10
43.950146
 20
201.644156
 11
44.766415
 21
204.291494
  0
LINE
  5
291
100
AcDbEntity
  8
M0
 62
     6
100
AcDbLine
 10
38.510464
 20
201.291494
 11
43.472333
 21
201.291494
  0
LINE
  5
292
100
AcDbEntity
  8
M0
 62
     6
100
AcDbLine
 10
44.766415
 20
204.291494
 11
44.766415
 21
206.89147
  0
LINE
  5
293
100
AcDbEntity
  8
M0
 62
     6
100
AcDbLine
 10
37.216412
 20
206.89147
 11
37.216412
 21
204.291494
  0
LINE
  5
294
100
AcDbEntity
  8
M0
  6
DASHDOT
 62
     6
100
AcDbLine
 10
34.716412
 20
205.591421
 11
47.266415
 21
205.591421
  0
LINE
  5
295
100
AcDbEntity
  8
M0
  6
DASHDOT
 62
     6
100
AcDbLine
 10
40.991421
 20
198.79151
 11
40.991421
 21
212.39147
  0
LINE
  5
296
100
AcDbEntity
  8
M0
 62
     6
100
AcDbLine
 10
42.582196
 20
204.000601
 11
39.400388
 21
207.182364
  0
LINE
  5
297
100
AcDbEntity
  8
M0
 62
     6
100
AcDbLine
 10
41.34483
 20
207.005606
 11
39.577161
 21
205.237906
  0
LINE
  5
298
100
AcDbEntity
  8
M0
 62
     6
100
AcDbLine
 10
42.405438
 20
205.944937
 11
40.637814
 21
204.177359
  0
ARC
  5
299
100
AcDbEntity
  8
M0
 62
     6
100
AcDbCircle
 10
38.510464
 20
201.791494
 40
0.5
100
AcDbArc
 50
197.137551
 51
270.0
  0
ARC
  5
29A
100
AcDbEntity
  8
M0
 62
     6
100
AcDbCircle
 10
43.472333
 20
201.791494
 40
0.5
100
AcDbArc
 50
270.0
 51
342.861653
  0
LINE
  5
29B
100
AcDbEntity
  8
M0
 62
     7
100
AcDbLine
 10
200.689114
 20
200.9531
 11
200.689114
 21
212.453085
  0
LINE
  5
29C
100
AcDbEntity
  8
M0
 62
     7
100
AcDbLine
 10
191.789105
 20
207.9531
 11
191.789105
 21
203.9531
  0
LINE
  5
29D
100
AcDbEntity
  8
M0
 62
     7
100
AcDbLine
 10
196.289105
 20
207.9531
 11
196.289105
 21
202.9531
  0
LINE
  5
29E
100
AcDbEntity
  8
M0
 62
     7
100
AcDbLine
 10
192.789105
 20
202.9531
 11
196.289105
 21
202.9531
  0
ARC
  5
29F
100
AcDbEntity
  8
M0
 62
     7
100
AcDbCircle
 10
192.789105
 20
203.9531
 40
1.0
100
AcDbArc
 50
179.999945
 51
270.0
  0
LINE
  5
2A0
100
AcDbEntity
  8
M0
 62
     7
100
AcDbLine
 10
181.689114
 20
213.4531
 11
199.689114
 21
213.4531
  0
ARC
  5
2A1
100
AcDbEntity
  8
M0
 62
     7
100
AcDbCircle
 10
199.689114
 20
212.4531
 40
1.0
100
AcDbArc
 50
0.0
 51
90.0
  0
ARC
  5
2A2
100
AcDbEntity
  8
M0
 62
     7
100
AcDbCircle
 10
191.289105
 20
207.9531
 40
0.5
100
AcDbArc
 50
0.0
 51
90.0
  0
ARC
  5
2A3
100
AcDbEntity
  8
M0
 62
     7
100
AcDbCircle
 10
191.289105
 20
207.000143
 40
0.5
100
AcDbArc
 50
0.0
 51
84.348228
  0
LINE
  5
2A4
100
AcDbEntity
  8
M0
 62
     7
100
AcDbLine
 10
200.689114
 20
200.9531
 11
210.689114
 21
200.9531
  0
LINE
  5
2A5
100
AcDbEntity
  8
M0
 62
     7
100
AcDbLine
 10
210.689114
 20
200.9531
 11
210.689099
 21
214.803106
  0
LINE
  5
2A6
100
AcDbEntity
  8
M0
 62
     7
100
AcDbLine
 10
210.689114
 20
265.9531
 11
200.689114
 21
265.953085
  0
LINE
  5
2A7
100
AcDbEntity
  8
M0
  6
DASHDOT
 62
     7
100
AcDbLine
 10
181.689114
 20
233.4531
 11
216.276746
 21
233.4531
  0
LINE
  5
2A8
100
AcDbEntity
  8
M0
 62
     7
100
AcDbLine
 10
181.689114
 20
259.4531
 11
210.689114
 21
259.4531
  0
LINE
  5
2A9
100
AcDbEntity
  8
M0
 62
     7
100
AcDbLine
 10
210.389111
 20
215.103094
 11
210.389111
 21
215.803091
  0
LINE
  5
2AA
100
AcDbEntity
  8
M0
 62
     7
100
AcDbLine
 10
205.889111
 20
215.803106
 11
209.689114
 21
215.803106
  0
LINE
  5
2AB
100
AcDbEntity
  8
M0
 62
     7
100
AcDbLine
 10
205.889111
 20
251.103094
 11
210.689114
 21
251.103094
  0
LINE
  5
2AC
100
AcDbEntity
  8
M0
 62
     7
100
AcDbLine
 10
206.889111
 20
216.303106
 11
206.989041
 21
216.303106
  0
LINE
  5
2AD
100
AcDbEntity
  8
M0
 62
     7
100
AcDbLine
 10
206.989041
 20
217.803106
 11
207.989041
 21
217.803106
  0
LINE
  5
2AE
100
AcDbEntity
  8
M0
 62
     7
100
AcDbLine
 10
210.689114
 20
251.103094
 11
210.689114
 21
265.9531
  0
LINE
  5
2AF
100
AcDbEntity
  8
M0
 62
     7
100
AcDbLine
 10
207.689084
 20
249.103094
 11
208.689084
 21
249.103094
  0
LINE
  5
2B0
100
AcDbEntity
  8
M0
 62
     7
100
AcDbLine
 10
208.689099
 20
249.103094
 11
210.389111
 21
251.103094
  0
LINE
  5
2B1
100
AcDbEntity
  8
M0
 62
     7
100
AcDbLine
 10
207.689099
 20
249.103094
 11
206.989102
 21
251.103094
  0
LINE
  5
2B2
100
AcDbEntity
  8
M0
 62
     7
100
AcDbLine
 10
206.989041
 20
217.803106
 11
206.989041
 21
216.303106
  0
LINE
  5
2B3
100
AcDbEntity
  8
M0
 62
     7
100
AcDbLine
 10
181.689114
 20
208.4531
 11
200.689114
 21
208.4531
  0
LINE
  5
2B4
100
AcDbEntity
  8
M0
 62
     7
100
AcDbLine
 10
181.689114
 20
207.4531
 11
191.500821
 21
207.4531
  0
LINE
  5
2B5
100
AcDbEntity
  8
M0
 62
     7
100
AcDbLine
 10
181.689114
 20
208.4531
 11
191.338361
 21
207.497717
  0
ARC
  5
2B6
100
AcDbEntity
  8
M0
 62
     7
100
AcDbCircle
 10
196.789105
 20
207.9531
 40
0.5
100
AcDbArc
 50
90.0
 51
179.999966
  0
ARC
  5
2B7
100
AcDbEntity
  8
M0
 62
     7
100
AcDbCircle
 10
196.789105
 20
206.9531
 40
0.5
100
AcDbArc
 50
90.0
 51
179.999959
  0
LINE
  5
2B8
100
AcDbEntity
  8
M0
 62
     7
100
AcDbLine
 10
196.789105
 20
207.4531
 11
200.689114
 21
207.4531
  0
LINE
  5
2B9
100
AcDbEntity
  8
M0
 62
     7
100
AcDbLine
 10
200.689114
 20
265.953085
 11
200.689114
 21
259.4531
  0
LINE
  5
2BA
100
AcDbEntity
  8
M0
 62
     7
100
AcDbLine
 10
205.889111
 20
215.803106
 11
205.889111
 21
251.103094
  0
LINE
  5
2BB
100
AcDbEntity
  8
M0
 62
     7
100
AcDbLine
 10
209.689114
 20
215.803106
 11
210.689099
 21
214.803106
  0
LINE
  5
2BC
100
AcDbEntity
  8
M0
 62
     7
100
AcDbLine
 10
207.989041
 20
217.803106
 11
207.989041
 21
215.803106
  0
LINE
  5
2BD
100
AcDbEntity
  8
M0
 62
     7
100
AcDbLine
 10
210.389111
 20
215.803091
 11
207.989041
 21
217.803106
  0
LINE
  5
2BE
100
AcDbEntity
  8
M0
 62
     1
100
AcDbLine
 10
51.390301
 20
201.893103
 11
60.04028
 21
201.893103
  0
ARC
  5
2BF
100
AcDbEntity
  8
M0
 62
     1
100
AcDbCircle
 10
60.390301
 20
202.893103
 40
1.0
100
AcDbArc
 50
270.0
 51
329.995752
  0
LINE
  5
2C0
100
AcDbEntity
  8
M0
 62
     1
100
AcDbLine
 10
52.940305
 20
204.19309
 11
54.941418
 21
204.19309
  0
LINE
  5
2C1
100
AcDbEntity
  8
M0
 62
     1
100
AcDbLine
 10
59.240308
 20
204.393072
 11
59.240308
 21
208.891424
  0
ARC
  5
2C2
100
AcDbEntity
  8
M0
 62
     1
100
AcDbCircle
 10
52.940305
 20
204.393087
 40
0.2
100
AcDbArc
 50
179.999727
 51
270.0
  0
ARC
  5
2C3
100
AcDbEntity
  8
M0
 62
     1
100
AcDbCircle
 10
59.040295
 20
204.393087
 40
0.2
100
AcDbArc
 50
270.0
 51
360.0
  0
LINE
  5
2C4
100
AcDbEntity
  8
M0
 62
     1
100
AcDbLine
 10
52.740292
 20
208.891424
 11
52.740308
 21
204.393087
  0
LINE
  5
2C5
100
AcDbEntity
  8
M0
 62
     1
100
AcDbLine
 10
57.041409
 20
204.19309
 11
59.040295
 21
204.19309
  0
LINE
  5
2C6
100
AcDbEntity
  8
M0
 62
     1
100
AcDbLine
 10
62.04028
 20
203.893103
 11
62.040295
 21
208.891424
  0
ARC
  5
2C7
100
AcDbEntity
  8
M0
 62
     1
100
AcDbCircle
 10
59.240277
 20
204.69309
 40
2.799999
100
AcDbArc
 50
270.0
 51
360.0
  0
ARC
  5
2C8
100
AcDbEntity
  8
M0
 62
     1
100
AcDbCircle
 10
60.04028
 20
203.893103
 40
2.0
100
AcDbArc
 50
270.0
 51
360.0
  0
ARC
  5
2C9
100
AcDbEntity
  8
M0
 62
     1
100
AcDbCircle
 10
51.942563
 20
203.893103
 40
1.999998
100
AcDbArc
 50
179.999945
 51
270.0
  0
LINE
  5
2CA
100
AcDbEntity
  8
M0
 62
     1
100
AcDbLine
 10
49.942563
 20
203.893103
 11
49.942548
 21
208.891424
  0
LINE
  5
2CB
100
AcDbEntity
  8
M0
 62
     2
100
AcDbLine
 10
105.684965
 20
235.141408
 11
105.684979
 21
231.641409
  0
LINE
  5
2CC
100
AcDbEntity
  8
M0
 62
     2
100
AcDbLine
 10
108.684964
 20
235.641393
 11
106.184965
 21
235.641408
  0
LINE
  5
2CD
100
AcDbEntity
  8
M0
 62
     2
100
AcDbLine
 10
108.684964
 20
231.141424
 11
106.18498
 21
231.141424
  0
ARC
  5
2CE
100
AcDbEntity
  8
M0
 62
     2
100
AcDbCircle
 10
106.184965
 20
235.141408
 40
0.5
100
AcDbArc
 50
90.0
 51
179.999982
  0
ARC
  5
2CF
100
AcDbEntity
  8
M0
 62
     2
100
AcDbCircle
 10
106.184979
 20
231.641409
 40
0.5
100
AcDbArc
 50
179.999968
 51
270.0
  0
LINE
  5
2D0
100
AcDbEntity
  8
M0
100
AcDbLine
 10
98.684872
 20
202.212194
 11
98.684872
 21
242.212194
  0
LINE
  5
2D1
100
AcDbEntity
  8
M0
100
AcDbLine
 10
95.684888
 20
203.454809
 11
98.684888
 21
206.454824
  0
LINE
  5
2D2
100
AcDbEntity
  8
M0
100
AcDbLine
 10
95.684872
 20
207.697439
 11
98.684872
 21
210.697454
  0
LINE
  5
2D3
100
AcDbEntity
  8
M0
100
AcDbLine
 10
95.684872
 20
211.940084
 11
98.684872
 21
214.940084
  0
LINE
  5
2D4
100
AcDbEntity
  8
M0
100
AcDbLine
 10
95.684872
 20
216.18273
 11
98.684872
 21
219.18273
  0
LINE
  5
2D5
100
AcDbEntity
  8
M0
100
AcDbLine
 10
95.684872
 20
220.425375
 11
98.684872
 21
223.425375
  0
LINE
  5
2D6
100
AcDbEntity
  8
M0
100
AcDbLine
 10
95.684872
 20
224.66802
 11
98.684872
 21
227.66802
  0
LINE
  5
2D7
100
AcDbEntity
  8
M0
100
AcDbLine
 10
95.684857
 20
228.91065
 11
98.684857
 21
231.91065
  0
LINE
  5
2D8
100
AcDbEntity
  8
M0
100
AcDbLine
 10
95.684872
 20
233.153296
 11
98.684872
 21
236.153296
  0
LINE
  5
2D9
100
AcDbEntity
  8
M0
100
AcDbLine
 10
95.684872
 20
237.395941
 11
98.684872
 21
240.395941
  0
LINE
  5
2DA
100
AcDbEntity
  8
M0
  6
DIVIDE
100
AcDbLine
 10
206.889066
 20
215.803106
 11
206.889066
 21
221.9531
  0
LINE
  5
2DB
100
AcDbEntity
  8
M0
  6
DIVIDE
100
AcDbLine
 10
206.889066
 20
221.9531
 11
213.689069
 21
221.9531
  0
LINE
  5
2DC
100
AcDbEntity
  8
M0
  6
DIVIDE
100
AcDbLine
 10
205.889066
 20
222.9531
 11
212.689069
 21
222.9531
  0
LINE
  5
2DD
100
AcDbEntity
  8
M0
  6
DIVIDE
100
AcDbLine
 10
212.689069
 20
243.9531
 11
212.689069
 21
222.9531
  0
LINE
  5
2DE
100
AcDbEntity
  8
M0
  6
DIVIDE
100
AcDbLine
 10
213.689069
 20
221.9531
 11
213.689069
 21
244.9531
  0
LINE
  5
2DF
100
AcDbEntity
  8
M0
  6
DIVIDE
100
AcDbLine
 10
206.889066
 20
244.9531
 11
206.889066
 21
251.103094
  0
LINE
  5
2E0
100
AcDbEntity
  8
M0
  6
DIVIDE
100
AcDbLine
 10
206.889066
 20
244.9531
 11
213.689069
 21
244.9531
  0
LINE
  5
2E1
100
AcDbEntity
  8
M0
  6
DIVIDE
100
AcDbLine
 10
205.889066
 20
243.9531
 11
212.689069
 21
243.9531
  0
LINE
  5
2E2
100
AcDbEntity
  8
M0
 62
     7
100
AcDbLine
 10
44.990308
 20
261.393026
 11
44.990063
 21
264.893011
  0
LINE
  5
2E3
100
AcDbEntity
  8
M0
 62
     7
100
AcDbLine
 10
44.990063
 20
264.893011
 11
43.990308
 21
265.893011
  0
LINE
  5
2E4
100
AcDbEntity
  8
M0
 62
     7
100
AcDbLine
 10
44.990308
 20
205.393118
 11
44.990308
 21
202.893026
  0
LINE
  5
2E5
100
AcDbEntity
  8
M0
 62
     7
100
AcDbLine
 10
47.990308
 20
208.891424
 11
47.990308
 21
204.893026
  0
LINE
  5
2E6
100
AcDbEntity
  8
M0
 62
     7
100
AcDbLine
 10
48.990308
 20
208.891424
 11
48.990308
 21
202.893026
  0
LINE
  5
2E7
100
AcDbEntity
  8
M0
 62
     7
100
AcDbLine
 10
68.990308
 20
200.893026
 11
77.490308
 21
200.893026
  0
LINE
  5
2E8
100
AcDbEntity
  8
M0
 62
     7
100
AcDbLine
 10
77.490308
 20
200.893026
 11
77.490308
 21
208.893026
  0
LINE
  5
2E9
100
AcDbEntity
  8
M0
 62
     7
100
AcDbLine
 10
43.990308
 20
265.893011
 11
36.490308
 21
265.892996
  0
LINE
  5
2EA
100
AcDbEntity
  8
M0
 62
     7
100
AcDbLine
 10
34.490308
 20
263.892996
 11
34.490308
 21
257.893011
  0
ARC
  5
2EB
100
AcDbEntity
  8
M0
 62
     7
100
AcDbCircle
 10
36.490308
 20
263.892996
 40
2.0
100
AcDbArc
 50
89.999563
 51
180.0
  0
LINE
  5
2EC
100
AcDbEntity
  8
M0
 62
     7
100
AcDbLine
 10
62.990308
 20
204.893026
 11
62.990308
 21
208.891424
  0
LINE
  5
2ED
100
AcDbEntity
  8
M0
 62
     7
100
AcDbLine
 10
64.490308
 20
202.893026
 11
64.490308
 21
208.891424
  0
LINE
  5
2EE
100
AcDbEntity
  8
M0
 62
     7
100
AcDbLine
 10
47.491421
 20
202.893026
 11
48.990308
 21
202.893026
  0
LINE
  5
2EF
100
AcDbEntity
  8
M0
 62
     7
100
AcDbLine
 10
67.990308
 20
201.893011
 11
67.990308
 21
208.891424
  0
LINE
  5
2F0
100
AcDbEntity
  8
M0
 62
     7
100
AcDbLine
 10
67.990308
 20
201.893011
 11
68.990308
 21
200.893026
  0
LINE
  5
2F1
100
AcDbEntity
  8
M0
 62
     7
100
AcDbLine
 10
64.990308
 20
202.893026
 11
64.990308
 21
205.393011
  0
LINE
  5
2F2
100
AcDbEntity
  8
M0
 62
     7
100
AcDbLine
 10
61.772275
 20
202.893026
 11
64.490308
 21
202.893026
  0
LINE
  5
2F3
100
AcDbEntity
  8
M0
 62
     7
100
AcDbLine
 10
62.040356
 20
204.893026
 11
62.990308
 21
204.893026
  0
LINE
  5
2F4
100
AcDbEntity
  8
M0
 62
     7
100
AcDbLine
 10
67.041409
 20
204.893026
 11
67.990308
 21
204.893026
  0
LINE
  5
2F5
100
AcDbEntity
  8
M0
 62
     7
100
AcDbLine
 10
67.041409
 20
202.893026
 11
67.990308
 21
202.893026
  0
LINE
  5
2F6
100
AcDbEntity
  8
M0
 62
     7
100
AcDbLine
 10
47.491421
 20
204.893026
 11
47.990308
 21
204.893026
  0
LINE
  5
2F7
100
AcDbEntity
  8
M0
 62
     7
100
AcDbLine
 10
37.589307
 20
257.893011
 11
37.589535
 21
262.597448
  0
ARC
  5
2F8
100
AcDbEntity
  8
M0
 62
     7
100
AcDbCircle
 10
39.039258
 20
257.39295
 40
2.25
100
AcDbArc
 50
130.127109
 51
147.597441
  0
ARC
  5
2F9
100
AcDbEntity
  8
M0
 62
     7
100
AcDbCircle
 10
39.489926
 20
261.392752
 40
2.25
100
AcDbArc
 50
32.414395
 51
147.644974
  0
LINE
  5
2FA
100
AcDbEntity
  8
M0
 62
     7
100
AcDbLine
 10
37.139584
 20
258.598654
 11
37.139584
 21
257.893011
  0
ARC
  5
2FB
100
AcDbEntity
  8
M0
 62
     7
100
AcDbCircle
 10
74.040112
 20
207.39292
 40
2.25
100
AcDbArc
 50
278.630328
 51
282.616176
  0
LINE
  5
2FC
100
AcDbEntity
  8
M0
 62
     7
100
AcDbLine
 10
74.941418
 20
205.607061
 11
74.531567
 21
205.19721
  0
LINE
  5
2FD
100
AcDbEntity
  8
M0
 62
     7
100
AcDbLine
 10
71.908383
 20
204.49291
 11
73.695386
 21
204.49291
  0
ARC
  5
2FE
100
AcDbEntity
  8
M0
 62
     7
100
AcDbCircle
 10
72.490308
 20
206.39292
 40
2.25
100
AcDbArc
 50
302.384559
 51
327.025424
  0
LINE
  5
2FF
100
AcDbEntity
  8
M0
 62
     7
100
AcDbLine
 10
41.389294
 20
257.892996
 11
41.389294
 21
262.597342
  0
LINE
  5
300
100
AcDbEntity
  8
M0
 62
     7
100
AcDbLine
 10
70.386182
 20
206.015188
 11
71.908398
 21
204.49291
  0
LINE
  5
301
100
AcDbEntity
  8
M0
 62
     7
100
AcDbLine
 10
70.402035
 20
205.999273
 11
70.402112
 21
207.786276
  0
ARC
  5
302
100
AcDbEntity
  8
M0
 62
     7
100
AcDbCircle
 10
72.302075
 20
206.581106
 40
2.249997
100
AcDbArc
 50
134.996857
 51
147.612389
  0
LINE
  5
303
100
AcDbEntity
  8
M0
 62
     7
100
AcDbLine
 10
71.37547
 20
208.891409
 11
70.683652
 21
208.199667
  0
LINE
  5
304
100
AcDbEntity
  8
M0
100
AcDbLine
 10
171.139111
 20
264.39031
 11
171.015515
 21
264.39031
  0
LINE
  5
305
100
AcDbEntity
  8
M0
100
AcDbLine
 10
171.283459
 20
263.890554
 11
171.78912
 21
263.890554
  0
LINE
  5
306
100
AcDbEntity
  8
M0
100
AcDbLine
 10
171.78912
 20
265.690359
 11
173.389111
 21
265.690359
  0
LINE
  5
307
100
AcDbEntity
  8
M0
100
AcDbLine
 10
173.389111
 20
264.690359
 11
174.189114
 21
264.490408
  0
LINE
  5
308
100
AcDbEntity
  8
M0
100
AcDbLine
 10
173.389111
 20
264.690359
 11
173.389111
 21
265.690359
  0
LINE
  5
309
100
AcDbEntity
  8
M0
100
AcDbLine
 10
171.789105
 20
264.490408
 11
172.389096
 21
264.490408
  0
ARC
  5
30A
100
AcDbEntity
  8
M0
100
AcDbCircle
 10
169.43913
 20
263.390554
 40
1.0
100
AcDbArc
 50
90.0
 51
179.999962
  0
ARC
  5
30B
100
AcDbEntity
  8
M0
100
AcDbCircle
 10
182.039929
 20
262.89031
 40
11.300794
100
AcDbArc
 50
173.274413
 51
177.462849
  0
LINE
  5
30C
100
AcDbEntity
  8
M0
100
AcDbLine
 10
170.739133
 20
264.39031
 11
169.43913
 21
264.390554
  0
ARC
  5
30D
100
AcDbEntity
  8
M0
100
AcDbCircle
 10
182.539807
 20
262.89031
 40
11.300679
100
AcDbArc
 50
173.948143
 51
177.462849
  0
LINE
  5
30E
100
AcDbEntity
  8
M0
100
AcDbLine
 10
171.339124
 20
264.190359
 11
171.339124
 21
263.890554
  0
ARC
  5
30F
100
AcDbEntity
  8
M0
100
AcDbCircle
 10
171.139111
 20
264.190359
 40
0.2
100
AcDbArc
 50
0.0
 51
90.0
  0
ARC
  5
310
100
AcDbEntity
  8
M0
100
AcDbCircle
 10
171.015515
 20
264.190359
 40
0.2
100
AcDbArc
 50
90.0
 51
173.270752
  0
LINE
  5
311
100
AcDbEntity
  8
M0
100
AcDbLine
 10
174.189099
 20
263.390554
 11
174.189099
 21
265.89031
  0
LINE
  5
312
100
AcDbEntity
  8
M0
100
AcDbLine
 10
170.739117
 20
263.390554
 11
170.739133
 21
264.390554
  0
LINE
  5
313
100
AcDbEntity
  8
M0
100
AcDbLine
 10
171.789105
 20
263.390554
 11
171.78912
 21
265.690359
  0
LINE
  5
314
100
AcDbEntity
  8
M0
100
AcDbLine
 10
172.389081
 20
263.390554
 11
172.389096
 21
264.490408
  0
LINE
  5
315
100
AcDbEntity
  8
M0
100
AcDbLine
 10
175.389096
 20
263.390554
 11
175.389096
 21
265.89031
  0
LINE
  5
316
100
AcDbEntity
  8
M0
100
AcDbLine
 10
174.189099
 20
265.89031
 11
175.389096
 21
265.89031
  0
LINE
  5
317
100
AcDbEntity
  8
M0
  6
DIVIDE
 62
     6
100
AcDbLine
 10
34.491452
 20
88.672458
 11
77.491452
 21
88.672458
  0
LINE
  5
318
100
AcDbEntity
  8
M0
  6
DIVIDE
 62
     6
100
AcDbLine
 10
77.491452
 20
88.672458
 11
77.491452
 21
153.672458
  0
LINE
  5
319
100
AcDbEntity
  8
M0
  6
DIVIDE
 62
     6
100
AcDbLine
 10
77.491452
 20
153.672458
 11
34.491452
 21
153.672458
  0
LINE
  5
31A
100
AcDbEntity
  8
M0
  6
DIVIDE
 62
     6
100
AcDbLine
 10
34.491452
 20
153.672458
 11
34.491452
 21
88.672458
  0
CIRCLE
  5
31B
100
AcDbEntity
  8
M0
 62
     6
100
AcDbCircle
 10
38.991452
 20
148.672443
 40
2.5
  0
CIRCLE
  5
31C
100
AcDbEntity
  8
M0
 62
     6
100
AcDbCircle
 10
71.991452
 20
93.672458
 40
2.5
  0
CIRCLE
  5
31D
100
AcDbEntity
  8
M0
 62
     6
100
AcDbCircle
 10
71.991452
 20
93.672458
 40
1.249997
  0
CIRCLE
  5
31E
100
AcDbEntity
  8
M0
 62
     6
100
AcDbCircle
 10
38.991452
 20
148.672443
 40
1.249997
  0
LINE
  5
31F
100
AcDbEntity
  8
M0
  6
DASHDOT
 62
     6
100
AcDbLine
 10
76.588849
 20
93.672458
 11
67.39404
 21
93.672458
  0
LINE
  5
320
100
AcDbEntity
  8
M0
  6
DASHDOT
 62
     6
100
AcDbLine
 10
71.991437
 20
98.269855
 11
71.991452
 21
89.075046
  0
LINE
  5
321
100
AcDbEntity
  8
M0
  6
DASHDOT
 62
     6
100
AcDbLine
 10
43.088849
 20
148.672443
 11
34.89404
 21
148.672443
  0
LINE
  5
322
100
AcDbEntity
  8
M0
  6
DASHDOT
 62
     6
100
AcDbLine
 10
38.991437
 20
152.76984
 11
38.991452
 21
144.575031
  0
LINE
  5
323
100
AcDbEntity
  8
M0
  6
DASHDOT
 62
     6
100
AcDbLine
 10
55.991452
 20
84.678959
 11
55.991452
 21
157.665958
  0
LINE
  5
324
100
AcDbEntity
  8
M0
  6
DASHDOT
 62
     6
100
AcDbLine
 10
31.497952
 20
121.172458
 11
80.484952
 21
121.172458
  0
LINE
  5
325
100
AcDbEntity
  8
M1
 62
     2
100
AcDbLine
 10
11.111111
 20
11.111111
 11
11.111111
 21
316.666675
  0
LINE
  5
326
100
AcDbEntity
  8
M1
 62
     2
100
AcDbLine
 10
11.111111
 20
316.666675
 11
222.222228
 21
316.666675
  0
LINE
  5
327
100
AcDbEntity
  8
M1
 62
     2
100
AcDbLine
 10
222.222228
 20
316.666675
 11
222.222228
 21
11.111111
  0
LINE
  5
328
100
AcDbEntity
  8
M1
 62
     2
100
AcDbLine
 10
222.222228
 20
11.111111
 11
11.111111
 21
11.111111
  0
LINE
  5
329
100
AcDbEntity
  8
M1
 62
     2
100
AcDbLine
 10
222.222228
 20
22.222223
 11
111.111114
 21
22.222223
  0
LINE
  5
32A
100
AcDbEntity
  8
M1
 62
     2
100
AcDbLine
 10
222.222228
 20
33.333334
 11
111.111114
 21
33.333334
  0
LINE
  5
32B
100
AcDbEntity
  8
M1
 62
     2
100
AcDbLine
 10
222.222228
 20
44.444446
 11
111.111114
 21
44.444446
  0
LINE
  5
32C
100
AcDbEntity
  8
M1
 62
     2
100
AcDbLine
 10
111.111114
 20
11.111111
 11
111.111114
 21
44.444446
  0
TEXT
  5
32D
100
AcDbEntity
  8
M1
 62
     2
100
AcDbText
 10
113.888892
 20
13.888889
 40
5.555556
  1
適　用；
  7
STANDARD
100
AcDbText
  0
TEXT
  5
32E
100
AcDbEntity
  8
M1
 62
     2
100
AcDbText
 10
113.888892
 20
36.111112
 40
5.555556
  1
登録名：
  7
STANDARD
100
AcDbText
  0
TEXT
  5
32F
100
AcDbEntity
  8
M1
 62
     2
100
AcDbText
 10
140.555559
 20
36.111112
 40
5.555556
  1
ＤＭＸ８Ｒ００
 41
0.5
  7
STANDARD
100
AcDbText
  0
TEXT
  5
330
100
AcDbEntity
  8
M1
 62
     2
100
AcDbText
 10
113.888892
 20
25.000001
 40
5.555556
  1
形　式；
  7
STANDARD
100
AcDbText
  0
TEXT
  5
331
100
AcDbEntity
  8
M1
 62
     2
100
AcDbText
 10
140.555559
 20
25.000001
 40
5.555556
  1
Ｘ８，Ｘ８－Ｗ
 41
0.5
  7
STANDARD
100
AcDbText
  0
LINE
  5
332
100
AcDbEntity
  8
DN0
100
AcDbLine
 10
46.351867
 20
63.406197
 11
66.640757
 21
63.406197
  0
TEXT
  5
333
100
AcDbEntity
  8
DN0
100
AcDbText
 10
46.912978
 20
63.906197
 40
5.0
  1
せん孔図
 41
0.833333
  7
STANDARD
100
AcDbText
  0
ENDSEC
  0
SECTION
  2
OBJECTS
  0
DICTIONARY
  5
C
100
AcDbDictionary
  3
ACAD_GROUP
350
D
  3
ACAD_MLINESTYLE
350
E
  0
DICTIONARY
  5
D
102
{ACAD_REACTORS
330
C
102
}
100
AcDbDictionary
  0
DICTIONARY
  5
E
102
{ACAD_REACTORS
330
C
102
}
100
AcDbDictionary
  3
STANDARD
350
13
  0
MLINESTYLE
  5
13
102
{ACAD_REACTORS
330
E
102
}
100
AcDbMlineStyle
  2
STANDARD
 70
     0
  3

 62
     0
 51
90.0
 52
90.0
 71
     2
 49
0.5
 62
   256
  6
BYLAYER
 49
-0.5
 62
   256
  6
BYLAYER
  0
ENDSEC
  0
EOF
