  0
SECTION
  2
HEADER
  9
$ACADVER
  1
AC1014
  9
$INSBASE
 10
0.000000
 20
0.000000
 30
0.0
  9
$VIEWCTR
 10
7.531722
 20
4.5
  9
$VIEWSIZE
 40
9.0
  9
$SNAPMODE
 70
     0
  9
$SNAPUNIT
 10
1.0
 20
1.0
  9
$SNAPBASE
 10
0.0
 20
0.0
  9
$SNAPANG
 50
0.0
  9
$SNAPSTYLE
 70
     0
  9
$SNAPISOPAIR
 70
     0
  9
$GRIDMODE
 70
     0
  9
$GRIDUNIT
 10
0.0
 20
0.0
  9
$ORTHOMODE
 70
     0
  9
$REGENMODE
 70
     1
  9
$FILLMODE
 70
     1
  9
$QTEXTMODE
 70
     0
  9
$DRAGMODE
 70
     2
  9
$LTSCALE
  40
     1.000000
  9
$OSMODE
 70
     0
  9
$ATTMODE
 70
     1
  9
$TEXTSIZE
 40
0.2
  9
$TRACEWID
 40
0.05
  9
$TEXTSTYLE
  7
STANDARD
  9
$CELTYPE
  6
BYLAYER
  9
$CECOLOR
 62
   256
  9
$DIMSCALE
 40
1.0
  9
$DIMASZ
 40
0.18
  9
$DIMEXO
 40
0.0625
  9
$DIMDLI
 40
0.38
  9
$DIMRND
 40
0.0
  9
$DIMDLE
 40
0.0
  9
$DIMEXE
 40
0.18
  9
$DIMTP
 40
0.0
  9
$DIMTM
 40
0.0
  9
$DIMTXT
 40
0.18
  9
$DIMCEN
 40
0.09
  9
$DIMTSZ
 40
0.0
  9
$DIMTOL
 70
     0
  9
$DIMLIM
 70
     0
  9
$DIMTIH
 70
     1
  9
$DIMTOH
 70
     1
  9
$DIMSE1
 70
     0
  9
$DIMSE2
 70
     0
  9
$DIMTAD
 70
     0
  9
$DIMZIN
 70
     0
  9
$DIMBLK
  1

  9
$LUNITS
 70
     2
  9
$LUPREC
 70
     4
  9
$AXISMODE
 70
     0
  9
$AXISUNIT
 10
0.0
 20
0.0
  9
$SKETCHINC
 40
0.1
  9
$FILLETRAD
 40
0.0
  9
$AUNITS
 70
     0
  9
$AUPREC
 70
     0
  9
$MENU
  1
ACAD
  9
$ELEVATION
 40
0.0
  9
$THICKNESS
 40
0.0
  9
$VIEWDIR
 10
0.0
 20
0.0
 30
1.0
  9
$LIMCHECK
 70
     0
  9
$BLIPMODE
 70
     1
  9
$CHAMFERA
 40
0.0
  9
$CHAMFERB
 40
0.0
  9
$FASTZOOM
 70
     1
  9
$SKPOLY
 70
     0
  9
$TDCREATE
 40
0000000.0000000000
  9
$TDUPDATE
 40
0000000.0000000000
  9
$TDINDWG
 40
0.0000000000
  9
$TDUSRTIMER
 40
0.0000000000
  9
$USRTIMER
 70
     1
  9
$ANGBASE
 50
0.0
  9
$ANGDIR
 70
     0
  9
$PDMODE
 70
     0
  9
$PDSIZE
 40
0.0
  9
$PLINEWID
 40
0.0
  9
$COORDS
 70
     0
  9
$USERI1
 70
     0
  9
$USERI2
 70
     0
  9
$USERI3
 70
     0
  9
$USERI4
 70
     0
  9
$USERI5
 70
     0
  9
$USERR1
 40
0.0
  9
$USERR2
 40
0.0
  9
$USERR3
 40
0.0
  9
$USERR4
 40
0.0
  9
$USERR5
 40
0.0
  9
$CLAYER
  8
M0
  9
$EXTMIN
 10
11.764706
 20
11.764706
  9
$EXTMAX
 10
235.294111
 20
335.294108
  9
$LIMMIN
 10
0.0
 20
0.0
  9
$LIMMAX
 10
210.0
 20
297.0
  9
$HANDSEED
  5
374
  0
ENDSEC
  0
SECTION
  2
CLASSES
  0
ENDSEC
  0
SECTION
  2
TABLES
  0
TABLE
  2
VPORT
  5
8
100
AcDbSymbolTable
 70
     2
  0
VPORT
  5
14
100
AcDbSymbolTableRecord
100
AcDbViewportTableRecord
  2
*ACTIVE
 70
     0
 10
0.0
 20
0.0
 11
1.0
 21
1.0
 12
484.0
 22
297.0
 13
0.0
 23
0.0
 14
1.0
 24
1.0
 15
0.0
 25
0.0
 16
0.0
 26
0.0
 36
1.0
 17
0.0
 27
0.0
 37
0.0
 40
594.0
 41
2.0
 42
50.0
 43
0.0
 44
0.0
 50
0.0
 51
0.0
 71
     0
 72
   100
 73
     1
 74
     1
 75
     0
 76
     0
 77
     0
 78
     0
  0
ENDTAB
  0
TABLE
  2
LTYPE
  5
5
100
AcDbSymbolTable
 70
     5
  0
LTYPE
  5
15
100
AcDbSymbolTableRecord
100
AcDbLinetypeTableRecord
  2
BYBLOCK
 70
     0
  3

 72
    65
 73
     0
 40
0.0
  0
LTYPE
  5
16
100
AcDbSymbolTableRecord
100
AcDbLinetypeTableRecord
  2
BYLAYER
 70
     0
  3

 72
    65
 73
     0
 40
0.0
  0
LTYPE
  5
17
100
AcDbSymbolTableRecord
100
AcDbLinetypeTableRecord
  2
CONTINUOUS
 70
    64
  3
Solid line
 72
    65
 73
     0
 40
0.0
  0
LTYPE
  5
18
100
AcDbSymbolTableRecord
100
AcDbLinetypeTableRecord
  2
DASHED
 70
    64
  3
__ __ __ __ __ __ __ __ __ __ __ __ __ __ __ __
 72
    65
 73
     2
 40
0.75
 49
0.5
 74
     0
 49
-0.25
 74
     0
  0
LTYPE
  5
19
100
AcDbSymbolTableRecord
100
AcDbLinetypeTableRecord
  2
DASHDOT
 70
    64
  3
__ . __ . __ . __ . __ . __ . __ . __ . __ . __
 72
    65
 73
     4
 40
1.0
 49
0.5
 74
     0
 49
-0.25
 74
     0
 49
0.0
 74
     0
 49
-0.25
 74
     0
  0
LTYPE
  5
1A
100
AcDbSymbolTableRecord
100
AcDbLinetypeTableRecord
  2
DIVIDE
 70
    64
  3
____ . . ____ . . ____ . . ____ . . ____ . . __
 72
    65
 73
     6
 40
1.25
 49
0.5
 74
     0
 49
-0.25
 74
     0
 49
0.0
 74
     0
 49
-0.25
 74
     0
 49
0.0
 74
     0
 49
-0.25
 74
     0
  0
LTYPE
  5
1B
100
AcDbSymbolTableRecord
100
AcDbLinetypeTableRecord
  2
DOT
 70
    64
  3
. . . . . . . . . . . . . . . . . . . . . . . .
 72
    65
 73
     2
 40
0.25
 49
0.0
 74
     0
 49
-0.25
 74
     0
  0
ENDTAB
  0
TABLE
  2
LAYER
  5
2
100
AcDbSymbolTable
 70
   102
  0
LAYER
  5
F
100
AcDbSymbolTableRecord
100
AcDbLayerTableRecord
  2
0
 70
     0
 62
     7
  6
CONTINUOUS
  0
LAYER
  5
1C
100
AcDbSymbolTableRecord
100
AcDbLayerTableRecord
  2
DEFPOINTS
 70
     0
 62
     7
  6
CONTINUOUS
  0
LAYER
  5
1D
100
AcDbSymbolTableRecord
100
AcDbLayerTableRecord
  2
M0
 70
     0
 62
     3
  6
CONTINUOUS
  0
LAYER
  5
1E
100
AcDbSymbolTableRecord
100
AcDbLayerTableRecord
  2
M1
 70
     0
 62
     3
  6
CONTINUOUS
  0
LAYER
  5
1F
100
AcDbSymbolTableRecord
100
AcDbLayerTableRecord
  2
DD0
 70
     0
 62
     4
  6
CONTINUOUS
  0
LAYER
  5
20
100
AcDbSymbolTableRecord
100
AcDbLayerTableRecord
  2
DN0
 70
     0
 62
     2
  6
CONTINUOUS
  0
ENDTAB
  0
TABLE
  2
STYLE
  5
3
100
AcDbSymbolTable
 70
     2
  0
STYLE
  5
10
100
AcDbSymbolTableRecord
100
AcDbTextStyleTableRecord
  2
STANDARD
 70
     0
 40
0.0
 41
1.0
 50
0.0
 71
     0
 42
0.2
  3
txt
  4
BIGFONT
  0
ENDTAB
  0
TABLE
  2
VIEW
  5
6
100
AcDbSymbolTable
 70
     0
  0
ENDTAB
  0
TABLE
  2
UCS
  5
7
100
AcDbSymbolTable
 70
     0
  0
ENDTAB
  0
TABLE
  2
APPID
  5
9
100
AcDbSymbolTable
 70
     1
  0
APPID
  5
11
100
AcDbSymbolTableRecord
100
AcDbRegAppTableRecord
  2
ACAD
 70
     0
  0
ENDTAB
  0
TABLE
  2
DIMSTYLE
  5
A
100
AcDbSymbolTable
 70
     2
  0
DIMSTYLE
105
27
100
AcDbSymbolTableRecord
100
AcDbDimStyleTableRecord
  2
STANDARD
 70
     0
  3

  4

  5

  6
_OPEN
  7
_OPEN
 40
1.0
 41
3.529412
 42
1.0
 43
8.0
 44
1.0
 45
0.0
 46
0.0
 47
0.0
 48
0.0
140
3.705882
141
0.09
142
0.0
143
0.03937
144
1.0
145
0.0
146
1.0
147
0.6
 71
     0
 72
     0
 73
     1
 74
     1
 75
     0
 76
     0
 77
     3
 78
     8
170
     0
171
     2
172
     0
173
     1
174
     0
175
     0
176
     0
177
     0
178
     0
270
     2
271
     2
272
     4
273
     2
274
     2
340
10
275
     0
280
     0
281
     0
282
     0
283
     1
284
     0
285
     0
286
     0
287
     3
288
     0
  0
DIMSTYLE
105
28
100
AcDbSymbolTableRecord
100
AcDbDimStyleTableRecord
  2
LEADSTYL
 70
     0
  3

  4

  5

  6
_OPEN
  7
_OPEN
 40
1.0
 41
3.529412
 42
0.0625
 43
0.38
 44
0.18
 45
0.0
 46
0.0
 47
0.0
 48
0.0
140
3.705882
141
0.09
142
0.0
143
25.4
144
1.0
145
0.0
146
1.0
147
0.6
 71
     0
 72
     0
 73
     1
 74
     1
 75
     0
 76
     0
 77
     0
 78
     0
170
     0
171
     2
172
     0
173
     1
174
     0
175
     0
176
     0
177
     0
178
     0
270
     2
271
     4
272
     4
273
     2
274
     2
340
10
275
     0
280
     0
281
     0
282
     0
283
     1
284
     0
285
     0
286
     0
287
     3
288
     0
  0
ENDTAB
  0
TABLE
  2
BLOCK_RECORD
  5
1
100
AcDbSymbolTable
 70
    16
  0
BLOCK_RECORD
  5
21
100
AcDbSymbolTableRecord
100
AcDbBlockTableRecord
  2
*MODEL_SPACE
  0
BLOCK_RECORD
  5
24
100
AcDbSymbolTableRecord
100
AcDbBlockTableRecord
  2
*PAPER_SPACE
  0
BLOCK_RECORD
  5
29
100
AcDbSymbolTableRecord
100
AcDbBlockTableRecord
  2
_NONE
  0
BLOCK_RECORD
  5
2D
100
AcDbSymbolTableRecord
100
AcDbBlockTableRecord
  2
_OPEN
  0
BLOCK_RECORD
  5
33
100
AcDbSymbolTableRecord
100
AcDbBlockTableRecord
  2
_CLOSED
  0
BLOCK_RECORD
  5
3A
100
AcDbSymbolTableRecord
100
AcDbBlockTableRecord
  2
_ORIGIN
  0
BLOCK_RECORD
  5
3F
100
AcDbSymbolTableRecord
100
AcDbBlockTableRecord
  2
_DOT
  0
BLOCK_RECORD
  5
47
100
AcDbSymbolTableRecord
100
AcDbBlockTableRecord
  2
_OBLIQUE
  0
BLOCK_RECORD
  5
4B
100
AcDbSymbolTableRecord
100
AcDbBlockTableRecord
  2
DIMS0
  0
BLOCK_RECORD
  5
57
100
AcDbSymbolTableRecord
100
AcDbBlockTableRecord
  2
DIMS1
  0
BLOCK_RECORD
  5
63
100
AcDbSymbolTableRecord
100
AcDbBlockTableRecord
  2
DIMS2
  0
BLOCK_RECORD
  5
6F
100
AcDbSymbolTableRecord
100
AcDbBlockTableRecord
  2
DIMS3
  0
BLOCK_RECORD
  5
7B
100
AcDbSymbolTableRecord
100
AcDbBlockTableRecord
  2
DIMS4
  0
BLOCK_RECORD
  5
87
100
AcDbSymbolTableRecord
100
AcDbBlockTableRecord
  2
DIMS5
  0
BLOCK_RECORD
  5
93
100
AcDbSymbolTableRecord
100
AcDbBlockTableRecord
  2
DIMS6
  0
BLOCK_RECORD
  5
9F
100
AcDbSymbolTableRecord
100
AcDbBlockTableRecord
  2
DIMS7
  0
BLOCK_RECORD
  5
AB
100
AcDbSymbolTableRecord
100
AcDbBlockTableRecord
  2
DIMS8
  0
BLOCK_RECORD
  5
B7
100
AcDbSymbolTableRecord
100
AcDbBlockTableRecord
  2
DIMS9
  0
ENDTAB
  0
ENDSEC
  0
SECTION
  2
BLOCKS
  0
BLOCK
  5
22
100
AcDbEntity
  8
0
100
AcDbBlockBegin
  2
*MODEL_SPACE
 70
     0
 10
0.0
 20
0.0
 30
0.0
  3
*MODEL_SPACE
  1

  0
ENDBLK
  5
23
100
AcDbEntity
  8
0
100
AcDbBlockEnd
  0
BLOCK
  5
25
100
AcDbEntity
 67
     1
  8
0
100
AcDbBlockBegin
  2
*PAPER_SPACE
 70
     0
 10
0.0
 20
0.0
 30
0.0
  3
*PAPER_SPACE
  1

  0
ENDBLK
  5
26
100
AcDbEntity
 67
     1
  8
0
100
AcDbBlockEnd
  0
BLOCK
  5
2A
100
AcDbEntity
  8
0
100
AcDbBlockBegin
  2
_NONE
 70
     0
 10
0.0
 20
0.0
  0
CIRCLE
  5
2B
100
AcDbEntity
  8
0
 62
     0
100
AcDbCircle
 10
0.0
 20
0.0
 40
0.25
  0
ENDBLK
  5
2C
100
AcDbEntity
  8
0
100
AcDbBlockEnd
  0
BLOCK
  5
2E
100
AcDbEntity
  8
0
100
AcDbBlockBegin
  2
_OPEN
 70
     0
 10
0.0
 20
0.0
  0
LINE
  5
2F
100
AcDbEntity
  8
0
 62
     0
100
AcDbLine
 10
-0.965926
 20
0.258819
 11
0.0
 21
0.0
  0
LINE
  5
30
100
AcDbEntity
  8
0
 62
     0
100
AcDbLine
 10
0.0
 20
0.0
 11
-0.965926
 21
-0.258819
  0
LINE
  5
31
100
AcDbEntity
  8
0
 62
     0
100
AcDbLine
 10
0.0
 20
0.0
 11
-1.0
 21
0.0
  0
ENDBLK
  5
32
100
AcDbEntity
  8
0
100
AcDbBlockEnd
  0
BLOCK
  5
34
100
AcDbEntity
  8
0
100
AcDbBlockBegin
  2
_CLOSED
 70
     0
 10
0.0
 20
0.0
  0
LINE
  5
35
100
AcDbEntity
  8
0
 62
     0
100
AcDbLine
 10
-0.965926
 20
0.258819
 11
0.0
 21
0.0
  0
LINE
  5
36
100
AcDbEntity
  8
0
 62
     0
100
AcDbLine
 10
0.0
 20
0.0
 11
-0.965926
 21
-0.258819
  0
LINE
  5
37
100
AcDbEntity
  8
0
 62
     0
100
AcDbLine
 10
-0.965926
 20
0.258819
 11
-0.965926
 21
-0.258819
  0
LINE
  5
38
100
AcDbEntity
  8
0
 62
     0
100
AcDbLine
 10
0.0
 20
0.0
 11
-1.0
 21
0.0
  0
ENDBLK
  5
39
100
AcDbEntity
  8
0
100
AcDbBlockEnd
  0
BLOCK
  5
3B
100
AcDbEntity
  8
0
100
AcDbBlockBegin
  2
_ORIGIN
 70
     0
 10
0.0
 20
0.0
  0
CIRCLE
  5
3C
100
AcDbEntity
  8
0
 62
     0
100
AcDbCircle
 10
0.0
 20
0.0
 40
0.5
  0
LINE
  5
3D
100
AcDbEntity
  8
0
 62
     0
100
AcDbLine
 10
0.0
 20
0.0
 11
-1.0
 21
0.0
  0
ENDBLK
  5
3E
100
AcDbEntity
  8
0
100
AcDbBlockEnd
  0
BLOCK
  5
40
100
AcDbEntity
  8
0
100
AcDbBlockBegin
  2
_DOT
 70
     0
 10
0.0
 20
0.0
  0
POLYLINE
  5
41
100
AcDbEntity
  8
0
 62
     0
100
AcDb2dPolyline
 66
     1
 70
     1
 40
0.5
 41
0.5
  0
VERTEX
  5
42
100
AcDbEntity
  8
0
 62
     0
100
AcDbVertex
100
AcDb2dVertex
 10
-0.25
 20
0.0
 42
1.0
  0
VERTEX
  5
43
100
AcDbEntity
  8
0
 62
     0
100
AcDbVertex
100
AcDb2dVertex
 10
0.25
 20
0.0
 42
1.0
  0
SEQEND
  5
44
100
AcDbEntity
  8
0
 62
     0
  0
LINE
  5
45
100
AcDbEntity
  8
0
 62
     0
100
AcDbLine
 10
-0.5
 20
0.0
 11
-1.0
 21
0.0
  0
ENDBLK
  5
46
100
AcDbEntity
  8
0
100
AcDbBlockEnd
  0
BLOCK
  5
48
100
AcDbEntity
  8
0
100
AcDbBlockBegin
  2
_OBLIQUE
 70
     0
 10
0.0
 20
0.0
  0
LINE
  5
49
100
AcDbEntity
  8
0
 62
     0
100
AcDbLine
 10
-0.353553
 20
-0.353553
 11
0.353553
 21
0.353553
  0
ENDBLK
  5
4A
100
AcDbEntity
  8
0
100
AcDbBlockEnd
  0
BLOCK
  5
4C
100
AcDbEntity
  8
DD0
100
AcDbBlockBegin
  2
DIMS0
 70
     0
 10
0.0
 20
0.0
  0
LINE
  5
4D
100
AcDbEntity
  8
DD0
100
AcDbLine
 10
95.608751
 20
256.996686
 11
95.608751
 21
298.999536
  0
LINE
  5
4E
100
AcDbEntity
  8
DD0
100
AcDbLine
 10
98.608764
 20
271.246564
 11
98.608764
 21
298.999536
  0
LINE
  5
4F
100
AcDbEntity
  8
DD0
100
AcDbLine
 10
92.199601
 20
296.909586
 11
95.608751
 21
297.823065
  0
LINE
  5
50
100
AcDbEntity
  8
DD0
100
AcDbLine
 10
95.608751
 20
297.823065
 11
92.199601
 21
298.736544
  0
LINE
  5
51
100
AcDbEntity
  8
DD0
100
AcDbLine
 10
102.017914
 20
298.736544
 11
98.608764
 21
297.823065
  0
LINE
  5
52
100
AcDbEntity
  8
DD0
100
AcDbLine
 10
98.608764
 20
297.823065
 11
102.017914
 21
296.909586
  0
LINE
  5
53
100
AcDbEntity
  8
DD0
100
AcDbLine
 10
91.726398
 20
297.823065
 11
102.491116
 21
297.823065
  0
TEXT
  5
54
100
AcDbEntity
  8
DD0
100
AcDbText
 10
95.558767
 20
298.528955
 40
3.705882
  1
３
 41
0.833333
  7
STANDARD
100
AcDbText
  0
ENDBLK
  5
55
100
AcDbEntity
  8
DD0
100
AcDbBlockEnd
  0
BLOCK
  5
58
100
AcDbEntity
  8
DD0
100
AcDbBlockBegin
  2
DIMS1
 70
     0
 10
0.0
 20
0.0
  0
LINE
  5
59
100
AcDbEntity
  8
DD0
100
AcDbLine
 10
90.908506
 20
221.714543
 11
90.908506
 21
214.701478
  0
LINE
  5
5A
100
AcDbEntity
  8
DD0
100
AcDbLine
 10
98.608764
 20
236.893627
 11
98.608764
 21
214.701478
  0
LINE
  5
5B
100
AcDbEntity
  8
DD0
100
AcDbLine
 10
87.499356
 20
214.96447
 11
90.908506
 21
215.877949
  0
LINE
  5
5C
100
AcDbEntity
  8
DD0
100
AcDbLine
 10
90.908506
 20
215.877949
 11
87.499356
 21
216.791428
  0
LINE
  5
5D
100
AcDbEntity
  8
DD0
100
AcDbLine
 10
102.017914
 20
216.791428
 11
98.608764
 21
215.877949
  0
LINE
  5
5E
100
AcDbEntity
  8
DD0
100
AcDbLine
 10
98.608764
 20
215.877949
 11
102.017914
 21
214.96447
  0
LINE
  5
5F
100
AcDbEntity
  8
DD0
100
AcDbLine
 10
87.026153
 20
215.877949
 11
102.491116
 21
215.877949
  0
TEXT
  5
60
100
AcDbEntity
  8
DD0
100
AcDbText
 10
87.649814
 20
211.230894
 40
3.705882
  1
最小１０
 41
0.833333
  7
STANDARD
100
AcDbText
  0
ENDBLK
  5
61
100
AcDbEntity
  8
DD0
100
AcDbBlockEnd
  0
BLOCK
  5
64
100
AcDbEntity
  8
DD0
100
AcDbBlockBegin
  2
DIMS2
 70
     0
 10
0.0
 20
0.0
  0
LINE
  5
65
100
AcDbEntity
  8
DD0
100
AcDbLine
 10
98.608764
 20
271.246564
 11
98.608764
 21
298.999536
  0
LINE
  5
66
100
AcDbEntity
  8
DD0
100
AcDbLine
 10
225.209614
 20
287.744061
 11
225.209614
 21
298.999536
  0
LINE
  5
67
100
AcDbEntity
  8
DD0
100
AcDbLine
 10
102.017914
 20
298.736544
 11
98.608764
 21
297.823065
  0
LINE
  5
68
100
AcDbEntity
  8
DD0
100
AcDbLine
 10
98.608764
 20
297.823065
 11
102.017914
 21
296.909586
  0
LINE
  5
69
100
AcDbEntity
  8
DD0
100
AcDbLine
 10
221.800464
 20
296.909586
 11
225.209614
 21
297.823065
  0
LINE
  5
6A
100
AcDbEntity
  8
DD0
100
AcDbLine
 10
225.209614
 20
297.823065
 11
221.800464
 21
298.736544
  0
LINE
  5
6B
100
AcDbEntity
  8
DD0
100
AcDbLine
 10
98.608764
 20
297.823065
 11
225.209614
 21
297.823065
  0
TEXT
  5
6C
100
AcDbEntity
  8
DD0
100
AcDbText
 10
156.653305
 20
298.528955
 40
3.705882
  1
１２７
 41
0.833333
  7
STANDARD
100
AcDbText
  0
ENDBLK
  5
6D
100
AcDbEntity
  8
DD0
100
AcDbBlockEnd
  0
BLOCK
  5
70
100
AcDbEntity
  8
DD0
100
AcDbBlockBegin
  2
DIMS3
 70
     0
 10
0.0
 20
0.0
  0
LINE
  5
71
100
AcDbEntity
  8
DD0
100
AcDbLine
 10
222.909611
 20
220.391121
 11
222.909611
 21
210.898934
  0
LINE
  5
72
100
AcDbEntity
  8
DD0
100
AcDbLine
 10
225.209614
 20
220.391121
 11
225.209614
 21
210.898934
  0
LINE
  5
73
100
AcDbEntity
  8
DD0
100
AcDbLine
 10
219.500462
 20
211.161926
 11
222.909611
 21
212.075405
  0
LINE
  5
74
100
AcDbEntity
  8
DD0
100
AcDbLine
 10
222.909611
 20
212.075405
 11
219.500462
 21
212.988884
  0
LINE
  5
75
100
AcDbEntity
  8
DD0
100
AcDbLine
 10
228.618763
 20
212.988884
 11
225.209614
 21
212.075405
  0
LINE
  5
76
100
AcDbEntity
  8
DD0
100
AcDbLine
 10
225.209614
 20
212.075405
 11
228.618763
 21
211.161926
  0
LINE
  5
77
100
AcDbEntity
  8
DD0
100
AcDbLine
 10
206.73314
 20
212.075405
 11
229.091966
 21
212.075405
  0
TEXT
  5
78
100
AcDbEntity
  8
DD0
100
AcDbText
 10
207.683146
 20
212.781294
 40
3.705882
  1
２．３
 41
0.833333
  7
STANDARD
100
AcDbText
  0
ENDBLK
  5
79
100
AcDbEntity
  8
DD0
100
AcDbBlockEnd
  0
BLOCK
  5
7C
100
AcDbEntity
  8
DD0
100
AcDbBlockBegin
  2
DIMS4
 70
     0
 10
0.0
 20
0.0
  0
LINE
  5
7D
100
AcDbEntity
  8
DD0
100
AcDbLine
 10
67.588988
 20
286.567411
 11
76.449161
 21
286.567411
  0
LINE
  5
7E
100
AcDbEntity
  8
DD0
100
AcDbLine
 10
65.589432
 20
221.567215
 11
76.449161
 21
221.567215
  0
LINE
  5
7F
100
AcDbEntity
  8
DD0
100
AcDbLine
 10
76.186165
 20
283.158261
 11
75.272686
 21
286.567411
  0
LINE
  5
80
100
AcDbEntity
  8
DD0
100
AcDbLine
 10
75.272686
 20
286.567411
 11
74.359207
 21
283.158261
  0
LINE
  5
81
100
AcDbEntity
  8
DD0
100
AcDbLine
 10
74.359207
 20
224.976365
 11
75.272686
 21
221.567215
  0
LINE
  5
82
100
AcDbEntity
  8
DD0
100
AcDbLine
 10
75.272686
 20
221.567215
 11
76.186165
 21
224.976365
  0
LINE
  5
83
100
AcDbEntity
  8
DD0
100
AcDbLine
 10
75.272686
 20
286.567411
 11
75.272686
 21
221.567215
  0
TEXT
  5
84
100
AcDbEntity
  8
DD0
100
AcDbText
 10
74.566805
 20
251.916316
 40
2.941176
  1
６５
 50
90.000003
 41
0.666667
  7
STANDARD
100
AcDbText
  0
ENDBLK
  5
85
100
AcDbEntity
  8
DD0
100
AcDbBlockEnd
  0
BLOCK
  5
88
100
AcDbEntity
  8
DD0
100
AcDbBlockBegin
  2
DIMS5
 70
     0
 10
0.0
 20
0.0
  0
LINE
  5
89
100
AcDbEntity
  8
DD0
100
AcDbLine
 10
23.41296
 20
284.74368
 11
23.41296
 21
298.999536
  0
LINE
  5
8A
100
AcDbEntity
  8
DD0
100
AcDbLine
 10
66.912503
 20
287.243896
 11
66.912503
 21
298.999536
  0
LINE
  5
8B
100
AcDbEntity
  8
DD0
100
AcDbLine
 10
26.822109
 20
298.736544
 11
23.41296
 21
297.823065
  0
LINE
  5
8C
100
AcDbEntity
  8
DD0
100
AcDbLine
 10
23.41296
 20
297.823065
 11
26.822109
 21
296.909586
  0
LINE
  5
8D
100
AcDbEntity
  8
DD0
100
AcDbLine
 10
63.503353
 20
296.909586
 11
66.912503
 21
297.823065
  0
LINE
  5
8E
100
AcDbEntity
  8
DD0
100
AcDbLine
 10
66.912503
 20
297.823065
 11
63.503353
 21
298.736544
  0
LINE
  5
8F
100
AcDbEntity
  8
DD0
100
AcDbLine
 10
23.41296
 20
297.823065
 11
66.912503
 21
297.823065
  0
TEXT
  5
90
100
AcDbEntity
  8
DD0
100
AcDbText
 10
41.759788
 20
298.528955
 40
3.705882
  1
４４
 41
0.833333
  7
STANDARD
100
AcDbText
  0
ENDBLK
  5
91
100
AcDbEntity
  8
DD0
100
AcDbBlockEnd
  0
BLOCK
  5
94
100
AcDbEntity
  8
DD0
100
AcDbBlockBegin
  2
DIMS6
 70
     0
 10
0.0
 20
0.0
  0
LINE
  5
95
100
AcDbEntity
  8
DD0
100
AcDbLine
 10
33.686828
 20
164.016504
 11
76.449161
 21
164.016504
  0
LINE
  5
96
100
AcDbEntity
  8
DD0
100
AcDbLine
 10
67.186829
 20
109.016514
 11
76.449161
 21
109.016514
  0
LINE
  5
97
100
AcDbEntity
  8
DD0
100
AcDbLine
 10
76.186165
 20
160.607354
 11
75.272686
 21
164.016504
  0
LINE
  5
98
100
AcDbEntity
  8
DD0
100
AcDbLine
 10
75.272686
 20
164.016504
 11
74.359207
 21
160.607354
  0
LINE
  5
99
100
AcDbEntity
  8
DD0
100
AcDbLine
 10
74.359207
 20
112.425664
 11
75.272686
 21
109.016514
  0
LINE
  5
9A
100
AcDbEntity
  8
DD0
100
AcDbLine
 10
75.272686
 20
109.016514
 11
76.186165
 21
112.425664
  0
LINE
  5
9B
100
AcDbEntity
  8
DD0
100
AcDbLine
 10
75.272686
 20
164.016504
 11
75.272686
 21
109.016514
  0
TEXT
  5
9C
100
AcDbEntity
  8
DD0
100
AcDbText
 10
74.566805
 20
133.113563
 40
3.705882
  1
５５
 50
90.000003
 41
0.833333
  7
STANDARD
100
AcDbText
  0
ENDBLK
  5
9D
100
AcDbEntity
  8
DD0
100
AcDbBlockEnd
  0
BLOCK
  5
A0
100
AcDbEntity
  8
DD0
100
AcDbBlockBegin
  2
DIMS7
 70
     0
 10
0.0
 20
0.0
  0
LINE
  5
A1
100
AcDbEntity
  8
DD0
100
AcDbLine
 10
28.412946
 20
169.290372
 11
28.412946
 21
183.775432
  0
LINE
  5
A2
100
AcDbEntity
  8
DD0
100
AcDbLine
 10
61.412944
 20
114.790386
 11
61.412944
 21
183.775432
  0
LINE
  5
A3
100
AcDbEntity
  8
DD0
100
AcDbLine
 10
31.822096
 20
183.512441
 11
28.412946
 21
182.598962
  0
LINE
  5
A4
100
AcDbEntity
  8
DD0
100
AcDbLine
 10
28.412946
 20
182.598962
 11
31.822096
 21
181.685483
  0
LINE
  5
A5
100
AcDbEntity
  8
DD0
100
AcDbLine
 10
58.003794
 20
181.685483
 11
61.412944
 21
182.598962
  0
LINE
  5
A6
100
AcDbEntity
  8
DD0
100
AcDbLine
 10
61.412944
 20
182.598962
 11
58.003794
 21
183.512441
  0
LINE
  5
A7
100
AcDbEntity
  8
DD0
100
AcDbLine
 10
28.412946
 20
182.598962
 11
61.412944
 21
182.598962
  0
TEXT
  5
A8
100
AcDbEntity
  8
DD0
100
AcDbText
 10
41.510001
 20
183.304851
 40
3.705882
  1
３３
 41
0.833333
  7
STANDARD
100
AcDbText
  0
ENDBLK
  5
A9
100
AcDbEntity
  8
DD0
100
AcDbBlockEnd
  0
BLOCK
  5
AC
100
AcDbEntity
  8
DD0
100
AcDbBlockBegin
  2
DIMS8
 70
     0
 10
0.0
 20
0.0
  0
LINE
  5
AD
100
AcDbEntity
  8
DD0
100
AcDbLine
 10
45.41296
 20
174.186486
 11
45.41296
 21
175.760367
  0
LINE
  5
AE
100
AcDbEntity
  8
DD0
100
AcDbLine
 10
28.412946
 20
169.290372
 11
28.412946
 21
175.760367
  0
LINE
  5
AF
100
AcDbEntity
  8
DD0
100
AcDbLine
 10
42.00381
 20
173.670418
 11
45.41296
 21
174.583897
  0
LINE
  5
B0
100
AcDbEntity
  8
DD0
100
AcDbLine
 10
45.41296
 20
174.583897
 11
42.00381
 21
175.497376
  0
LINE
  5
B1
100
AcDbEntity
  8
DD0
100
AcDbLine
 10
31.822096
 20
175.497376
 11
28.412946
 21
174.583897
  0
LINE
  5
B2
100
AcDbEntity
  8
DD0
100
AcDbLine
 10
28.412946
 20
174.583897
 11
31.822096
 21
173.670418
  0
LINE
  5
B3
100
AcDbEntity
  8
DD0
100
AcDbLine
 10
45.41296
 20
174.583897
 11
28.412946
 21
174.583897
  0
TEXT
  5
B4
100
AcDbEntity
  8
DD0
100
AcDbText
 10
33.510011
 20
175.289786
 40
3.705882
  1
１７
 41
0.833333
  7
STANDARD
100
AcDbText
  0
ENDBLK
  5
B5
100
AcDbEntity
  8
DD0
100
AcDbBlockEnd
  0
BLOCK
  5
B8
100
AcDbEntity
  8
DD0
100
AcDbBlockBegin
  2
DIMS9
 70
     0
 10
0.0
 20
0.0
  0
TEXT
  5
B9
100
AcDbEntity
  8
DD0
100
AcDbText
 10
73.287667
 20
90.429954
 40
3.705882
  1
２－Ｍ４ねじ穴
 41
0.833333
  7
STANDARD
100
AcDbText
  0
LINE
  5
BA
100
AcDbEntity
  8
DD0
100
AcDbLine
 10
65.636311
 20
104.731665
 11
63.023433
 21
107.104346
  0
LINE
  5
BB
100
AcDbEntity
  8
DD0
100
AcDbLine
 10
63.023433
 20
107.104346
 11
64.099912
 21
103.743105
  0
LINE
  5
BC
100
AcDbEntity
  8
DD0
100
AcDbLine
 10
63.023433
 20
107.104346
 11
72.181017
 21
92.871818
  0
ENDBLK
  5
BD
100
AcDbEntity
  8
DD0
100
AcDbBlockEnd
  0
ENDSEC
  0
SECTION
  2
ENTITIES
  0
INSERT
  5
56
100
AcDbEntity
  8
DD0
100
AcDbBlockReference
  2
DIMS0
 10
0.0
 20
0.0
  0
INSERT
  5
62
100
AcDbEntity
  8
DD0
100
AcDbBlockReference
  2
DIMS1
 10
0.0
 20
0.0
  0
INSERT
  5
6E
100
AcDbEntity
  8
DD0
100
AcDbBlockReference
  2
DIMS2
 10
0.0
 20
0.0
  0
INSERT
  5
7A
100
AcDbEntity
  8
DD0
100
AcDbBlockReference
  2
DIMS3
 10
0.0
 20
0.0
  0
INSERT
  5
86
100
AcDbEntity
  8
DD0
100
AcDbBlockReference
  2
DIMS4
 10
0.0
 20
0.0
  0
INSERT
  5
92
100
AcDbEntity
  8
DD0
100
AcDbBlockReference
  2
DIMS5
 10
0.0
 20
0.0
  0
INSERT
  5
9E
100
AcDbEntity
  8
DD0
100
AcDbBlockReference
  2
DIMS6
 10
0.0
 20
0.0
  0
INSERT
  5
AA
100
AcDbEntity
  8
DD0
100
AcDbBlockReference
  2
DIMS7
 10
0.0
 20
0.0
  0
INSERT
  5
B6
100
AcDbEntity
  8
DD0
100
AcDbBlockReference
  2
DIMS8
 10
0.0
 20
0.0
  0
INSERT
  5
BE
100
AcDbEntity
  8
DD0
100
AcDbBlockReference
  2
DIMS9
 10
0.0
 20
0.0
  0
LINE
  5
BF
100
AcDbEntity
  8
M0
  6
DASHDOT
100
AcDbLine
 10
177.452258
 20
254.072376
 11
167.012958
 21
254.072426
  0
LINE
  5
C0
100
AcDbEntity
  8
M0
 62
     4
100
AcDbLine
 10
157.608761
 20
221.570089
 11
173.909619
 21
221.570089
  0
LINE
  5
C1
100
AcDbEntity
  8
M0
 62
     4
100
AcDbLine
 10
171.908749
 20
221.570089
 11
171.908749
 21
251.067663
  0
LINE
  5
C2
100
AcDbEntity
  8
M0
 62
     4
100
AcDbLine
 10
173.909619
 20
286.569662
 11
157.608746
 21
286.569906
  0
LINE
  5
C3
100
AcDbEntity
  8
M0
 62
     4
100
AcDbLine
 10
98.608761
 20
270.070089
 11
98.608761
 21
238.070089
  0
LINE
  5
C4
100
AcDbEntity
  8
M0
  6
DASHDOT
 62
     4
100
AcDbLine
 10
92.358761
 20
254.070089
 11
175.152249
 21
254.070059
  0
LINE
  5
C5
100
AcDbEntity
  8
M0
 62
     4
100
AcDbLine
 10
123.608761
 20
228.070181
 11
123.608761
 21
230.070074
  0
LINE
  5
C6
100
AcDbEntity
  8
M0
 62
     4
100
AcDbLine
 10
103.608761
 20
275.070089
 11
120.608761
 21
275.070089
  0
LINE
  5
C7
100
AcDbEntity
  8
M0
 62
     4
100
AcDbLine
 10
103.608761
 20
233.070089
 11
120.608761
 21
233.070089
  0
ARC
  5
C8
100
AcDbEntity
  8
M0
 62
     4
100
AcDbCircle
 10
103.608761
 20
270.070089
 40
4.999997
100
AcDbArc
 50
90.0
 51
180.0
  0
ARC
  5
C9
100
AcDbEntity
  8
M0
 62
     4
100
AcDbCircle
 10
103.608761
 20
238.070089
 40
4.999997
100
AcDbArc
 50
179.999967
 51
270.0
  0
LINE
  5
CA
100
AcDbEntity
  8
M0
 62
     4
100
AcDbLine
 10
128.608761
 20
285.069601
 11
154.037808
 21
285.069601
  0
LINE
  5
CB
100
AcDbEntity
  8
M0
 62
     4
100
AcDbLine
 10
123.608761
 20
277.069845
 11
123.608761
 21
280.069601
  0
ARC
  5
CC
100
AcDbEntity
  8
M0
 62
     4
100
AcDbCircle
 10
128.608761
 20
280.069601
 40
4.999997
100
AcDbArc
 50
90.0
 51
180.0
  0
LINE
  5
CD
100
AcDbEntity
  8
M0
 62
     4
100
AcDbLine
 10
128.608761
 20
284.069418
 11
165.108746
 21
284.069418
  0
ARC
  5
CE
100
AcDbEntity
  8
M0
 62
     4
100
AcDbCircle
 10
128.608761
 20
279.069601
 40
4.999997
100
AcDbArc
 50
90.0
 51
180.0
  0
LINE
  5
CF
100
AcDbEntity
  8
M0
 62
     4
100
AcDbLine
 10
128.608761
 20
225.070196
 11
148.608761
 21
225.070196
  0
LINE
  5
D0
100
AcDbEntity
  8
M0
 62
     4
100
AcDbLine
 10
128.608761
 20
223.070181
 11
154.037945
 21
223.070181
  0
ARC
  5
D1
100
AcDbEntity
  8
M0
 62
     4
100
AcDbCircle
 10
128.608761
 20
228.070181
 40
4.999997
100
AcDbArc
 50
179.999956
 51
269.999825
  0
ARC
  5
D2
100
AcDbEntity
  8
M0
 62
     4
100
AcDbCircle
 10
128.608761
 20
230.070196
 40
4.999997
100
AcDbArc
 50
179.999956
 51
269.999825
  0
LINE
  5
D3
100
AcDbEntity
  8
M0
 62
     4
100
AcDbLine
 10
153.608761
 20
234.070089
 11
171.608761
 21
234.070089
  0
LINE
  5
D4
100
AcDbEntity
  8
M0
 62
     4
100
AcDbLine
 10
150.608761
 20
231.070089
 11
150.608761
 21
227.070196
  0
ARC
  5
D5
100
AcDbEntity
  8
M0
 62
     4
100
AcDbCircle
 10
153.608761
 20
231.070089
 40
2.999998
100
AcDbArc
 50
90.0
 51
179.999964
  0
ARC
  5
D6
100
AcDbEntity
  8
M0
 62
     4
100
AcDbCircle
 10
148.608761
 20
227.070196
 40
1.999998
100
AcDbArc
 50
269.999563
 51
360.0
  0
LINE
  5
D7
100
AcDbEntity
  8
M0
 62
     4
100
AcDbLine
 10
152.608761
 20
230.570089
 11
152.608761
 21
225.070181
  0
LINE
  5
D8
100
AcDbEntity
  8
M0
 62
     4
100
AcDbLine
 10
153.608761
 20
231.570089
 11
168.871869
 21
231.570089
  0
ARC
  5
D9
100
AcDbEntity
  8
M0
 62
     4
100
AcDbCircle
 10
153.608761
 20
230.570089
 40
1.0
100
AcDbArc
 50
90.0
 51
179.999945
  0
ARC
  5
DA
100
AcDbEntity
  8
M0
 62
     4
100
AcDbCircle
 10
150.608761
 20
225.070181
 40
1.999998
100
AcDbArc
 50
269.999563
 51
360.0
  0
ARC
  5
DB
100
AcDbEntity
  8
M0
 62
     4
100
AcDbCircle
 10
157.608761
 20
226.570089
 40
4.999997
100
AcDbArc
 50
179.999956
 51
269.999825
  0
ARC
  5
DC
100
AcDbEntity
  8
M0
 62
     4
100
AcDbCircle
 10
157.608761
 20
281.569845
 40
4.999995
100
AcDbArc
 50
90.0
 51
135.577037
  0
ARC
  5
DD
100
AcDbEntity
  8
M0
 62
     4
100
AcDbCircle
 10
120.608761
 20
230.070089
 40
2.999998
100
AcDbArc
 50
0.0
 51
90.0
  0
ARC
  5
DE
100
AcDbEntity
  8
M0
 62
     4
100
AcDbCircle
 10
120.608761
 20
278.070089
 40
2.999998
100
AcDbArc
 50
269.999709
 51
360.0
  0
LINE
  5
DF
100
AcDbEntity
  8
M0
 62
     4
100
AcDbLine
 10
103.608761
 20
274.070089
 11
120.608761
 21
274.070089
  0
ARC
  5
E0
100
AcDbEntity
  8
M0
 62
     4
100
AcDbCircle
 10
103.608761
 20
269.070089
 40
4.999997
100
AcDbArc
 50
90.0
 51
180.0
  0
ARC
  5
E1
100
AcDbEntity
  8
M0
 62
     4
100
AcDbCircle
 10
120.608761
 20
277.070089
 40
2.999998
100
AcDbArc
 50
269.999709
 51
360.0
  0
LINE
  5
E2
100
AcDbEntity
  8
M0
 62
     4
100
AcDbLine
 10
171.908749
 20
257.067663
 11
171.908749
 21
286.570089
  0
LINE
  5
E3
100
AcDbEntity
  8
M0
 62
     4
100
AcDbLine
 10
165.108746
 20
286.569662
 11
165.108746
 21
284.069418
  0
LINE
  5
E4
100
AcDbEntity
  8
M0
 62
     4
100
AcDbLine
 10
163.908734
 20
286.569662
 11
163.908734
 21
284.069418
  0
LINE
  5
E5
100
AcDbEntity
  8
M0
 62
     2
100
AcDbLine
 10
95.608748
 20
255.82021
 11
95.608762
 21
252.320211
  0
LINE
  5
E6
100
AcDbEntity
  8
M0
 62
     2
100
AcDbLine
 10
98.608746
 20
256.320195
 11
96.108748
 21
256.32021
  0
LINE
  5
E7
100
AcDbEntity
  8
M0
 62
     2
100
AcDbLine
 10
98.608746
 20
251.820226
 11
96.108763
 21
251.820226
  0
ARC
  5
E8
100
AcDbEntity
  8
M0
 62
     2
100
AcDbCircle
 10
96.108748
 20
255.82021
 40
0.5
100
AcDbArc
 50
90.0
 51
179.999982
  0
ARC
  5
E9
100
AcDbEntity
  8
M0
 62
     2
100
AcDbCircle
 10
96.108762
 20
252.320211
 40
0.5
100
AcDbArc
 50
179.999968
 51
270.0
  0
LINE
  5
EA
100
AcDbEntity
  8
M0
100
AcDbLine
 10
90.908505
 20
222.891012
 11
90.908505
 21
262.891012
  0
LINE
  5
EB
100
AcDbEntity
  8
M0
100
AcDbLine
 10
87.90852
 20
224.133627
 11
90.90852
 21
227.133642
  0
LINE
  5
EC
100
AcDbEntity
  8
M0
100
AcDbLine
 10
87.908505
 20
228.376257
 11
90.908505
 21
231.376272
  0
LINE
  5
ED
100
AcDbEntity
  8
M0
100
AcDbLine
 10
87.908505
 20
232.618902
 11
90.908505
 21
235.618902
  0
LINE
  5
EE
100
AcDbEntity
  8
M0
100
AcDbLine
 10
87.908505
 20
236.861547
 11
90.908505
 21
239.861547
  0
LINE
  5
EF
100
AcDbEntity
  8
M0
100
AcDbLine
 10
87.908505
 20
241.104193
 11
90.908505
 21
244.104193
  0
LINE
  5
F0
100
AcDbEntity
  8
M0
100
AcDbLine
 10
87.908505
 20
245.346838
 11
90.908505
 21
248.346838
  0
LINE
  5
F1
100
AcDbEntity
  8
M0
100
AcDbLine
 10
87.90849
 20
249.589468
 11
90.90849
 21
252.589468
  0
LINE
  5
F2
100
AcDbEntity
  8
M0
100
AcDbLine
 10
87.908505
 20
253.832113
 11
90.908505
 21
256.832113
  0
LINE
  5
F3
100
AcDbEntity
  8
M0
100
AcDbLine
 10
87.908505
 20
258.074758
 11
90.908505
 21
261.074758
  0
LINE
  5
F4
100
AcDbEntity
  8
M0
 62
     7
100
AcDbLine
 10
173.909619
 20
221.567587
 11
176.209607
 21
221.567587
  0
LINE
  5
F5
100
AcDbEntity
  8
M0
 62
     7
100
AcDbLine
 10
225.209607
 20
221.567587
 11
225.209607
 21
234.067587
  0
LINE
  5
F6
100
AcDbEntity
  8
M0
 62
     7
100
AcDbLine
 10
225.209607
 20
286.567587
 11
180.909619
 21
286.56722
  0
LINE
  5
F7
100
AcDbEntity
  8
M0
 62
     7
100
AcDbLine
 10
173.909619
 20
286.567587
 11
173.909619
 21
268.067587
  0
LINE
  5
F8
100
AcDbEntity
  8
M0
 62
     7
100
AcDbLine
 10
224.709607
 20
234.067587
 11
224.709607
 21
286.567587
  0
LINE
  5
F9
100
AcDbEntity
  8
M0
 62
     7
100
AcDbLine
 10
224.709607
 20
274.067587
 11
225.209607
 21
274.067587
  0
LINE
  5
FA
100
AcDbEntity
  8
M0
 62
     7
100
AcDbLine
 10
224.709576
 20
234.067587
 11
225.209576
 21
234.067587
  0
LINE
  5
FB
100
AcDbEntity
  8
M0
 62
     7
100
AcDbLine
 10
225.209607
 20
234.067587
 11
225.209607
 21
286.567587
  0
LINE
  5
FC
100
AcDbEntity
  8
M0
 62
     7
100
AcDbLine
 10
173.909619
 20
268.067587
 11
177.909619
 21
268.067587
  0
LINE
  5
FD
100
AcDbEntity
  8
M0
 62
     7
100
AcDbLine
 10
173.909619
 20
240.067587
 11
177.909619
 21
240.067587
  0
LINE
  5
FE
100
AcDbEntity
  8
M0
 62
     7
100
AcDbLine
 10
222.409604
 20
262.067587
 11
224.709607
 21
262.067587
  0
LINE
  5
FF
100
AcDbEntity
  8
M0
 62
     7
100
AcDbLine
 10
222.409604
 20
246.067587
 11
224.709607
 21
246.067587
  0
LINE
  5
100
100
AcDbEntity
  8
M0
 62
     7
100
AcDbLine
 10
178.909619
 20
284.567571
 11
178.909619
 21
281.567587
  0
LINE
  5
101
100
AcDbEntity
  8
M0
 62
     7
100
AcDbLine
 10
173.909619
 20
279.567587
 11
176.909619
 21
279.567587
  0
ARC
  5
102
100
AcDbEntity
  8
M0
 62
     7
100
AcDbCircle
 10
180.909619
 20
284.567571
 40
2.0
100
AcDbArc
 50
90.0
 51
180.0
  0
LINE
  5
103
100
AcDbEntity
  8
M0
 62
     7
100
AcDbLine
 10
176.209607
 20
286.567587
 11
176.209607
 21
279.567587
  0
LINE
  5
104
100
AcDbEntity
  8
M0
 62
     7
100
AcDbLine
 10
178.909619
 20
267.067587
 11
178.909619
 21
266.067587
  0
ARC
  5
105
100
AcDbEntity
  8
M0
 62
     7
100
AcDbCircle
 10
176.909619
 20
281.567587
 40
2.0
100
AcDbArc
 50
270.0
 51
360.0
  0
LINE
  5
106
100
AcDbEntity
  8
M0
 62
     7
100
AcDbLine
 10
179.909619
 20
265.067587
 11
224.709607
 21
265.067587
  0
LINE
  5
107
100
AcDbEntity
  8
M0
 62
     7
100
AcDbLine
 10
179.909619
 20
243.067587
 11
224.709607
 21
243.067587
  0
LINE
  5
108
100
AcDbEntity
  8
M0
 62
     7
100
AcDbLine
 10
173.909619
 20
240.067587
 11
173.909619
 21
221.567587
  0
LINE
  5
109
100
AcDbEntity
  8
M0
  6
DASHED
 62
     7
100
AcDbLine
 10
176.209607
 20
240.067587
 11
176.209607
 21
227.067587
  0
ARC
  5
10A
100
AcDbEntity
  8
M0
 62
     7
100
AcDbCircle
 10
177.909619
 20
267.067587
 40
1.0
100
AcDbArc
 50
0.0
 51
90.0
  0
LINE
  5
10B
100
AcDbEntity
  8
M0
 62
     7
100
AcDbLine
 10
178.909619
 20
227.067587
 11
178.909619
 21
223.567587
  0
ARC
  5
10C
100
AcDbEntity
  8
M0
 62
     7
100
AcDbCircle
 10
179.909619
 20
266.067587
 40
1.0
100
AcDbArc
 50
180.0
 51
270.0
  0
ARC
  5
10D
100
AcDbEntity
  8
M0
 62
     7
100
AcDbCircle
 10
179.909619
 20
242.067587
 40
1.0
100
AcDbArc
 50
90.0
 51
180.0
  0
LINE
  5
10E
100
AcDbEntity
  8
M0
  6
DASHED
 62
     7
100
AcDbLine
 10
176.209607
 20
279.567587
 11
176.209607
 21
268.067587
  0
LINE
  5
10F
100
AcDbEntity
  8
M0
 62
     7
100
AcDbLine
 10
173.909619
 20
227.067587
 11
180.909604
 21
227.067587
  0
LINE
  5
110
100
AcDbEntity
  8
M0
 62
     7
100
AcDbLine
 10
176.209607
 20
227.067587
 11
176.209607
 21
221.567587
  0
LINE
  5
111
100
AcDbEntity
  8
M0
 62
     7
100
AcDbLine
 10
178.909619
 20
242.067587
 11
178.909619
 21
241.067587
  0
ARC
  5
112
100
AcDbEntity
  8
M0
 62
     7
100
AcDbCircle
 10
177.909619
 20
241.067587
 40
1.0
100
AcDbArc
 50
270.0
 51
360.0
  0
LINE
  5
113
100
AcDbEntity
  8
M0
 62
     7
100
AcDbLine
 10
214.709607
 20
234.067587
 11
224.709607
 21
234.067587
  0
LINE
  5
114
100
AcDbEntity
  8
M0
 62
     7
100
AcDbLine
 10
222.909604
 20
231.067587
 11
225.209607
 21
231.067587
  0
LINE
  5
115
100
AcDbEntity
  8
M0
 62
     7
100
AcDbLine
 10
222.409604
 20
243.067587
 11
222.409604
 21
265.067587
  0
LINE
  5
116
100
AcDbEntity
  8
M0
 62
     7
100
AcDbLine
 10
222.909604
 20
221.567587
 11
222.909604
 21
234.067587
  0
LINE
  5
117
100
AcDbEntity
  8
M0
 62
     7
100
AcDbLine
 10
214.709805
 20
234.067571
 11
180.909619
 21
227.067587
  0
LINE
  5
118
100
AcDbEntity
  8
M0
 62
     7
100
AcDbLine
 10
176.209607
 20
286.56722
 11
173.909619
 21
286.567587
  0
LINE
  5
119
100
AcDbEntity
  8
M0
 62
     7
100
AcDbLine
 10
180.909619
 20
221.567587
 11
225.209607
 21
221.567587
  0
ARC
  5
11A
100
AcDbEntity
  8
M0
 62
     7
100
AcDbCircle
 10
180.909619
 20
223.567587
 40
2.0
100
AcDbArc
 50
179.999973
 51
270.0
  0
LINE
  5
11B
100
AcDbEntity
  8
M0
100
AcDbLine
 10
222.109631
 20
232.567557
 11
222.109616
 21
234.067587
  0
LINE
  5
11C
100
AcDbEntity
  8
M0
100
AcDbLine
 10
220.109677
 20
265.067574
 11
220.109678
 21
243.067587
  0
LINE
  5
11D
100
AcDbEntity
  8
M0
  6
DASHDOT
100
AcDbLine
 10
227.665217
 20
254.067558
 11
167.018625
 21
254.067692
  0
LINE
  5
11E
100
AcDbEntity
  8
M0
100
AcDbLine
 10
176.609721
 20
268.067686
 11
176.609659
 21
240.067686
  0
LINE
  5
11F
100
AcDbEntity
  8
M0
100
AcDbLine
 10
173.90971
 20
275.567677
 11
173.909685
 21
257.367665
  0
LINE
  5
120
100
AcDbEntity
  8
M0
100
AcDbLine
 10
171.909683
 20
256.567681
 11
171.909687
 21
251.567681
  0
LINE
  5
121
100
AcDbEntity
  8
M0
100
AcDbLine
 10
172.4097
 20
257.06768
 11
173.609697
 21
257.067678
  0
LINE
  5
122
100
AcDbEntity
  8
M0
100
AcDbLine
 10
172.409686
 20
251.06768
 11
173.609698
 21
251.067678
  0
LINE
  5
123
100
AcDbEntity
  8
M0
100
AcDbLine
 10
173.90967
 20
250.767674
 11
173.909615
 21
232.567677
  0
ARC
  5
124
100
AcDbEntity
  8
M0
100
AcDbCircle
 10
172.409698
 20
256.56768
 40
0.5
100
AcDbArc
 50
90.0
 51
179.999873
  0
ARC
  5
125
100
AcDbEntity
  8
M0
100
AcDbCircle
 10
172.409687
 20
251.56768
 40
0.5
100
AcDbArc
 50
179.999873
 51
270.0
  0
ARC
  5
126
100
AcDbEntity
  8
M0
100
AcDbCircle
 10
173.609698
 20
250.767675
 40
0.3
100
AcDbArc
 50
359.996959
 51
450.0
  0
ARC
  5
127
100
AcDbEntity
  8
M0
100
AcDbCircle
 10
173.609697
 20
257.367665
 40
0.3
100
AcDbArc
 50
270.0
 51
359.996959
  0
LINE
  5
128
100
AcDbEntity
  8
M0
100
AcDbLine
 10
220.109599
 20
232.567558
 11
222.109599
 21
232.567556
  0
LINE
  5
129
100
AcDbEntity
  8
M0
100
AcDbLine
 10
220.109678
 20
234.067587
 11
220.109677
 21
232.567556
  0
LINE
  5
12A
100
AcDbEntity
  8
M0
100
AcDbLine
 10
222.109616
 20
243.067586
 11
222.109677
 21
265.06757
  0
LINE
  5
12B
100
AcDbEntity
  8
M0
 62
     2
100
AcDbLine
 10
41.05534
 20
284.502523
 11
41.530682
 21
279.06722
  0
LINE
  5
12C
100
AcDbEntity
  8
M0
 62
     2
100
AcDbLine
 10
40.059003
 20
284.415364
 11
40.526777
 21
279.06722
  0
LINE
  5
12D
100
AcDbEntity
  8
M0
 62
     2
100
AcDbLine
 10
46.635448
 20
285.191548
 11
41.934567
 21
284.780279
  0
LINE
  5
12E
100
AcDbEntity
  8
M0
 62
     2
100
AcDbLine
 10
41.934566
 20
284.780304
 11
41.951997
 21
284.581068
  0
LINE
  5
12F
100
AcDbEntity
  8
M0
 62
     2
100
AcDbLine
 10
41.952
 20
284.581038
 11
40.059221
 21
284.415441
  0
LINE
  5
130
100
AcDbEntity
  8
M0
 62
     2
100
AcDbLine
 10
191.18383
 20
229.195363
 11
193.217773
 21
224.403728
  0
LINE
  5
131
100
AcDbEntity
  8
M0
  6
DASHDOT
 62
     2
100
AcDbLine
 10
190.662349
 20
226.849653
 11
201.932306
 21
231.63341
  0
LINE
  5
132
100
AcDbEntity
  8
M0
 62
     2
100
AcDbLine
 10
194.529033
 20
223.873955
 11
197.290449
 21
225.046122
  0
ARC
  5
133
100
AcDbEntity
  8
M0
 62
     2
100
AcDbCircle
 10
194.13829
 20
224.79446
 40
1.0
100
AcDbArc
 50
202.999432
 51
293.00066
  0
LINE
  5
134
100
AcDbEntity
  8
M0
 62
     2
100
AcDbLine
 10
196.448206
 20
224.471344
 11
197.368604
 21
224.862039
  0
LINE
  5
135
100
AcDbEntity
  8
M0
 62
     2
100
AcDbLine
 10
196.37007
 20
224.655442
 11
196.448191
 21
224.471343
  0
LINE
  5
136
100
AcDbEntity
  8
M0
 62
     2
100
AcDbLine
 10
195.178126
 20
230.022569
 11
197.368592
 21
224.862066
  0
LINE
  5
137
100
AcDbEntity
  8
M0
  6
DASHED
 62
     2
100
AcDbLine
 10
194.179529
 20
229.815756
 11
196.370026
 21
224.655436
  0
LINE
  5
138
100
AcDbEntity
  8
M0
 62
     2
100
AcDbLine
 10
195.677365
 20
230.125967
 11
197.066937
 21
226.852255
  0
LINE
  5
139
100
AcDbEntity
  8
M0
 62
     2
100
AcDbLine
 10
196.27647
 20
230.250037
 11
197.42384
 21
227.546926
  0
LINE
  5
13A
100
AcDbEntity
  8
M0
 62
     2
100
AcDbLine
 10
196.606707
 20
226.656925
 11
197.066943
 21
226.852267
  0
LINE
  5
13B
100
AcDbEntity
  8
M0
 62
     2
100
AcDbLine
 10
196.871594
 20
227.312522
 11
197.423855
 21
227.546927
  0
ARC
  5
13C
100
AcDbEntity
  8
M0
 62
     6
100
AcDbCircle
 10
45.410565
 20
280.617513
 40
3.0
100
AcDbArc
 50
110.493801
 51
211.113248
  0
LINE
  5
13D
100
AcDbEntity
  8
M0
 62
     6
100
AcDbLine
 10
44.360441
 20
281.498571
 11
43.686926
 21
282.063734
  0
ARC
  5
13E
100
AcDbEntity
  8
M0
 62
     6
100
AcDbCircle
 10
45.410565
 20
227.517278
 40
3.0
100
AcDbArc
 50
290.489888
 51
351.37244
  0
LINE
  5
13F
100
AcDbEntity
  8
M0
 62
     6
100
AcDbLine
 10
46.460688
 20
226.636219
 11
47.1342
 21
226.071056
  0
LINE
  5
140
100
AcDbEntity
  8
M0
 62
     2
100
AcDbLine
 10
49.765711
 20
223.632071
 11
49.46518
 21
227.067252
  0
LINE
  5
141
100
AcDbEntity
  8
M0
 62
     2
100
AcDbLine
 10
50.761894
 20
223.719226
 11
50.468993
 21
227.067251
  0
LINE
  5
142
100
AcDbEntity
  8
M0
 62
     2
100
AcDbLine
 10
44.185665
 20
222.943148
 11
48.886545
 21
223.354409
  0
LINE
  5
143
100
AcDbEntity
  8
M0
 62
     2
100
AcDbLine
 10
48.886545
 20
223.354383
 11
48.869115
 21
223.553619
  0
LINE
  5
144
100
AcDbEntity
  8
M0
 62
     2
100
AcDbLine
 10
48.869112
 20
223.553649
 11
50.76189
 21
223.719242
  0
LINE
  5
145
100
AcDbEntity
  8
M0
  6
DASHDOT
100
AcDbLine
 10
60.410565
 20
267.267538
 11
60.410565
 21
280.867498
  0
LINE
  5
146
100
AcDbEntity
  8
M0
100
AcDbLine
 10
60.763974
 20
283.481649
 11
58.996304
 21
281.713949
  0
LINE
  5
147
100
AcDbEntity
  8
M0
100
AcDbLine
 10
61.824582
 20
282.42098
 11
60.056958
 21
280.653402
  0
LINE
  5
148
100
AcDbEntity
  8
M0
100
AcDbLine
 10
62.00134
 20
280.476644
 11
58.819531
 21
283.658407
  0
LINE
  5
149
100
AcDbEntity
  8
M0
  6
DASHDOT
100
AcDbLine
 10
60.410565
 20
274.511907
 11
60.410565
 21
289.623007
  0
LINE
  5
14A
100
AcDbEntity
  8
M0
  6
DASHDOT
100
AcDbLine
 10
52.855008
 20
282.067465
 11
67.966107
 21
282.067465
  0
CIRCLE
  5
14B
100
AcDbEntity
  8
M0
100
AcDbCircle
 10
60.410565
 20
282.067465
 40
3.499998
  0
LINE
  5
14C
100
AcDbEntity
  8
M0
100
AcDbLine
 10
62.660565
 20
285.374639
 11
62.660565
 21
286.567373
  0
LINE
  5
14D
100
AcDbEntity
  8
M0
100
AcDbLine
 10
58.160565
 20
285.374639
 11
58.160565
 21
286.567373
  0
ARC
  5
14E
100
AcDbEntity
  8
M0
100
AcDbCircle
 10
30.410565
 20
226.067007
 40
3.999996
100
AcDbArc
 50
118.944277
 51
421.055723
  0
ARC
  5
14F
100
AcDbEntity
  8
M0
100
AcDbCircle
 10
60.410565
 20
282.067465
 40
3.999996
100
AcDbArc
 50
298.952084
 51
601.047654
  0
LINE
  5
150
100
AcDbEntity
  8
M0
  6
DASHDOT
100
AcDbLine
 10
30.410574
 20
240.867115
 11
30.410566
 21
227.267154
  0
LINE
  5
151
100
AcDbEntity
  8
M0
100
AcDbLine
 10
30.057155
 20
224.653007
 11
31.824826
 21
226.420705
  0
LINE
  5
152
100
AcDbEntity
  8
M0
100
AcDbLine
 10
28.996548
 20
225.713675
 11
30.764173
 21
227.481251
  0
LINE
  5
153
100
AcDbEntity
  8
M0
100
AcDbLine
 10
28.819792
 20
227.65801
 11
32.001597
 21
224.476248
  0
LINE
  5
154
100
AcDbEntity
  8
M0
  6
DASHDOT
100
AcDbLine
 10
30.41057
 20
233.622745
 11
30.41056
 21
218.51165
  0
LINE
  5
155
100
AcDbEntity
  8
M0
  6
DASHDOT
100
AcDbLine
 10
37.96612
 20
226.067185
 11
22.855025
 21
226.067195
  0
CIRCLE
  5
156
100
AcDbEntity
  8
M0
100
AcDbCircle
 10
30.410565
 20
226.06719
 40
3.499998
  0
LINE
  5
157
100
AcDbEntity
  8
M0
100
AcDbLine
 10
32.660565
 20
222.76
 11
32.660565
 21
221.567541
  0
LINE
  5
158
100
AcDbEntity
  8
M0
100
AcDbLine
 10
28.160565
 20
222.76
 11
28.160565
 21
221.567541
  0
LINE
  5
159
100
AcDbEntity
  8
M0
100
AcDbLine
 10
202.020607
 20
229.769783
 11
201.369071
 21
231.304747
  0
LINE
  5
15A
100
AcDbEntity
  8
M0
100
AcDbLine
 10
202.020574
 20
229.769782
 11
197.32613
 21
227.777082
  0
LINE
  5
15B
100
AcDbEntity
  8
M0
100
AcDbLine
 10
201.825179
 20
230.230027
 11
197.130737
 21
228.237321
  0
LINE
  5
15C
100
AcDbEntity
  8
M0
 62
     4
100
AcDbLine
 10
24.412518
 20
221.567556
 11
36.412518
 21
221.567556
  0
LINE
  5
15D
100
AcDbEntity
  8
M0
 62
     4
100
AcDbLine
 10
66.912518
 20
225.567541
 11
66.912518
 21
254.067556
  0
LINE
  5
15E
100
AcDbEntity
  8
M0
 62
     4
100
AcDbLine
 10
23.912518
 20
254.067556
 11
23.912518
 21
222.067556
  0
LINE
  5
15F
100
AcDbEntity
  8
M0
  6
DASHDOT
 62
     4
100
AcDbLine
 10
45.412518
 20
219.283376
 11
45.412518
 21
254.067556
  0
LINE
  5
160
100
AcDbEntity
  8
M0
 62
     4
100
AcDbLine
 10
26.462506
 20
239.567556
 11
34.362515
 21
239.567556
  0
LINE
  5
161
100
AcDbEntity
  8
M0
 62
     4
100
AcDbLine
 10
26.462506
 20
248.267553
 11
34.362515
 21
248.267553
  0
LINE
  5
162
100
AcDbEntity
  8
M0
 62
     4
100
AcDbLine
 10
64.362515
 20
248.267553
 11
64.362515
 21
225.567556
  0
LINE
  5
163
100
AcDbEntity
  8
M0
 62
     4
100
AcDbLine
 10
56.462506
 20
248.267553
 11
56.462506
 21
223.567556
  0
LINE
  5
164
100
AcDbEntity
  8
M0
 62
     4
100
AcDbLine
 10
54.362515
 20
248.267553
 11
54.362515
 21
223.567556
  0
LINE
  5
165
100
AcDbEntity
  8
M0
 62
     4
100
AcDbLine
 10
46.462506
 20
248.267553
 11
46.462506
 21
223.567556
  0
LINE
  5
166
100
AcDbEntity
  8
M0
 62
     4
100
AcDbLine
 10
44.362515
 20
248.267553
 11
44.362515
 21
223.567556
  0
LINE
  5
167
100
AcDbEntity
  8
M0
 62
     4
100
AcDbLine
 10
36.462506
 20
248.267553
 11
36.462506
 21
223.567556
  0
LINE
  5
168
100
AcDbEntity
  8
M0
 62
     4
100
AcDbLine
 10
34.362515
 20
248.267553
 11
34.362515
 21
222.067556
  0
LINE
  5
169
100
AcDbEntity
  8
M0
 62
     4
100
AcDbLine
 10
26.462506
 20
248.267553
 11
26.462506
 21
224.567556
  0
LINE
  5
16A
100
AcDbEntity
  8
M0
 62
     4
100
AcDbLine
 10
36.462506
 20
248.267553
 11
44.362515
 21
248.267553
  0
LINE
  5
16B
100
AcDbEntity
  8
M0
 62
     4
100
AcDbLine
 10
56.462506
 20
248.267553
 11
64.362515
 21
248.267553
  0
LINE
  5
16C
100
AcDbEntity
  8
M0
 62
     4
100
AcDbLine
 10
46.462506
 20
248.267553
 11
54.362515
 21
248.267553
  0
LINE
  5
16D
100
AcDbEntity
  8
M0
 62
     4
100
AcDbLine
 10
26.462506
 20
229.567556
 11
34.362515
 21
229.567556
  0
LINE
  5
16E
100
AcDbEntity
  8
M0
 62
     4
100
AcDbLine
 10
56.462506
 20
229.567556
 11
64.362515
 21
229.567556
  0
LINE
  5
16F
100
AcDbEntity
  8
M0
 62
     4
100
AcDbLine
 10
46.462506
 20
229.567556
 11
54.362515
 21
229.567556
  0
LINE
  5
170
100
AcDbEntity
  8
M0
 62
     4
100
AcDbLine
 10
46.462506
 20
239.567556
 11
54.362515
 21
239.567556
  0
LINE
  5
171
100
AcDbEntity
  8
M0
 62
     4
100
AcDbLine
 10
36.462506
 20
229.567556
 11
44.362515
 21
229.567556
  0
LINE
  5
172
100
AcDbEntity
  8
M0
 62
     4
100
AcDbLine
 10
36.462506
 20
239.567556
 11
44.362515
 21
239.567556
  0
LINE
  5
173
100
AcDbEntity
  8
M0
 62
     4
100
AcDbLine
 10
24.412518
 20
234.067556
 11
25.962506
 21
234.067556
  0
LINE
  5
174
100
AcDbEntity
  8
M0
 62
     4
100
AcDbLine
 10
34.862515
 20
233.067556
 11
35.962506
 21
233.067556
  0
LINE
  5
175
100
AcDbEntity
  8
M0
 62
     4
100
AcDbLine
 10
44.862515
 20
233.067556
 11
45.962506
 21
233.067556
  0
LINE
  5
176
100
AcDbEntity
  8
M0
 62
     4
100
AcDbLine
 10
54.862515
 20
233.067556
 11
55.962506
 21
233.067556
  0
LINE
  5
177
100
AcDbEntity
  8
M0
 62
     4
100
AcDbLine
 10
64.862515
 20
233.067556
 11
66.412518
 21
233.067556
  0
LINE
  5
178
100
AcDbEntity
  8
M0
 62
     4
100
AcDbLine
 10
56.462506
 20
239.567556
 11
64.362515
 21
239.567556
  0
ARC
  5
179
100
AcDbEntity
  8
M0
 62
     4
100
AcDbCircle
 10
24.412518
 20
234.567556
 40
0.5
100
AcDbArc
 50
180.0
 51
270.0
  0
ARC
  5
17A
100
AcDbEntity
  8
M0
 62
     4
100
AcDbCircle
 10
25.962506
 20
234.567556
 40
0.5
100
AcDbArc
 50
270.0
 51
360.0
  0
ARC
  5
17B
100
AcDbEntity
  8
M0
 62
     4
100
AcDbCircle
 10
34.862515
 20
233.567556
 40
0.5
100
AcDbArc
 50
180.0
 51
270.0
  0
ARC
  5
17C
100
AcDbEntity
  8
M0
 62
     4
100
AcDbCircle
 10
44.862515
 20
233.567556
 40
0.5
100
AcDbArc
 50
180.0
 51
269.998251
  0
ARC
  5
17D
100
AcDbEntity
  8
M0
 62
     4
100
AcDbCircle
 10
54.862515
 20
233.567556
 40
0.5
100
AcDbArc
 50
180.0
 51
269.998251
  0
ARC
  5
17E
100
AcDbEntity
  8
M0
 62
     4
100
AcDbCircle
 10
64.862515
 20
233.567556
 40
0.5
100
AcDbArc
 50
180.0
 51
269.998251
  0
ARC
  5
17F
100
AcDbEntity
  8
M0
 62
     4
100
AcDbCircle
 10
35.962506
 20
233.567556
 40
0.5
100
AcDbArc
 50
270.0
 51
360.0
  0
ARC
  5
180
100
AcDbEntity
  8
M0
 62
     4
100
AcDbCircle
 10
45.962506
 20
233.567556
 40
0.5
100
AcDbArc
 50
269.998251
 51
360.0
  0
ARC
  5
181
100
AcDbEntity
  8
M0
 62
     4
100
AcDbCircle
 10
55.962506
 20
233.567556
 40
0.5
100
AcDbArc
 50
269.998251
 51
360.0
  0
ARC
  5
182
100
AcDbEntity
  8
M0
 62
     4
100
AcDbCircle
 10
66.412518
 20
233.567556
 40
0.5
100
AcDbArc
 50
269.998251
 51
360.0
  0
LINE
  5
183
100
AcDbEntity
  8
M0
 62
     4
100
AcDbLine
 10
24.412518
 20
224.067556
 11
25.962506
 21
224.067556
  0
ARC
  5
184
100
AcDbEntity
  8
M0
 62
     4
100
AcDbCircle
 10
24.412518
 20
224.567556
 40
0.5
100
AcDbArc
 50
180.0
 51
270.0
  0
ARC
  5
185
100
AcDbEntity
  8
M0
 62
     4
100
AcDbCircle
 10
25.962506
 20
224.567556
 40
0.5
100
AcDbArc
 50
270.0
 51
360.0
  0
ARC
  5
186
100
AcDbEntity
  8
M0
 62
     4
100
AcDbCircle
 10
24.412518
 20
222.067556
 40
0.5
100
AcDbArc
 50
179.999966
 51
270.0
  0
LINE
  5
187
100
AcDbEntity
  8
M0
 62
     4
100
AcDbLine
 10
64.862515
 20
225.067556
 11
66.412518
 21
225.067556
  0
LINE
  5
188
100
AcDbEntity
  8
M0
 62
     4
100
AcDbLine
 10
54.862515
 20
223.067556
 11
55.962506
 21
223.067556
  0
LINE
  5
189
100
AcDbEntity
  8
M0
 62
     4
100
AcDbLine
 10
44.862515
 20
223.067556
 11
45.962506
 21
223.067556
  0
LINE
  5
18A
100
AcDbEntity
  8
M0
 62
     4
100
AcDbLine
 10
34.862515
 20
223.067556
 11
35.962506
 21
223.067556
  0
LINE
  5
18B
100
AcDbEntity
  8
M0
 62
     4
100
AcDbLine
 10
36.912518
 20
229.567556
 11
36.912518
 21
222.067556
  0
ARC
  5
18C
100
AcDbEntity
  8
M0
 62
     4
100
AcDbCircle
 10
64.862515
 20
225.567556
 40
0.5
100
AcDbArc
 50
180.0
 51
269.998251
  0
ARC
  5
18D
100
AcDbEntity
  8
M0
 62
     4
100
AcDbCircle
 10
66.412518
 20
225.567556
 40
0.5
100
AcDbArc
 50
269.998251
 51
360.0
  0
ARC
  5
18E
100
AcDbEntity
  8
M0
 62
     4
100
AcDbCircle
 10
54.862515
 20
223.567556
 40
0.5
100
AcDbArc
 50
180.0
 51
269.998251
  0
ARC
  5
18F
100
AcDbEntity
  8
M0
 62
     4
100
AcDbCircle
 10
55.962506
 20
223.567556
 40
0.5
100
AcDbArc
 50
269.998251
 51
360.0
  0
ARC
  5
190
100
AcDbEntity
  8
M0
 62
     4
100
AcDbCircle
 10
44.862515
 20
223.567556
 40
0.5
100
AcDbArc
 50
180.0
 51
269.998251
  0
ARC
  5
191
100
AcDbEntity
  8
M0
 62
     4
100
AcDbCircle
 10
45.962506
 20
223.567556
 40
0.5
100
AcDbArc
 50
269.998251
 51
360.0
  0
ARC
  5
192
100
AcDbEntity
  8
M0
 62
     4
100
AcDbCircle
 10
34.862515
 20
223.567556
 40
0.5
100
AcDbArc
 50
180.0
 51
270.0
  0
ARC
  5
193
100
AcDbEntity
  8
M0
 62
     4
100
AcDbCircle
 10
35.962506
 20
223.567556
 40
0.5
100
AcDbArc
 50
270.0
 51
360.0
  0
ARC
  5
194
100
AcDbEntity
  8
M0
 62
     4
100
AcDbCircle
 10
34.862515
 20
222.067556
 40
0.5
100
AcDbArc
 50
179.999966
 51
270.0
  0
ARC
  5
195
100
AcDbEntity
  8
M0
 62
     4
100
AcDbCircle
 10
36.412518
 20
222.067556
 40
0.5
100
AcDbArc
 50
270.0
 51
360.0
  0
LINE
  5
196
100
AcDbEntity
  8
M0
  6
DASHDOT
 62
     4
100
AcDbLine
 10
58.326443
 20
243.767553
 11
62.732541
 21
243.767553
  0
LINE
  5
197
100
AcDbEntity
  8
M0
  6
DASHDOT
 62
     4
100
AcDbLine
 10
47.751767
 20
243.767553
 11
52.814801
 21
243.767553
  0
LINE
  5
198
100
AcDbEntity
  8
M0
  6
DASHDOT
 62
     4
100
AcDbLine
 10
38.266629
 20
243.767553
 11
42.608639
 21
243.767553
  0
LINE
  5
199
100
AcDbEntity
  8
M0
  6
DASHDOT
 62
     4
100
AcDbLine
 10
28.461041
 20
243.767553
 11
32.803036
 21
243.767553
  0
LINE
  5
19A
100
AcDbEntity
  8
M0
  6
DASHDOT
 62
     4
100
AcDbLine
 10
58.166226
 20
234.267553
 11
62.812649
 21
234.267553
  0
LINE
  5
19B
100
AcDbEntity
  8
M0
  6
DASHDOT
 62
     4
100
AcDbLine
 10
48.248471
 20
234.267553
 11
52.446271
 21
234.267553
  0
LINE
  5
19C
100
AcDbEntity
  8
M0
  6
DASHDOT
 62
     4
100
AcDbLine
 10
38.170499
 20
234.267553
 11
42.832944
 21
234.267553
  0
LINE
  5
19D
100
AcDbEntity
  8
M0
  6
DASHDOT
 62
     4
100
AcDbLine
 10
28.028424
 20
234.267553
 11
33.171567
 21
234.267553
  0
LINE
  5
19E
100
AcDbEntity
  8
M0
 62
     4
100
AcDbLine
 10
66.412518
 20
286.567419
 11
54.412518
 21
286.567419
  0
LINE
  5
19F
100
AcDbEntity
  8
M0
 62
     4
100
AcDbLine
 10
23.912518
 20
282.567419
 11
23.912518
 21
254.067449
  0
LINE
  5
1A0
100
AcDbEntity
  8
M0
 62
     4
100
AcDbLine
 10
66.912488
 20
254.067419
 11
66.912503
 21
286.067419
  0
LINE
  5
1A1
100
AcDbEntity
  8
M0
 62
     4
100
AcDbLine
 10
64.362515
 20
268.567449
 11
56.462506
 21
268.567449
  0
LINE
  5
1A2
100
AcDbEntity
  8
M0
 62
     4
100
AcDbLine
 10
64.362515
 20
259.867452
 11
56.462506
 21
259.867452
  0
LINE
  5
1A3
100
AcDbEntity
  8
M0
 62
     4
100
AcDbLine
 10
26.462521
 20
259.867452
 11
26.462521
 21
282.567419
  0
LINE
  5
1A4
100
AcDbEntity
  8
M0
 62
     4
100
AcDbLine
 10
34.36253
 20
259.867452
 11
34.36253
 21
284.567419
  0
LINE
  5
1A5
100
AcDbEntity
  8
M0
 62
     4
100
AcDbLine
 10
36.462521
 20
259.867452
 11
36.462521
 21
284.567419
  0
LINE
  5
1A6
100
AcDbEntity
  8
M0
 62
     4
100
AcDbLine
 10
44.36253
 20
259.867452
 11
44.36253
 21
284.567419
  0
LINE
  5
1A7
100
AcDbEntity
  8
M0
 62
     4
100
AcDbLine
 10
46.462521
 20
259.867452
 11
46.462521
 21
284.567419
  0
LINE
  5
1A8
100
AcDbEntity
  8
M0
 62
     4
100
AcDbLine
 10
54.362515
 20
259.867452
 11
54.36253
 21
284.567419
  0
LINE
  5
1A9
100
AcDbEntity
  8
M0
 62
     4
100
AcDbLine
 10
56.462506
 20
259.867452
 11
56.462521
 21
286.067419
  0
LINE
  5
1AA
100
AcDbEntity
  8
M0
 62
     4
100
AcDbLine
 10
64.362515
 20
259.867452
 11
64.36253
 21
283.567419
  0
LINE
  5
1AB
100
AcDbEntity
  8
M0
 62
     4
100
AcDbLine
 10
54.362515
 20
259.867452
 11
46.462521
 21
259.867452
  0
LINE
  5
1AC
100
AcDbEntity
  8
M0
 62
     4
100
AcDbLine
 10
34.36253
 20
259.867452
 11
26.462521
 21
259.867452
  0
LINE
  5
1AD
100
AcDbEntity
  8
M0
 62
     4
100
AcDbLine
 10
44.36253
 20
259.867452
 11
36.462521
 21
259.867452
  0
LINE
  5
1AE
100
AcDbEntity
  8
M0
 62
     4
100
AcDbLine
 10
64.362515
 20
278.567419
 11
56.462506
 21
278.567419
  0
LINE
  5
1AF
100
AcDbEntity
  8
M0
 62
     4
100
AcDbLine
 10
34.36253
 20
278.567419
 11
26.462521
 21
278.567419
  0
LINE
  5
1B0
100
AcDbEntity
  8
M0
 62
     4
100
AcDbLine
 10
44.36253
 20
278.567419
 11
36.462521
 21
278.567419
  0
LINE
  5
1B1
100
AcDbEntity
  8
M0
 62
     4
100
AcDbLine
 10
44.36253
 20
268.567449
 11
36.462521
 21
268.567449
  0
LINE
  5
1B2
100
AcDbEntity
  8
M0
 62
     4
100
AcDbLine
 10
54.362515
 20
278.567419
 11
46.462521
 21
278.567419
  0
LINE
  5
1B3
100
AcDbEntity
  8
M0
 62
     4
100
AcDbLine
 10
54.362515
 20
268.567449
 11
46.462521
 21
268.567449
  0
LINE
  5
1B4
100
AcDbEntity
  8
M0
 62
     4
100
AcDbLine
 10
66.412503
 20
274.067419
 11
64.862515
 21
274.067419
  0
LINE
  5
1B5
100
AcDbEntity
  8
M0
 62
     4
100
AcDbLine
 10
55.962506
 20
275.067419
 11
54.862515
 21
275.067419
  0
LINE
  5
1B6
100
AcDbEntity
  8
M0
 62
     4
100
AcDbLine
 10
45.962521
 20
275.067419
 11
44.86253
 21
275.067419
  0
LINE
  5
1B7
100
AcDbEntity
  8
M0
 62
     4
100
AcDbLine
 10
35.962521
 20
275.067419
 11
34.86253
 21
275.067419
  0
LINE
  5
1B8
100
AcDbEntity
  8
M0
 62
     4
100
AcDbLine
 10
25.962521
 20
275.067419
 11
24.412518
 21
275.067419
  0
LINE
  5
1B9
100
AcDbEntity
  8
M0
 62
     4
100
AcDbLine
 10
34.36253
 20
268.567449
 11
26.462521
 21
268.567449
  0
ARC
  5
1BA
100
AcDbEntity
  8
M0
 62
     4
100
AcDbCircle
 10
66.412503
 20
273.567419
 40
0.5
100
AcDbArc
 50
0.0
 51
90.0
  0
ARC
  5
1BB
100
AcDbEntity
  8
M0
 62
     4
100
AcDbCircle
 10
64.862515
 20
273.567419
 40
0.5
100
AcDbArc
 50
90.0
 51
180.0
  0
ARC
  5
1BC
100
AcDbEntity
  8
M0
 62
     4
100
AcDbCircle
 10
55.962506
 20
274.567419
 40
0.5
100
AcDbArc
 50
0.0
 51
90.0
  0
ARC
  5
1BD
100
AcDbEntity
  8
M0
 62
     4
100
AcDbCircle
 10
45.962521
 20
274.567419
 40
0.5
100
AcDbArc
 50
0.0
 51
90.0
  0
ARC
  5
1BE
100
AcDbEntity
  8
M0
 62
     4
100
AcDbCircle
 10
35.962521
 20
274.567419
 40
0.5
100
AcDbArc
 50
0.0
 51
90.0
  0
ARC
  5
1BF
100
AcDbEntity
  8
M0
 62
     4
100
AcDbCircle
 10
25.962521
 20
274.567419
 40
0.5
100
AcDbArc
 50
0.0
 51
90.0
  0
ARC
  5
1C0
100
AcDbEntity
  8
M0
 62
     4
100
AcDbCircle
 10
54.862515
 20
274.567419
 40
0.5
100
AcDbArc
 50
90.0
 51
180.0
  0
ARC
  5
1C1
100
AcDbEntity
  8
M0
 62
     4
100
AcDbCircle
 10
44.86253
 20
274.567419
 40
0.5
100
AcDbArc
 50
90.0
 51
180.0
  0
ARC
  5
1C2
100
AcDbEntity
  8
M0
 62
     4
100
AcDbCircle
 10
34.86253
 20
274.567419
 40
0.5
100
AcDbArc
 50
90.0
 51
180.0
  0
ARC
  5
1C3
100
AcDbEntity
  8
M0
 62
     4
100
AcDbCircle
 10
24.412518
 20
274.567419
 40
0.5
100
AcDbArc
 50
90.0
 51
180.0
  0
LINE
  5
1C4
100
AcDbEntity
  8
M0
 62
     4
100
AcDbLine
 10
66.412503
 20
284.067419
 11
64.86253
 21
284.067419
  0
ARC
  5
1C5
100
AcDbEntity
  8
M0
 62
     4
100
AcDbCircle
 10
66.412503
 20
283.567419
 40
0.5
100
AcDbArc
 50
0.0
 51
90.0
  0
ARC
  5
1C6
100
AcDbEntity
  8
M0
 62
     4
100
AcDbCircle
 10
64.86253
 20
283.567419
 40
0.5
100
AcDbArc
 50
90.0
 51
180.0
  0
ARC
  5
1C7
100
AcDbEntity
  8
M0
 62
     4
100
AcDbCircle
 10
66.412518
 20
286.067419
 40
0.5
100
AcDbArc
 50
0.0
 51
90.0
  0
LINE
  5
1C8
100
AcDbEntity
  8
M0
 62
     4
100
AcDbLine
 10
25.962521
 20
283.067419
 11
24.412518
 21
283.067419
  0
LINE
  5
1C9
100
AcDbEntity
  8
M0
 62
     4
100
AcDbLine
 10
35.962521
 20
285.067419
 11
34.86253
 21
285.067419
  0
LINE
  5
1CA
100
AcDbEntity
  8
M0
 62
     4
100
AcDbLine
 10
45.962521
 20
285.067419
 11
44.86253
 21
285.067419
  0
LINE
  5
1CB
100
AcDbEntity
  8
M0
 62
     4
100
AcDbLine
 10
55.962521
 20
285.067419
 11
54.86253
 21
285.067419
  0
LINE
  5
1CC
100
AcDbEntity
  8
M0
 62
     4
100
AcDbLine
 10
53.912503
 20
278.567419
 11
53.912518
 21
286.067419
  0
ARC
  5
1CD
100
AcDbEntity
  8
M0
 62
     4
100
AcDbCircle
 10
25.962521
 20
282.567419
 40
0.5
100
AcDbArc
 50
0.0
 51
90.0
  0
ARC
  5
1CE
100
AcDbEntity
  8
M0
 62
     4
100
AcDbCircle
 10
24.412518
 20
282.567419
 40
0.5
100
AcDbArc
 50
90.0
 51
180.0
  0
ARC
  5
1CF
100
AcDbEntity
  8
M0
 62
     4
100
AcDbCircle
 10
35.962521
 20
284.567419
 40
0.5
100
AcDbArc
 50
0.0
 51
90.0
  0
ARC
  5
1D0
100
AcDbEntity
  8
M0
 62
     4
100
AcDbCircle
 10
34.86253
 20
284.567419
 40
0.5
100
AcDbArc
 50
90.0
 51
180.0
  0
ARC
  5
1D1
100
AcDbEntity
  8
M0
 62
     4
100
AcDbCircle
 10
45.962521
 20
284.567419
 40
0.5
100
AcDbArc
 50
0.0
 51
90.0
  0
ARC
  5
1D2
100
AcDbEntity
  8
M0
 62
     4
100
AcDbCircle
 10
44.86253
 20
284.567419
 40
0.5
100
AcDbArc
 50
90.0
 51
180.0
  0
ARC
  5
1D3
100
AcDbEntity
  8
M0
 62
     4
100
AcDbCircle
 10
55.962521
 20
284.567419
 40
0.5
100
AcDbArc
 50
0.0
 51
90.0
  0
ARC
  5
1D4
100
AcDbEntity
  8
M0
 62
     4
100
AcDbCircle
 10
54.86253
 20
284.567419
 40
0.5
100
AcDbArc
 50
90.0
 51
180.0
  0
ARC
  5
1D5
100
AcDbEntity
  8
M0
 62
     4
100
AcDbCircle
 10
55.962521
 20
286.067419
 40
0.5
100
AcDbArc
 50
0.0
 51
90.0
  0
ARC
  5
1D6
100
AcDbEntity
  8
M0
 62
     4
100
AcDbCircle
 10
54.412518
 20
286.067419
 40
0.5
100
AcDbArc
 50
90.0
 51
180.0
  0
LINE
  5
1D7
100
AcDbEntity
  8
M0
  6
DASHDOT
 62
     4
100
AcDbLine
 10
32.498593
 20
264.367452
 11
28.092496
 21
264.367452
  0
LINE
  5
1D8
100
AcDbEntity
  8
M0
  6
DASHDOT
 62
     4
100
AcDbLine
 10
43.07327
 20
264.367452
 11
38.010235
 21
264.367452
  0
LINE
  5
1D9
100
AcDbEntity
  8
M0
  6
DASHDOT
 62
     4
100
AcDbLine
 10
52.558392
 20
264.367452
 11
48.216397
 21
264.367452
  0
LINE
  5
1DA
100
AcDbEntity
  8
M0
  6
DASHDOT
 62
     4
100
AcDbLine
 10
62.36398
 20
264.367452
 11
58.021985
 21
264.367452
  0
LINE
  5
1DB
100
AcDbEntity
  8
M0
  6
DASHDOT
 62
     4
100
AcDbLine
 10
32.65881
 20
273.867224
 11
28.012387
 21
273.867224
  0
LINE
  5
1DC
100
AcDbEntity
  8
M0
  6
DASHDOT
 62
     4
100
AcDbLine
 10
42.576565
 20
273.867224
 11
38.378766
 21
273.867224
  0
LINE
  5
1DD
100
AcDbEntity
  8
M0
  6
DASHDOT
 62
     4
100
AcDbLine
 10
52.654523
 20
273.867224
 11
47.992093
 21
273.867224
  0
LINE
  5
1DE
100
AcDbEntity
  8
M0
  6
DASHDOT
 62
     4
100
AcDbLine
 10
62.796597
 20
273.867224
 11
57.653454
 21
273.867224
  0
LINE
  5
1DF
100
AcDbEntity
  8
M0
 62
     4
100
AcDbLine
 10
48.412549
 20
251.567404
 11
46.912518
 21
251.567404
  0
LINE
  5
1E0
100
AcDbEntity
  8
M0
 62
     4
100
AcDbLine
 10
48.412549
 20
257.167394
 11
46.912518
 21
257.167394
  0
LINE
  5
1E1
100
AcDbEntity
  8
M0
 62
     4
100
AcDbLine
 10
41.912549
 20
256.667364
 11
41.912549
 21
252.067373
  0
LINE
  5
1E2
100
AcDbEntity
  8
M0
 62
     4
100
AcDbLine
 10
48.912549
 20
256.667379
 11
48.912549
 21
252.067388
  0
LINE
  5
1E3
100
AcDbEntity
  8
M0
 62
     4
100
AcDbLine
 10
45.912518
 20
255.667394
 11
44.912549
 21
255.667394
  0
LINE
  5
1E4
100
AcDbEntity
  8
M0
 62
     4
100
AcDbLine
 10
45.912518
 20
252.467397
 11
44.912518
 21
252.467397
  0
LINE
  5
1E5
100
AcDbEntity
  8
M0
 62
     4
100
AcDbLine
 10
46.412518
 20
256.667379
 11
46.412518
 21
256.167379
  0
LINE
  5
1E6
100
AcDbEntity
  8
M0
 62
     4
100
AcDbLine
 10
44.412549
 20
256.667364
 11
44.412549
 21
256.167379
  0
LINE
  5
1E7
100
AcDbEntity
  8
M0
 62
     4
100
AcDbLine
 10
46.412518
 20
251.967382
 11
46.412518
 21
252.067388
  0
LINE
  5
1E8
100
AcDbEntity
  8
M0
 62
     4
100
AcDbLine
 10
44.412518
 20
251.967382
 11
44.412518
 21
252.067373
  0
LINE
  5
1E9
100
AcDbEntity
  8
M0
 62
     4
100
AcDbLine
 10
43.912518
 20
251.567388
 11
42.412549
 21
251.567388
  0
LINE
  5
1EA
100
AcDbEntity
  8
M0
 62
     4
100
AcDbLine
 10
43.912549
 20
257.167379
 11
42.412549
 21
257.167379
  0
ARC
  5
1EB
100
AcDbEntity
  8
M0
 62
     4
100
AcDbCircle
 10
44.912549
 20
256.167379
 40
0.5
100
AcDbArc
 50
180.0
 51
269.998251
  0
ARC
  5
1EC
100
AcDbEntity
  8
M0
 62
     4
100
AcDbCircle
 10
45.912518
 20
256.167379
 40
0.5
100
AcDbArc
 50
269.998251
 51
360.0
  0
ARC
  5
1ED
100
AcDbEntity
  8
M0
 62
     4
100
AcDbCircle
 10
46.912518
 20
256.667379
 40
0.5
100
AcDbArc
 50
90.0
 51
180.0
  0
ARC
  5
1EE
100
AcDbEntity
  8
M0
 62
     4
100
AcDbCircle
 10
43.912549
 20
256.667364
 40
0.5
100
AcDbArc
 50
0.0
 51
90.0
  0
ARC
  5
1EF
100
AcDbEntity
  8
M0
 62
     4
100
AcDbCircle
 10
46.912518
 20
252.067388
 40
0.5
100
AcDbArc
 50
180.0
 51
269.998251
  0
ARC
  5
1F0
100
AcDbEntity
  8
M0
 62
     4
100
AcDbCircle
 10
43.912518
 20
252.067373
 40
0.5
100
AcDbArc
 50
269.998251
 51
360.0
  0
ARC
  5
1F1
100
AcDbEntity
  8
M0
 62
     4
100
AcDbCircle
 10
45.912518
 20
251.967382
 40
0.5
100
AcDbArc
 50
0.0
 51
90.0
  0
ARC
  5
1F2
100
AcDbEntity
  8
M0
 62
     4
100
AcDbCircle
 10
44.912518
 20
251.967382
 40
0.5
100
AcDbArc
 50
90.0
 51
180.0
  0
ARC
  5
1F3
100
AcDbEntity
  8
M0
 62
     4
100
AcDbCircle
 10
48.412549
 20
256.667379
 40
0.5
100
AcDbArc
 50
0.0
 51
90.0
  0
ARC
  5
1F4
100
AcDbEntity
  8
M0
 62
     4
100
AcDbCircle
 10
42.412549
 20
256.667364
 40
0.5
100
AcDbArc
 50
90.0
 51
180.0
  0
ARC
  5
1F5
100
AcDbEntity
  8
M0
 62
     4
100
AcDbCircle
 10
42.412549
 20
252.067373
 40
0.5
100
AcDbArc
 50
180.0
 51
269.998251
  0
ARC
  5
1F6
100
AcDbEntity
  8
M0
 62
     4
100
AcDbCircle
 10
48.412549
 20
252.067388
 40
0.5
100
AcDbArc
 50
269.998251
 51
360.0
  0
LINE
  5
1F7
100
AcDbEntity
  8
M0
 62
     4
100
AcDbLine
 10
46.912518
 20
286.566976
 11
46.462323
 21
284.316
  0
LINE
  5
1F8
100
AcDbEntity
  8
M0
 62
     4
100
AcDbLine
 10
43.913006
 20
221.567861
 11
44.363202
 21
223.818838
  0
CIRCLE
  5
1F9
100
AcDbEntity
  8
M0
 62
     6
100
AcDbCircle
 10
60.412518
 20
234.267553
 40
3.0
  0
LINE
  5
1FA
100
AcDbEntity
  8
M0
 62
     6
100
AcDbLine
 10
57.453763
 20
238.214895
 11
56.637509
 21
235.567602
  0
LINE
  5
1FB
100
AcDbEntity
  8
M0
 62
     6
100
AcDbLine
 10
57.453763
 20
230.320303
 11
56.637509
 21
232.967626
  0
LINE
  5
1FC
100
AcDbEntity
  8
M0
 62
     6
100
AcDbLine
 10
63.371243
 20
238.21491
 11
64.187512
 21
235.567602
  0
LINE
  5
1FD
100
AcDbEntity
  8
M0
 62
     6
100
AcDbLine
 10
63.371243
 20
230.320287
 11
64.187512
 21
232.967626
  0
LINE
  5
1FE
100
AcDbEntity
  8
M0
 62
     6
100
AcDbLine
 10
57.931561
 20
229.967626
 11
62.893429
 21
229.967626
  0
LINE
  5
1FF
100
AcDbEntity
  8
M0
 62
     6
100
AcDbLine
 10
64.187512
 20
232.967626
 11
64.187512
 21
235.567602
  0
LINE
  5
200
100
AcDbEntity
  8
M0
 62
     6
100
AcDbLine
 10
62.893429
 20
238.567602
 11
57.931561
 21
238.567587
  0
LINE
  5
201
100
AcDbEntity
  8
M0
 62
     6
100
AcDbLine
 10
56.637509
 20
235.567602
 11
56.637509
 21
232.967626
  0
LINE
  5
202
100
AcDbEntity
  8
M0
  6
DASHDOT
 62
     6
100
AcDbLine
 10
54.137509
 20
234.267553
 11
66.687512
 21
234.267553
  0
LINE
  5
203
100
AcDbEntity
  8
M0
  6
DASHDOT
 62
     6
100
AcDbLine
 10
60.412518
 20
227.467642
 11
60.412518
 21
241.067602
  0
LINE
  5
204
100
AcDbEntity
  8
M0
 62
     6
100
AcDbLine
 10
62.003293
 20
232.676733
 11
58.821484
 21
235.858495
  0
LINE
  5
205
100
AcDbEntity
  8
M0
 62
     6
100
AcDbLine
 10
60.765927
 20
235.681738
 11
58.998257
 21
233.914037
  0
LINE
  5
206
100
AcDbEntity
  8
M0
 62
     6
100
AcDbLine
 10
61.826535
 20
234.621069
 11
60.058911
 21
232.853491
  0
ARC
  5
207
100
AcDbEntity
  8
M0
 62
     6
100
AcDbCircle
 10
57.931561
 20
238.067587
 40
0.5
100
AcDbArc
 50
90.0
 51
162.865663
  0
ARC
  5
208
100
AcDbEntity
  8
M0
 62
     6
100
AcDbCircle
 10
57.931561
 20
230.467626
 40
0.5
100
AcDbArc
 50
197.137551
 51
270.0
  0
ARC
  5
209
100
AcDbEntity
  8
M0
 62
     6
100
AcDbCircle
 10
62.893429
 20
230.467626
 40
0.5
100
AcDbArc
 50
270.0
 51
342.861653
  0
ARC
  5
20A
100
AcDbEntity
  8
M0
 62
     6
100
AcDbCircle
 10
62.893429
 20
238.067587
 40
0.5
100
AcDbArc
 50
17.134787
 51
90.0
  0
CIRCLE
  5
20B
100
AcDbEntity
  8
M0
 62
     6
100
AcDbCircle
 10
60.412518
 20
243.767553
 40
3.0
  0
LINE
  5
20C
100
AcDbEntity
  8
M0
 62
     6
100
AcDbLine
 10
57.453763
 20
247.714895
 11
56.637509
 21
245.067602
  0
LINE
  5
20D
100
AcDbEntity
  8
M0
 62
     6
100
AcDbLine
 10
57.453763
 20
239.820303
 11
56.637509
 21
242.467626
  0
LINE
  5
20E
100
AcDbEntity
  8
M0
 62
     6
100
AcDbLine
 10
63.371243
 20
247.71491
 11
64.187512
 21
245.067602
  0
LINE
  5
20F
100
AcDbEntity
  8
M0
 62
     6
100
AcDbLine
 10
63.371243
 20
239.820287
 11
64.187512
 21
242.467626
  0
LINE
  5
210
100
AcDbEntity
  8
M0
 62
     6
100
AcDbLine
 10
64.187512
 20
242.467626
 11
64.187512
 21
245.067602
  0
LINE
  5
211
100
AcDbEntity
  8
M0
 62
     6
100
AcDbLine
 10
62.893429
 20
248.067602
 11
57.931561
 21
248.067587
  0
LINE
  5
212
100
AcDbEntity
  8
M0
 62
     6
100
AcDbLine
 10
56.637509
 20
245.067602
 11
56.637509
 21
242.467626
  0
LINE
  5
213
100
AcDbEntity
  8
M0
  6
DASHDOT
 62
     6
100
AcDbLine
 10
54.137509
 20
243.767553
 11
66.687512
 21
243.767553
  0
LINE
  5
214
100
AcDbEntity
  8
M0
  6
DASHDOT
 62
     6
100
AcDbLine
 10
60.412518
 20
236.967642
 11
60.412518
 21
250.567602
  0
LINE
  5
215
100
AcDbEntity
  8
M0
 62
     6
100
AcDbLine
 10
62.003293
 20
242.176733
 11
58.821484
 21
245.358495
  0
LINE
  5
216
100
AcDbEntity
  8
M0
 62
     6
100
AcDbLine
 10
60.765927
 20
245.181738
 11
58.998257
 21
243.414037
  0
LINE
  5
217
100
AcDbEntity
  8
M0
 62
     6
100
AcDbLine
 10
61.826535
 20
244.121069
 11
60.058911
 21
242.353491
  0
ARC
  5
218
100
AcDbEntity
  8
M0
 62
     6
100
AcDbCircle
 10
57.931561
 20
247.567587
 40
0.5
100
AcDbArc
 50
90.0
 51
162.865663
  0
ARC
  5
219
100
AcDbEntity
  8
M0
 62
     6
100
AcDbCircle
 10
62.893429
 20
247.567587
 40
0.5
100
AcDbArc
 50
17.134787
 51
90.0
  0
CIRCLE
  5
21A
100
AcDbEntity
  8
M0
 62
     6
100
AcDbCircle
 10
50.412518
 20
243.767553
 40
3.0
  0
LINE
  5
21B
100
AcDbEntity
  8
M0
 62
     6
100
AcDbLine
 10
47.453763
 20
247.714895
 11
46.637509
 21
245.067602
  0
LINE
  5
21C
100
AcDbEntity
  8
M0
 62
     6
100
AcDbLine
 10
47.453763
 20
239.820303
 11
46.637509
 21
242.467626
  0
LINE
  5
21D
100
AcDbEntity
  8
M0
 62
     6
100
AcDbLine
 10
53.371243
 20
247.71491
 11
54.187512
 21
245.067602
  0
LINE
  5
21E
100
AcDbEntity
  8
M0
 62
     6
100
AcDbLine
 10
53.371243
 20
239.820287
 11
54.187512
 21
242.467626
  0
LINE
  5
21F
100
AcDbEntity
  8
M0
 62
     6
100
AcDbLine
 10
54.187512
 20
242.467626
 11
54.187512
 21
245.067602
  0
LINE
  5
220
100
AcDbEntity
  8
M0
 62
     6
100
AcDbLine
 10
52.893429
 20
248.067602
 11
47.931561
 21
248.067587
  0
LINE
  5
221
100
AcDbEntity
  8
M0
 62
     6
100
AcDbLine
 10
46.637509
 20
245.067602
 11
46.637509
 21
242.467626
  0
LINE
  5
222
100
AcDbEntity
  8
M0
  6
DASHDOT
 62
     6
100
AcDbLine
 10
44.137509
 20
243.767553
 11
56.687512
 21
243.767553
  0
LINE
  5
223
100
AcDbEntity
  8
M0
  6
DASHDOT
 62
     6
100
AcDbLine
 10
50.412518
 20
236.967642
 11
50.412518
 21
250.567602
  0
LINE
  5
224
100
AcDbEntity
  8
M0
 62
     6
100
AcDbLine
 10
52.003293
 20
242.176733
 11
48.821484
 21
245.358495
  0
LINE
  5
225
100
AcDbEntity
  8
M0
 62
     6
100
AcDbLine
 10
50.765927
 20
245.181738
 11
48.998257
 21
243.414037
  0
LINE
  5
226
100
AcDbEntity
  8
M0
 62
     6
100
AcDbLine
 10
51.826535
 20
244.121069
 11
50.058911
 21
242.353491
  0
ARC
  5
227
100
AcDbEntity
  8
M0
 62
     6
100
AcDbCircle
 10
47.931561
 20
247.567587
 40
0.5
100
AcDbArc
 50
90.0
 51
162.865663
  0
ARC
  5
228
100
AcDbEntity
  8
M0
 62
     6
100
AcDbCircle
 10
52.893429
 20
247.567587
 40
0.5
100
AcDbArc
 50
17.134787
 51
90.0
  0
CIRCLE
  5
229
100
AcDbEntity
  8
M0
 62
     6
100
AcDbCircle
 10
50.412518
 20
234.267553
 40
3.0
  0
LINE
  5
22A
100
AcDbEntity
  8
M0
 62
     6
100
AcDbLine
 10
47.453763
 20
238.214895
 11
46.637509
 21
235.567602
  0
LINE
  5
22B
100
AcDbEntity
  8
M0
 62
     6
100
AcDbLine
 10
47.453763
 20
230.320303
 11
46.637509
 21
232.967626
  0
LINE
  5
22C
100
AcDbEntity
  8
M0
 62
     6
100
AcDbLine
 10
53.371243
 20
238.21491
 11
54.187512
 21
235.567602
  0
LINE
  5
22D
100
AcDbEntity
  8
M0
 62
     6
100
AcDbLine
 10
53.371243
 20
230.320287
 11
54.187512
 21
232.967626
  0
LINE
  5
22E
100
AcDbEntity
  8
M0
 62
     6
100
AcDbLine
 10
47.931561
 20
229.967626
 11
52.893429
 21
229.967626
  0
LINE
  5
22F
100
AcDbEntity
  8
M0
 62
     6
100
AcDbLine
 10
54.187512
 20
232.967626
 11
54.187512
 21
235.567602
  0
LINE
  5
230
100
AcDbEntity
  8
M0
 62
     6
100
AcDbLine
 10
52.893429
 20
238.567602
 11
47.931561
 21
238.567587
  0
LINE
  5
231
100
AcDbEntity
  8
M0
 62
     6
100
AcDbLine
 10
46.637509
 20
235.567602
 11
46.637509
 21
232.967626
  0
LINE
  5
232
100
AcDbEntity
  8
M0
  6
DASHDOT
 62
     6
100
AcDbLine
 10
44.137509
 20
234.267553
 11
56.687512
 21
234.267553
  0
LINE
  5
233
100
AcDbEntity
  8
M0
  6
DASHDOT
 62
     6
100
AcDbLine
 10
50.412518
 20
227.467642
 11
50.412518
 21
241.067602
  0
LINE
  5
234
100
AcDbEntity
  8
M0
 62
     6
100
AcDbLine
 10
52.003293
 20
232.676733
 11
48.821484
 21
235.858495
  0
LINE
  5
235
100
AcDbEntity
  8
M0
 62
     6
100
AcDbLine
 10
50.765927
 20
235.681738
 11
48.998257
 21
233.914037
  0
LINE
  5
236
100
AcDbEntity
  8
M0
 62
     6
100
AcDbLine
 10
51.826535
 20
234.621069
 11
50.058911
 21
232.853491
  0
ARC
  5
237
100
AcDbEntity
  8
M0
 62
     6
100
AcDbCircle
 10
47.931561
 20
238.067587
 40
0.5
100
AcDbArc
 50
90.0
 51
162.865663
  0
ARC
  5
238
100
AcDbEntity
  8
M0
 62
     6
100
AcDbCircle
 10
47.931561
 20
230.467626
 40
0.5
100
AcDbArc
 50
197.137551
 51
270.0
  0
ARC
  5
239
100
AcDbEntity
  8
M0
 62
     6
100
AcDbCircle
 10
52.893429
 20
230.467626
 40
0.5
100
AcDbArc
 50
270.0
 51
342.861653
  0
ARC
  5
23A
100
AcDbEntity
  8
M0
 62
     6
100
AcDbCircle
 10
52.893429
 20
238.067587
 40
0.5
100
AcDbArc
 50
17.134787
 51
90.0
  0
CIRCLE
  5
23B
100
AcDbEntity
  8
M0
 62
     6
100
AcDbCircle
 10
40.412518
 20
243.767553
 40
3.0
  0
LINE
  5
23C
100
AcDbEntity
  8
M0
 62
     6
100
AcDbLine
 10
37.453763
 20
247.714895
 11
36.637509
 21
245.067602
  0
LINE
  5
23D
100
AcDbEntity
  8
M0
 62
     6
100
AcDbLine
 10
37.453763
 20
239.820303
 11
36.637509
 21
242.467626
  0
LINE
  5
23E
100
AcDbEntity
  8
M0
 62
     6
100
AcDbLine
 10
43.371243
 20
247.71491
 11
44.187512
 21
245.067602
  0
LINE
  5
23F
100
AcDbEntity
  8
M0
 62
     6
100
AcDbLine
 10
43.371243
 20
239.820287
 11
44.187512
 21
242.467626
  0
LINE
  5
240
100
AcDbEntity
  8
M0
 62
     6
100
AcDbLine
 10
44.187512
 20
242.467626
 11
44.187512
 21
245.067602
  0
LINE
  5
241
100
AcDbEntity
  8
M0
 62
     6
100
AcDbLine
 10
42.893429
 20
248.067602
 11
37.931561
 21
248.067587
  0
LINE
  5
242
100
AcDbEntity
  8
M0
 62
     6
100
AcDbLine
 10
36.637509
 20
245.067602
 11
36.637509
 21
242.467626
  0
LINE
  5
243
100
AcDbEntity
  8
M0
  6
DASHDOT
 62
     6
100
AcDbLine
 10
34.137509
 20
243.767553
 11
46.687512
 21
243.767553
  0
LINE
  5
244
100
AcDbEntity
  8
M0
  6
DASHDOT
 62
     6
100
AcDbLine
 10
40.412518
 20
236.967642
 11
40.412518
 21
250.567602
  0
LINE
  5
245
100
AcDbEntity
  8
M0
 62
     6
100
AcDbLine
 10
42.003293
 20
242.176733
 11
38.821484
 21
245.358495
  0
LINE
  5
246
100
AcDbEntity
  8
M0
 62
     6
100
AcDbLine
 10
40.765927
 20
245.181738
 11
38.998257
 21
243.414037
  0
LINE
  5
247
100
AcDbEntity
  8
M0
 62
     6
100
AcDbLine
 10
41.826535
 20
244.121069
 11
40.058911
 21
242.353491
  0
ARC
  5
248
100
AcDbEntity
  8
M0
 62
     6
100
AcDbCircle
 10
37.931561
 20
247.567587
 40
0.5
100
AcDbArc
 50
90.0
 51
162.865663
  0
ARC
  5
249
100
AcDbEntity
  8
M0
 62
     6
100
AcDbCircle
 10
42.893429
 20
247.567587
 40
0.5
100
AcDbArc
 50
17.134787
 51
90.0
  0
CIRCLE
  5
24A
100
AcDbEntity
  8
M0
 62
     6
100
AcDbCircle
 10
40.412518
 20
234.267553
 40
3.0
  0
LINE
  5
24B
100
AcDbEntity
  8
M0
 62
     6
100
AcDbLine
 10
37.453763
 20
238.214895
 11
36.637509
 21
235.567602
  0
LINE
  5
24C
100
AcDbEntity
  8
M0
 62
     6
100
AcDbLine
 10
37.453763
 20
230.320303
 11
36.637509
 21
232.967626
  0
LINE
  5
24D
100
AcDbEntity
  8
M0
 62
     6
100
AcDbLine
 10
43.371243
 20
238.21491
 11
44.187512
 21
235.567602
  0
LINE
  5
24E
100
AcDbEntity
  8
M0
 62
     6
100
AcDbLine
 10
43.371243
 20
230.320287
 11
44.187512
 21
232.967626
  0
LINE
  5
24F
100
AcDbEntity
  8
M0
 62
     6
100
AcDbLine
 10
37.931561
 20
229.967626
 11
42.893429
 21
229.967626
  0
LINE
  5
250
100
AcDbEntity
  8
M0
 62
     6
100
AcDbLine
 10
44.187512
 20
232.967626
 11
44.187512
 21
235.567602
  0
LINE
  5
251
100
AcDbEntity
  8
M0
 62
     6
100
AcDbLine
 10
42.893429
 20
238.567602
 11
37.931561
 21
238.567587
  0
LINE
  5
252
100
AcDbEntity
  8
M0
 62
     6
100
AcDbLine
 10
36.637509
 20
235.567602
 11
36.637509
 21
232.967626
  0
LINE
  5
253
100
AcDbEntity
  8
M0
  6
DASHDOT
 62
     6
100
AcDbLine
 10
34.137509
 20
234.267553
 11
46.687512
 21
234.267553
  0
LINE
  5
254
100
AcDbEntity
  8
M0
  6
DASHDOT
 62
     6
100
AcDbLine
 10
40.412518
 20
227.467642
 11
40.412518
 21
241.067602
  0
LINE
  5
255
100
AcDbEntity
  8
M0
 62
     6
100
AcDbLine
 10
42.003293
 20
232.676733
 11
38.821484
 21
235.858495
  0
LINE
  5
256
100
AcDbEntity
  8
M0
 62
     6
100
AcDbLine
 10
40.765927
 20
235.681738
 11
38.998257
 21
233.914037
  0
LINE
  5
257
100
AcDbEntity
  8
M0
 62
     6
100
AcDbLine
 10
41.826535
 20
234.621069
 11
40.058911
 21
232.853491
  0
ARC
  5
258
100
AcDbEntity
  8
M0
 62
     6
100
AcDbCircle
 10
37.931561
 20
238.067587
 40
0.5
100
AcDbArc
 50
90.0
 51
162.865663
  0
ARC
  5
259
100
AcDbEntity
  8
M0
 62
     6
100
AcDbCircle
 10
37.931561
 20
230.467626
 40
0.5
100
AcDbArc
 50
197.137551
 51
270.0
  0
ARC
  5
25A
100
AcDbEntity
  8
M0
 62
     6
100
AcDbCircle
 10
42.893429
 20
230.467626
 40
0.5
100
AcDbArc
 50
270.0
 51
342.861653
  0
ARC
  5
25B
100
AcDbEntity
  8
M0
 62
     6
100
AcDbCircle
 10
42.893429
 20
238.067587
 40
0.5
100
AcDbArc
 50
17.134787
 51
90.0
  0
CIRCLE
  5
25C
100
AcDbEntity
  8
M0
 62
     6
100
AcDbCircle
 10
30.412518
 20
243.767553
 40
3.0
  0
LINE
  5
25D
100
AcDbEntity
  8
M0
 62
     6
100
AcDbLine
 10
27.453763
 20
247.714895
 11
26.637509
 21
245.067602
  0
LINE
  5
25E
100
AcDbEntity
  8
M0
 62
     6
100
AcDbLine
 10
27.453763
 20
239.820303
 11
26.637509
 21
242.467626
  0
LINE
  5
25F
100
AcDbEntity
  8
M0
 62
     6
100
AcDbLine
 10
33.371243
 20
247.71491
 11
34.187512
 21
245.067602
  0
LINE
  5
260
100
AcDbEntity
  8
M0
 62
     6
100
AcDbLine
 10
33.371243
 20
239.820287
 11
34.187512
 21
242.467626
  0
LINE
  5
261
100
AcDbEntity
  8
M0
 62
     6
100
AcDbLine
 10
34.187512
 20
242.467626
 11
34.187512
 21
245.067602
  0
LINE
  5
262
100
AcDbEntity
  8
M0
 62
     6
100
AcDbLine
 10
32.893429
 20
248.067602
 11
27.931561
 21
248.067587
  0
LINE
  5
263
100
AcDbEntity
  8
M0
 62
     6
100
AcDbLine
 10
26.637509
 20
245.067602
 11
26.637509
 21
242.467626
  0
LINE
  5
264
100
AcDbEntity
  8
M0
  6
DASHDOT
 62
     6
100
AcDbLine
 10
24.137509
 20
243.767553
 11
36.687512
 21
243.767553
  0
LINE
  5
265
100
AcDbEntity
  8
M0
  6
DASHDOT
 62
     6
100
AcDbLine
 10
30.412518
 20
236.967642
 11
30.412518
 21
250.567602
  0
LINE
  5
266
100
AcDbEntity
  8
M0
 62
     6
100
AcDbLine
 10
32.003293
 20
242.176733
 11
28.821484
 21
245.358495
  0
LINE
  5
267
100
AcDbEntity
  8
M0
 62
     6
100
AcDbLine
 10
30.765927
 20
245.181738
 11
28.998257
 21
243.414037
  0
LINE
  5
268
100
AcDbEntity
  8
M0
 62
     6
100
AcDbLine
 10
31.826535
 20
244.121069
 11
30.058911
 21
242.353491
  0
ARC
  5
269
100
AcDbEntity
  8
M0
 62
     6
100
AcDbCircle
 10
27.931561
 20
247.567587
 40
0.5
100
AcDbArc
 50
90.0
 51
162.865663
  0
ARC
  5
26A
100
AcDbEntity
  8
M0
 62
     6
100
AcDbCircle
 10
32.893429
 20
247.567587
 40
0.5
100
AcDbArc
 50
17.134787
 51
90.0
  0
CIRCLE
  5
26B
100
AcDbEntity
  8
M0
 62
     6
100
AcDbCircle
 10
30.412518
 20
234.267553
 40
3.0
  0
LINE
  5
26C
100
AcDbEntity
  8
M0
 62
     6
100
AcDbLine
 10
27.453763
 20
238.214895
 11
26.637509
 21
235.567602
  0
LINE
  5
26D
100
AcDbEntity
  8
M0
 62
     6
100
AcDbLine
 10
27.453763
 20
230.320303
 11
26.637509
 21
232.967626
  0
LINE
  5
26E
100
AcDbEntity
  8
M0
 62
     6
100
AcDbLine
 10
33.371243
 20
238.21491
 11
34.187512
 21
235.567602
  0
LINE
  5
26F
100
AcDbEntity
  8
M0
 62
     6
100
AcDbLine
 10
33.371243
 20
230.320287
 11
34.187512
 21
232.967626
  0
LINE
  5
270
100
AcDbEntity
  8
M0
 62
     6
100
AcDbLine
 10
27.931561
 20
229.967626
 11
32.893429
 21
229.967626
  0
LINE
  5
271
100
AcDbEntity
  8
M0
 62
     6
100
AcDbLine
 10
34.187512
 20
232.967626
 11
34.187512
 21
235.567602
  0
LINE
  5
272
100
AcDbEntity
  8
M0
 62
     6
100
AcDbLine
 10
32.893429
 20
238.567602
 11
27.931561
 21
238.567587
  0
LINE
  5
273
100
AcDbEntity
  8
M0
 62
     6
100
AcDbLine
 10
26.637509
 20
235.567602
 11
26.637509
 21
232.967626
  0
LINE
  5
274
100
AcDbEntity
  8
M0
  6
DASHDOT
 62
     6
100
AcDbLine
 10
24.137509
 20
234.267553
 11
36.687512
 21
234.267553
  0
LINE
  5
275
100
AcDbEntity
  8
M0
  6
DASHDOT
 62
     6
100
AcDbLine
 10
30.412518
 20
227.467642
 11
30.412518
 21
241.067602
  0
LINE
  5
276
100
AcDbEntity
  8
M0
 62
     6
100
AcDbLine
 10
32.003293
 20
232.676733
 11
28.821484
 21
235.858495
  0
LINE
  5
277
100
AcDbEntity
  8
M0
 62
     6
100
AcDbLine
 10
30.765927
 20
235.681738
 11
28.998257
 21
233.914037
  0
LINE
  5
278
100
AcDbEntity
  8
M0
 62
     6
100
AcDbLine
 10
31.826535
 20
234.621069
 11
30.058911
 21
232.853491
  0
ARC
  5
279
100
AcDbEntity
  8
M0
 62
     6
100
AcDbCircle
 10
27.931561
 20
238.067587
 40
0.5
100
AcDbArc
 50
90.0
 51
162.865663
  0
ARC
  5
27A
100
AcDbEntity
  8
M0
 62
     6
100
AcDbCircle
 10
27.931561
 20
230.467626
 40
0.5
100
AcDbArc
 50
197.137551
 51
270.0
  0
ARC
  5
27B
100
AcDbEntity
  8
M0
 62
     6
100
AcDbCircle
 10
32.893429
 20
230.467626
 40
0.5
100
AcDbArc
 50
270.0
 51
342.861653
  0
ARC
  5
27C
100
AcDbEntity
  8
M0
 62
     6
100
AcDbCircle
 10
32.893429
 20
238.067587
 40
0.5
100
AcDbArc
 50
17.134787
 51
90.0
  0
CIRCLE
  5
27D
100
AcDbEntity
  8
M0
 62
     6
100
AcDbCircle
 10
60.412518
 20
264.367025
 40
3.0
  0
LINE
  5
27E
100
AcDbEntity
  8
M0
 62
     6
100
AcDbLine
 10
57.453763
 20
268.314367
 11
56.637509
 21
265.667074
  0
LINE
  5
27F
100
AcDbEntity
  8
M0
 62
     6
100
AcDbLine
 10
57.453763
 20
260.419775
 11
56.637509
 21
263.067098
  0
LINE
  5
280
100
AcDbEntity
  8
M0
 62
     6
100
AcDbLine
 10
63.371243
 20
268.314382
 11
64.187512
 21
265.667074
  0
LINE
  5
281
100
AcDbEntity
  8
M0
 62
     6
100
AcDbLine
 10
63.371243
 20
260.41976
 11
64.187512
 21
263.067098
  0
LINE
  5
282
100
AcDbEntity
  8
M0
 62
     6
100
AcDbLine
 10
57.931561
 20
260.067098
 11
62.893429
 21
260.067098
  0
LINE
  5
283
100
AcDbEntity
  8
M0
 62
     6
100
AcDbLine
 10
64.187512
 20
263.067098
 11
64.187512
 21
265.667074
  0
LINE
  5
284
100
AcDbEntity
  8
M0
 62
     6
100
AcDbLine
 10
56.637509
 20
265.667074
 11
56.637509
 21
263.067098
  0
LINE
  5
285
100
AcDbEntity
  8
M0
  6
DASHDOT
 62
     6
100
AcDbLine
 10
54.137509
 20
264.367025
 11
66.687512
 21
264.367025
  0
LINE
  5
286
100
AcDbEntity
  8
M0
  6
DASHDOT
 62
     6
100
AcDbLine
 10
60.412518
 20
257.567114
 11
60.412518
 21
271.167074
  0
LINE
  5
287
100
AcDbEntity
  8
M0
 62
     6
100
AcDbLine
 10
62.003293
 20
262.776205
 11
58.821484
 21
265.957968
  0
LINE
  5
288
100
AcDbEntity
  8
M0
 62
     6
100
AcDbLine
 10
60.765927
 20
265.78121
 11
58.998257
 21
264.01351
  0
LINE
  5
289
100
AcDbEntity
  8
M0
 62
     6
100
AcDbLine
 10
61.826535
 20
264.720541
 11
60.058911
 21
262.952963
  0
ARC
  5
28A
100
AcDbEntity
  8
M0
 62
     6
100
AcDbCircle
 10
57.931561
 20
260.567098
 40
0.5
100
AcDbArc
 50
197.137551
 51
270.0
  0
ARC
  5
28B
100
AcDbEntity
  8
M0
 62
     6
100
AcDbCircle
 10
62.893429
 20
260.567098
 40
0.5
100
AcDbArc
 50
270.0
 51
342.861653
  0
CIRCLE
  5
28C
100
AcDbEntity
  8
M0
 62
     6
100
AcDbCircle
 10
60.412518
 20
273.866537
 40
3.0
  0
LINE
  5
28D
100
AcDbEntity
  8
M0
 62
     6
100
AcDbLine
 10
57.453763
 20
277.813879
 11
56.637509
 21
275.166586
  0
LINE
  5
28E
100
AcDbEntity
  8
M0
 62
     6
100
AcDbLine
 10
57.453763
 20
269.919287
 11
56.637509
 21
272.56661
  0
LINE
  5
28F
100
AcDbEntity
  8
M0
 62
     6
100
AcDbLine
 10
63.371243
 20
277.813894
 11
64.187512
 21
275.166586
  0
LINE
  5
290
100
AcDbEntity
  8
M0
 62
     6
100
AcDbLine
 10
63.371243
 20
269.919271
 11
64.187512
 21
272.56661
  0
LINE
  5
291
100
AcDbEntity
  8
M0
 62
     6
100
AcDbLine
 10
57.931561
 20
269.56661
 11
62.893429
 21
269.56661
  0
LINE
  5
292
100
AcDbEntity
  8
M0
 62
     6
100
AcDbLine
 10
64.187512
 20
272.56661
 11
64.187512
 21
275.166586
  0
LINE
  5
293
100
AcDbEntity
  8
M0
 62
     6
100
AcDbLine
 10
62.893429
 20
278.166586
 11
57.931561
 21
278.16657
  0
LINE
  5
294
100
AcDbEntity
  8
M0
 62
     6
100
AcDbLine
 10
56.637509
 20
275.166586
 11
56.637509
 21
272.56661
  0
LINE
  5
295
100
AcDbEntity
  8
M0
  6
DASHDOT
 62
     6
100
AcDbLine
 10
54.137509
 20
273.866537
 11
66.687512
 21
273.866537
  0
LINE
  5
296
100
AcDbEntity
  8
M0
  6
DASHDOT
 62
     6
100
AcDbLine
 10
60.412518
 20
267.066625
 11
60.412518
 21
280.666586
  0
LINE
  5
297
100
AcDbEntity
  8
M0
 62
     6
100
AcDbLine
 10
62.003293
 20
272.275717
 11
58.821484
 21
275.457479
  0
LINE
  5
298
100
AcDbEntity
  8
M0
 62
     6
100
AcDbLine
 10
60.765927
 20
275.280721
 11
58.998257
 21
273.513021
  0
LINE
  5
299
100
AcDbEntity
  8
M0
 62
     6
100
AcDbLine
 10
61.826535
 20
274.220053
 11
60.058911
 21
272.452474
  0
ARC
  5
29A
100
AcDbEntity
  8
M0
 62
     6
100
AcDbCircle
 10
57.931561
 20
277.66657
 40
0.5
100
AcDbArc
 50
90.0
 51
162.865663
  0
ARC
  5
29B
100
AcDbEntity
  8
M0
 62
     6
100
AcDbCircle
 10
57.931561
 20
270.06661
 40
0.5
100
AcDbArc
 50
197.137551
 51
270.0
  0
ARC
  5
29C
100
AcDbEntity
  8
M0
 62
     6
100
AcDbCircle
 10
62.893429
 20
270.06661
 40
0.5
100
AcDbArc
 50
270.0
 51
342.861653
  0
ARC
  5
29D
100
AcDbEntity
  8
M0
 62
     6
100
AcDbCircle
 10
62.893429
 20
277.66657
 40
0.5
100
AcDbArc
 50
17.134787
 51
90.0
  0
CIRCLE
  5
29E
100
AcDbEntity
  8
M0
 62
     6
100
AcDbCircle
 10
50.412518
 20
273.866537
 40
3.0
  0
LINE
  5
29F
100
AcDbEntity
  8
M0
 62
     6
100
AcDbLine
 10
47.453763
 20
277.813879
 11
46.637509
 21
275.166586
  0
LINE
  5
2A0
100
AcDbEntity
  8
M0
 62
     6
100
AcDbLine
 10
47.453763
 20
269.919287
 11
46.637509
 21
272.56661
  0
LINE
  5
2A1
100
AcDbEntity
  8
M0
 62
     6
100
AcDbLine
 10
53.371243
 20
277.813894
 11
54.187512
 21
275.166586
  0
LINE
  5
2A2
100
AcDbEntity
  8
M0
 62
     6
100
AcDbLine
 10
53.371243
 20
269.919271
 11
54.187512
 21
272.56661
  0
LINE
  5
2A3
100
AcDbEntity
  8
M0
 62
     6
100
AcDbLine
 10
47.931561
 20
269.56661
 11
52.893429
 21
269.56661
  0
LINE
  5
2A4
100
AcDbEntity
  8
M0
 62
     6
100
AcDbLine
 10
54.187512
 20
272.56661
 11
54.187512
 21
275.166586
  0
LINE
  5
2A5
100
AcDbEntity
  8
M0
 62
     6
100
AcDbLine
 10
52.893429
 20
278.166586
 11
47.931561
 21
278.16657
  0
LINE
  5
2A6
100
AcDbEntity
  8
M0
 62
     6
100
AcDbLine
 10
46.637509
 20
275.166586
 11
46.637509
 21
272.56661
  0
LINE
  5
2A7
100
AcDbEntity
  8
M0
  6
DASHDOT
 62
     6
100
AcDbLine
 10
44.137509
 20
273.866537
 11
56.687512
 21
273.866537
  0
LINE
  5
2A8
100
AcDbEntity
  8
M0
  6
DASHDOT
 62
     6
100
AcDbLine
 10
50.412518
 20
267.066625
 11
50.412518
 21
280.666586
  0
LINE
  5
2A9
100
AcDbEntity
  8
M0
 62
     6
100
AcDbLine
 10
52.003293
 20
272.275717
 11
48.821484
 21
275.457479
  0
LINE
  5
2AA
100
AcDbEntity
  8
M0
 62
     6
100
AcDbLine
 10
50.765927
 20
275.280721
 11
48.998257
 21
273.513021
  0
LINE
  5
2AB
100
AcDbEntity
  8
M0
 62
     6
100
AcDbLine
 10
51.826535
 20
274.220053
 11
50.058911
 21
272.452474
  0
ARC
  5
2AC
100
AcDbEntity
  8
M0
 62
     6
100
AcDbCircle
 10
47.931561
 20
277.66657
 40
0.5
100
AcDbArc
 50
90.0
 51
162.865663
  0
ARC
  5
2AD
100
AcDbEntity
  8
M0
 62
     6
100
AcDbCircle
 10
47.931561
 20
270.06661
 40
0.5
100
AcDbArc
 50
197.137551
 51
270.0
  0
ARC
  5
2AE
100
AcDbEntity
  8
M0
 62
     6
100
AcDbCircle
 10
52.893429
 20
270.06661
 40
0.5
100
AcDbArc
 50
270.0
 51
342.861653
  0
ARC
  5
2AF
100
AcDbEntity
  8
M0
 62
     6
100
AcDbCircle
 10
52.893429
 20
277.66657
 40
0.5
100
AcDbArc
 50
17.134787
 51
90.0
  0
CIRCLE
  5
2B0
100
AcDbEntity
  8
M0
 62
     6
100
AcDbCircle
 10
50.412518
 20
264.367025
 40
3.0
  0
LINE
  5
2B1
100
AcDbEntity
  8
M0
 62
     6
100
AcDbLine
 10
47.453763
 20
268.314367
 11
46.637509
 21
265.667074
  0
LINE
  5
2B2
100
AcDbEntity
  8
M0
 62
     6
100
AcDbLine
 10
47.453763
 20
260.419775
 11
46.637509
 21
263.067098
  0
LINE
  5
2B3
100
AcDbEntity
  8
M0
 62
     6
100
AcDbLine
 10
53.371243
 20
268.314382
 11
54.187512
 21
265.667074
  0
LINE
  5
2B4
100
AcDbEntity
  8
M0
 62
     6
100
AcDbLine
 10
53.371243
 20
260.41976
 11
54.187512
 21
263.067098
  0
LINE
  5
2B5
100
AcDbEntity
  8
M0
 62
     6
100
AcDbLine
 10
47.931561
 20
260.067098
 11
52.893429
 21
260.067098
  0
LINE
  5
2B6
100
AcDbEntity
  8
M0
 62
     6
100
AcDbLine
 10
54.187512
 20
263.067098
 11
54.187512
 21
265.667074
  0
LINE
  5
2B7
100
AcDbEntity
  8
M0
 62
     6
100
AcDbLine
 10
46.637509
 20
265.667074
 11
46.637509
 21
263.067098
  0
LINE
  5
2B8
100
AcDbEntity
  8
M0
  6
DASHDOT
 62
     6
100
AcDbLine
 10
44.137509
 20
264.367025
 11
56.687512
 21
264.367025
  0
LINE
  5
2B9
100
AcDbEntity
  8
M0
  6
DASHDOT
 62
     6
100
AcDbLine
 10
50.412518
 20
257.567114
 11
50.412518
 21
271.167074
  0
LINE
  5
2BA
100
AcDbEntity
  8
M0
 62
     6
100
AcDbLine
 10
52.003293
 20
262.776205
 11
48.821484
 21
265.957968
  0
LINE
  5
2BB
100
AcDbEntity
  8
M0
 62
     6
100
AcDbLine
 10
50.765927
 20
265.78121
 11
48.998257
 21
264.01351
  0
LINE
  5
2BC
100
AcDbEntity
  8
M0
 62
     6
100
AcDbLine
 10
51.826535
 20
264.720541
 11
50.058911
 21
262.952963
  0
ARC
  5
2BD
100
AcDbEntity
  8
M0
 62
     6
100
AcDbCircle
 10
47.931561
 20
260.567098
 40
0.5
100
AcDbArc
 50
197.137551
 51
270.0
  0
ARC
  5
2BE
100
AcDbEntity
  8
M0
 62
     6
100
AcDbCircle
 10
52.893429
 20
260.567098
 40
0.5
100
AcDbArc
 50
270.0
 51
342.861653
  0
CIRCLE
  5
2BF
100
AcDbEntity
  8
M0
 62
     6
100
AcDbCircle
 10
40.412518
 20
264.367025
 40
3.0
  0
LINE
  5
2C0
100
AcDbEntity
  8
M0
 62
     6
100
AcDbLine
 10
37.453763
 20
268.314367
 11
36.637509
 21
265.667074
  0
LINE
  5
2C1
100
AcDbEntity
  8
M0
 62
     6
100
AcDbLine
 10
37.453763
 20
260.419775
 11
36.637509
 21
263.067098
  0
LINE
  5
2C2
100
AcDbEntity
  8
M0
 62
     6
100
AcDbLine
 10
43.371243
 20
268.314382
 11
44.187512
 21
265.667074
  0
LINE
  5
2C3
100
AcDbEntity
  8
M0
 62
     6
100
AcDbLine
 10
43.371243
 20
260.41976
 11
44.187512
 21
263.067098
  0
LINE
  5
2C4
100
AcDbEntity
  8
M0
 62
     6
100
AcDbLine
 10
37.931561
 20
260.067098
 11
42.893429
 21
260.067098
  0
LINE
  5
2C5
100
AcDbEntity
  8
M0
 62
     6
100
AcDbLine
 10
44.187512
 20
263.067098
 11
44.187512
 21
265.667074
  0
LINE
  5
2C6
100
AcDbEntity
  8
M0
 62
     6
100
AcDbLine
 10
36.637509
 20
265.667074
 11
36.637509
 21
263.067098
  0
LINE
  5
2C7
100
AcDbEntity
  8
M0
  6
DASHDOT
 62
     6
100
AcDbLine
 10
34.137509
 20
264.367025
 11
46.687512
 21
264.367025
  0
LINE
  5
2C8
100
AcDbEntity
  8
M0
  6
DASHDOT
 62
     6
100
AcDbLine
 10
40.412518
 20
257.567114
 11
40.412518
 21
271.167074
  0
LINE
  5
2C9
100
AcDbEntity
  8
M0
 62
     6
100
AcDbLine
 10
42.003293
 20
262.776205
 11
38.821484
 21
265.957968
  0
LINE
  5
2CA
100
AcDbEntity
  8
M0
 62
     6
100
AcDbLine
 10
40.765927
 20
265.78121
 11
38.998257
 21
264.01351
  0
LINE
  5
2CB
100
AcDbEntity
  8
M0
 62
     6
100
AcDbLine
 10
41.826535
 20
264.720541
 11
40.058911
 21
262.952963
  0
ARC
  5
2CC
100
AcDbEntity
  8
M0
 62
     6
100
AcDbCircle
 10
37.931561
 20
260.567098
 40
0.5
100
AcDbArc
 50
197.137551
 51
270.0
  0
ARC
  5
2CD
100
AcDbEntity
  8
M0
 62
     6
100
AcDbCircle
 10
42.893429
 20
260.567098
 40
0.5
100
AcDbArc
 50
270.0
 51
342.861653
  0
CIRCLE
  5
2CE
100
AcDbEntity
  8
M0
 62
     6
100
AcDbCircle
 10
40.412518
 20
273.866537
 40
3.0
  0
LINE
  5
2CF
100
AcDbEntity
  8
M0
 62
     6
100
AcDbLine
 10
37.453763
 20
277.813879
 11
36.637509
 21
275.166586
  0
LINE
  5
2D0
100
AcDbEntity
  8
M0
 62
     6
100
AcDbLine
 10
37.453763
 20
269.919287
 11
36.637509
 21
272.56661
  0
LINE
  5
2D1
100
AcDbEntity
  8
M0
 62
     6
100
AcDbLine
 10
43.371243
 20
277.813894
 11
44.187512
 21
275.166586
  0
LINE
  5
2D2
100
AcDbEntity
  8
M0
 62
     6
100
AcDbLine
 10
43.371243
 20
269.919271
 11
44.187512
 21
272.56661
  0
LINE
  5
2D3
100
AcDbEntity
  8
M0
 62
     6
100
AcDbLine
 10
37.931561
 20
269.56661
 11
42.893429
 21
269.56661
  0
LINE
  5
2D4
100
AcDbEntity
  8
M0
 62
     6
100
AcDbLine
 10
44.187512
 20
272.56661
 11
44.187512
 21
275.166586
  0
LINE
  5
2D5
100
AcDbEntity
  8
M0
 62
     6
100
AcDbLine
 10
42.893429
 20
278.166586
 11
37.931561
 21
278.16657
  0
LINE
  5
2D6
100
AcDbEntity
  8
M0
 62
     6
100
AcDbLine
 10
36.637509
 20
275.166586
 11
36.637509
 21
272.56661
  0
LINE
  5
2D7
100
AcDbEntity
  8
M0
  6
DASHDOT
 62
     6
100
AcDbLine
 10
34.137509
 20
273.866537
 11
46.687512
 21
273.866537
  0
LINE
  5
2D8
100
AcDbEntity
  8
M0
  6
DASHDOT
 62
     6
100
AcDbLine
 10
40.412518
 20
267.066625
 11
40.412518
 21
280.666586
  0
LINE
  5
2D9
100
AcDbEntity
  8
M0
 62
     6
100
AcDbLine
 10
42.003293
 20
272.275717
 11
38.821484
 21
275.457479
  0
LINE
  5
2DA
100
AcDbEntity
  8
M0
 62
     6
100
AcDbLine
 10
40.765927
 20
275.280721
 11
38.998257
 21
273.513021
  0
LINE
  5
2DB
100
AcDbEntity
  8
M0
 62
     6
100
AcDbLine
 10
41.826535
 20
274.220053
 11
40.058911
 21
272.452474
  0
ARC
  5
2DC
100
AcDbEntity
  8
M0
 62
     6
100
AcDbCircle
 10
37.931561
 20
277.66657
 40
0.5
100
AcDbArc
 50
90.0
 51
162.865663
  0
ARC
  5
2DD
100
AcDbEntity
  8
M0
 62
     6
100
AcDbCircle
 10
37.931561
 20
270.06661
 40
0.5
100
AcDbArc
 50
197.137551
 51
270.0
  0
ARC
  5
2DE
100
AcDbEntity
  8
M0
 62
     6
100
AcDbCircle
 10
42.893429
 20
270.06661
 40
0.5
100
AcDbArc
 50
270.0
 51
342.861653
  0
ARC
  5
2DF
100
AcDbEntity
  8
M0
 62
     6
100
AcDbCircle
 10
42.893429
 20
277.66657
 40
0.5
100
AcDbArc
 50
17.134787
 51
90.0
  0
CIRCLE
  5
2E0
100
AcDbEntity
  8
M0
 62
     6
100
AcDbCircle
 10
30.412518
 20
273.866537
 40
3.0
  0
LINE
  5
2E1
100
AcDbEntity
  8
M0
 62
     6
100
AcDbLine
 10
27.453763
 20
277.813879
 11
26.637509
 21
275.166586
  0
LINE
  5
2E2
100
AcDbEntity
  8
M0
 62
     6
100
AcDbLine
 10
27.453763
 20
269.919287
 11
26.637509
 21
272.56661
  0
LINE
  5
2E3
100
AcDbEntity
  8
M0
 62
     6
100
AcDbLine
 10
33.371243
 20
277.813894
 11
34.187512
 21
275.166586
  0
LINE
  5
2E4
100
AcDbEntity
  8
M0
 62
     6
100
AcDbLine
 10
33.371243
 20
269.919271
 11
34.187512
 21
272.56661
  0
LINE
  5
2E5
100
AcDbEntity
  8
M0
 62
     6
100
AcDbLine
 10
27.931561
 20
269.56661
 11
32.893429
 21
269.56661
  0
LINE
  5
2E6
100
AcDbEntity
  8
M0
 62
     6
100
AcDbLine
 10
34.187512
 20
272.56661
 11
34.187512
 21
275.166586
  0
LINE
  5
2E7
100
AcDbEntity
  8
M0
 62
     6
100
AcDbLine
 10
32.893429
 20
278.166586
 11
27.931561
 21
278.16657
  0
LINE
  5
2E8
100
AcDbEntity
  8
M0
 62
     6
100
AcDbLine
 10
26.637509
 20
275.166586
 11
26.637509
 21
272.56661
  0
LINE
  5
2E9
100
AcDbEntity
  8
M0
  6
DASHDOT
 62
     6
100
AcDbLine
 10
24.137509
 20
273.866537
 11
36.687512
 21
273.866537
  0
LINE
  5
2EA
100
AcDbEntity
  8
M0
  6
DASHDOT
 62
     6
100
AcDbLine
 10
30.412518
 20
267.066625
 11
30.412518
 21
280.666586
  0
LINE
  5
2EB
100
AcDbEntity
  8
M0
 62
     6
100
AcDbLine
 10
32.003293
 20
272.275717
 11
28.821484
 21
275.457479
  0
LINE
  5
2EC
100
AcDbEntity
  8
M0
 62
     6
100
AcDbLine
 10
30.765927
 20
275.280721
 11
28.998257
 21
273.513021
  0
LINE
  5
2ED
100
AcDbEntity
  8
M0
 62
     6
100
AcDbLine
 10
31.826535
 20
274.220053
 11
30.058911
 21
272.452474
  0
ARC
  5
2EE
100
AcDbEntity
  8
M0
 62
     6
100
AcDbCircle
 10
27.931561
 20
277.66657
 40
0.5
100
AcDbArc
 50
90.0
 51
162.865663
  0
ARC
  5
2EF
100
AcDbEntity
  8
M0
 62
     6
100
AcDbCircle
 10
27.931561
 20
270.06661
 40
0.5
100
AcDbArc
 50
197.137551
 51
270.0
  0
ARC
  5
2F0
100
AcDbEntity
  8
M0
 62
     6
100
AcDbCircle
 10
32.893429
 20
270.06661
 40
0.5
100
AcDbArc
 50
270.0
 51
342.861653
  0
ARC
  5
2F1
100
AcDbEntity
  8
M0
 62
     6
100
AcDbCircle
 10
32.893429
 20
277.66657
 40
0.5
100
AcDbArc
 50
17.134787
 51
90.0
  0
CIRCLE
  5
2F2
100
AcDbEntity
  8
M0
 62
     6
100
AcDbCircle
 10
30.412518
 20
264.367025
 40
3.0
  0
LINE
  5
2F3
100
AcDbEntity
  8
M0
 62
     6
100
AcDbLine
 10
27.453763
 20
268.314367
 11
26.637509
 21
265.667074
  0
LINE
  5
2F4
100
AcDbEntity
  8
M0
 62
     6
100
AcDbLine
 10
27.453763
 20
260.419775
 11
26.637509
 21
263.067098
  0
LINE
  5
2F5
100
AcDbEntity
  8
M0
 62
     6
100
AcDbLine
 10
33.371243
 20
268.314382
 11
34.187512
 21
265.667074
  0
LINE
  5
2F6
100
AcDbEntity
  8
M0
 62
     6
100
AcDbLine
 10
33.371243
 20
260.41976
 11
34.187512
 21
263.067098
  0
LINE
  5
2F7
100
AcDbEntity
  8
M0
 62
     6
100
AcDbLine
 10
27.931561
 20
260.067098
 11
32.893429
 21
260.067098
  0
LINE
  5
2F8
100
AcDbEntity
  8
M0
 62
     6
100
AcDbLine
 10
34.187512
 20
263.067098
 11
34.187512
 21
265.667074
  0
LINE
  5
2F9
100
AcDbEntity
  8
M0
 62
     6
100
AcDbLine
 10
26.637509
 20
265.667074
 11
26.637509
 21
263.067098
  0
LINE
  5
2FA
100
AcDbEntity
  8
M0
  6
DASHDOT
 62
     6
100
AcDbLine
 10
24.137509
 20
264.367025
 11
36.687512
 21
264.367025
  0
LINE
  5
2FB
100
AcDbEntity
  8
M0
  6
DASHDOT
 62
     6
100
AcDbLine
 10
30.412518
 20
257.567114
 11
30.412518
 21
271.167074
  0
LINE
  5
2FC
100
AcDbEntity
  8
M0
 62
     6
100
AcDbLine
 10
32.003293
 20
262.776205
 11
28.821484
 21
265.957968
  0
LINE
  5
2FD
100
AcDbEntity
  8
M0
 62
     6
100
AcDbLine
 10
30.765927
 20
265.78121
 11
28.998257
 21
264.01351
  0
LINE
  5
2FE
100
AcDbEntity
  8
M0
 62
     6
100
AcDbLine
 10
31.826535
 20
264.720541
 11
30.058911
 21
262.952963
  0
ARC
  5
2FF
100
AcDbEntity
  8
M0
 62
     6
100
AcDbCircle
 10
27.931561
 20
260.567098
 40
0.5
100
AcDbArc
 50
197.137551
 51
270.0
  0
ARC
  5
300
100
AcDbEntity
  8
M0
 62
     6
100
AcDbCircle
 10
32.893429
 20
260.567098
 40
0.5
100
AcDbArc
 50
270.0
 51
342.861653
  0
LINE
  5
301
100
AcDbEntity
  8
M0
 62
     7
100
AcDbLine
 10
23.912961
 20
221.56722
 11
64.412961
 21
221.56722
  0
LINE
  5
302
100
AcDbEntity
  8
M0
 62
     7
100
AcDbLine
 10
67.412961
 20
224.567205
 11
67.412961
 21
230.067205
  0
LINE
  5
303
100
AcDbEntity
  8
M0
 62
     7
100
AcDbLine
 10
66.912961
 20
286.56722
 11
26.412961
 21
286.567205
  0
LINE
  5
304
100
AcDbEntity
  8
M0
 62
     7
100
AcDbLine
 10
23.412961
 20
283.567205
 11
23.412961
 21
275.06722
  0
LINE
  5
305
100
AcDbEntity
  8
M0
  6
DASHDOT
 62
     7
100
AcDbLine
 10
22.23721
 20
254.06722
 11
68.436566
 21
254.06722
  0
LINE
  5
306
100
AcDbEntity
  8
M0
  6
DASHDOT
 62
     7
100
AcDbLine
 10
45.412961
 20
216.56722
 11
45.412961
 21
291.56722
  0
ARC
  5
307
100
AcDbEntity
  8
M0
 62
     7
100
AcDbCircle
 10
26.412961
 20
283.567205
 40
3.0
100
AcDbArc
 50
90.0
 51
180.0
  0
ARC
  5
308
100
AcDbEntity
  8
M0
 62
     7
100
AcDbCircle
 10
64.412961
 20
224.56722
 40
3.0
100
AcDbArc
 50
269.999709
 51
360.0
  0
LINE
  5
309
100
AcDbEntity
  8
M0
 62
     7
100
AcDbLine
 10
33.412762
 20
286.566976
 11
33.412762
 21
279.06722
  0
LINE
  5
30A
100
AcDbEntity
  8
M0
 62
     7
100
AcDbLine
 10
56.412961
 20
230.06722
 11
56.412961
 21
221.56722
  0
ARC
  5
30B
100
AcDbEntity
  8
M0
 62
     7
100
AcDbCircle
 10
24.412961
 20
275.06722
 40
1.0
100
AcDbArc
 50
180.0
 51
240.000117
  0
LINE
  5
30C
100
AcDbEntity
  8
M0
 62
     7
100
AcDbLine
 10
46.462323
 20
227.06722
 11
54.362469
 21
227.06722
  0
LINE
  5
30D
100
AcDbEntity
  8
M0
 62
     7
100
AcDbLine
 10
66.912961
 20
227.06722
 11
66.912961
 21
286.56722
  0
LINE
  5
30E
100
AcDbEntity
  8
M0
 62
     7
100
AcDbLine
 10
23.912961
 20
221.56722
 11
23.912961
 21
279.06722
  0
LINE
  5
30F
100
AcDbEntity
  8
M0
 62
     7
100
AcDbLine
 10
26.462811
 20
279.06722
 11
34.362469
 21
279.06722
  0
ARC
  5
310
100
AcDbEntity
  8
M0
 62
     7
100
AcDbCircle
 10
28.412961
 20
281.56722
 40
2.299999
100
AcDbArc
 50
0.0
 51
147.976754
  0
LINE
  5
311
100
AcDbEntity
  8
M0
  6
DASHDOT
 62
     7
100
AcDbLine
 10
24.430264
 20
281.56722
 11
31.864575
 21
281.56722
  0
LINE
  5
312
100
AcDbEntity
  8
M0
  6
DASHDOT
 62
     7
100
AcDbLine
 10
28.412961
 20
279.593466
 11
28.412961
 21
285.227239
  0
LINE
  5
313
100
AcDbEntity
  8
M0
 62
     7
100
AcDbLine
 10
30.712949
 20
279.06722
 11
30.712949
 21
281.567205
  0
ARC
  5
314
100
AcDbEntity
  8
M0
 62
     7
100
AcDbCircle
 10
61.412961
 20
226.56719
 40
2.299999
100
AcDbArc
 50
167.44345
 51
339.789682
  0
LINE
  5
315
100
AcDbEntity
  8
M0
  6
DASHDOT
 62
     7
100
AcDbLine
 10
65.806042
 20
226.567175
 11
58.499921
 21
226.56719
  0
LINE
  5
316
100
AcDbEntity
  8
M0
  6
DASHDOT
 62
     7
100
AcDbLine
 10
61.412945
 20
223.291754
 11
61.412961
 21
230.89269
  0
ARC
  5
317
100
AcDbEntity
  8
M0
 62
     7
100
AcDbCircle
 10
63.412945
 20
228.067159
 40
2.299999
100
AcDbArc
 50
273.94872
 51
294.392787
  0
ARC
  5
318
100
AcDbEntity
  8
M0
 62
     7
100
AcDbCircle
 10
66.412961
 20
230.06722
 40
1.0
100
AcDbArc
 50
0.0
 51
59.999878
  0
LINE
  5
319
100
AcDbEntity
  8
M0
 62
     7
100
AcDbLine
 10
36.462323
 20
279.06722
 11
44.362469
 21
279.06722
  0
LINE
  5
31A
100
AcDbEntity
  8
M0
 62
     7
100
AcDbLine
 10
56.462323
 20
227.06722
 11
64.362714
 21
227.06722
  0
CIRCLE
  5
31B
100
AcDbEntity
  8
M0
 62
     6
100
AcDbCircle
 10
50.410565
 20
282.56722
 40
3.0
  0
LINE
  5
31C
100
AcDbEntity
  8
M0
  6
DASHDOT
 62
     6
100
AcDbLine
 10
44.135556
 20
282.56722
 11
56.685559
 21
282.56722
  0
LINE
  5
31D
100
AcDbEntity
  8
M0
  6
DASHDOT
 62
     6
100
AcDbLine
 10
50.410565
 20
275.767309
 11
50.410565
 21
289.367269
  0
LINE
  5
31E
100
AcDbEntity
  8
M0
 62
     6
100
AcDbLine
 10
52.00134
 20
280.9764
 11
48.819531
 21
284.158163
  0
LINE
  5
31F
100
AcDbEntity
  8
M0
 62
     6
100
AcDbLine
 10
50.763974
 20
283.981405
 11
48.996304
 21
282.213705
  0
LINE
  5
320
100
AcDbEntity
  8
M0
 62
     6
100
AcDbLine
 10
51.824582
 20
282.920736
 11
50.056958
 21
281.153158
  0
CIRCLE
  5
321
100
AcDbEntity
  8
M0
 62
     6
100
AcDbCircle
 10
40.410565
 20
225.567419
 40
3.0
  0
LINE
  5
322
100
AcDbEntity
  8
M0
  6
DASHDOT
 62
     6
100
AcDbLine
 10
34.135556
 20
225.567419
 11
46.685559
 21
225.567419
  0
LINE
  5
323
100
AcDbEntity
  8
M0
  6
DASHDOT
 62
     6
100
AcDbLine
 10
40.410565
 20
218.767507
 11
40.410565
 21
232.367468
  0
LINE
  5
324
100
AcDbEntity
  8
M0
 62
     6
100
AcDbLine
 10
42.00134
 20
223.976599
 11
38.819531
 21
227.158361
  0
LINE
  5
325
100
AcDbEntity
  8
M0
 62
     6
100
AcDbLine
 10
40.763974
 20
226.981603
 11
38.996304
 21
225.213903
  0
LINE
  5
326
100
AcDbEntity
  8
M0
 62
     6
100
AcDbLine
 10
41.824582
 20
225.920934
 11
40.056958
 21
224.153356
  0
LINE
  5
327
100
AcDbEntity
  8
M0
100
AcDbLine
 10
171.108731
 20
227.5669
 11
171.108731
 21
233.5669
  0
LINE
  5
328
100
AcDbEntity
  8
M0
  6
DASHDOT
100
AcDbLine
 10
166.308728
 20
230.5669
 11
171.908749
 21
230.5669
  0
ARC
  5
329
100
AcDbEntity
  8
M0
100
AcDbCircle
 10
176.808728
 20
230.5669
 40
8.0
100
AcDbArc
 50
165.963604
 51
176.416628
  0
LINE
  5
32A
100
AcDbEntity
  8
M0
100
AcDbLine
 10
171.108731
 20
233.56687
 11
170.195477
 21
233.486974
  0
LINE
  5
32B
100
AcDbEntity
  8
M0
100
AcDbLine
 10
171.108731
 20
227.566885
 11
170.195462
 21
227.64678
  0
ARC
  5
32C
100
AcDbEntity
  8
M0
100
AcDbCircle
 10
170.308774
 20
232.191915
 40
1.299999
100
AcDbArc
 50
94.999741
 51
165.963889
  0
ARC
  5
32D
100
AcDbEntity
  8
M0
100
AcDbCircle
 10
170.308789
 20
228.941839
 40
1.299999
100
AcDbArc
 50
194.037324
 51
264.998908
  0
LINE
  5
32E
100
AcDbEntity
  8
M0
100
AcDbLine
 10
168.824368
 20
231.0669
 11
170.058728
 21
231.0669
  0
LINE
  5
32F
100
AcDbEntity
  8
M0
100
AcDbLine
 10
170.058728
 20
231.0669
 11
170.058728
 21
230.0669
  0
LINE
  5
330
100
AcDbEntity
  8
M0
100
AcDbLine
 10
170.058728
 20
230.0669
 11
168.824368
 21
230.0669
  0
ARC
  5
331
100
AcDbEntity
  8
M0
100
AcDbCircle
 10
176.808728
 20
230.5669
 40
8.0
100
AcDbArc
 50
183.583299
 51
194.036931
  0
LINE
  5
332
100
AcDbEntity
  8
M0
100
AcDbLine
 10
171.908719
 20
227.5669
 11
171.908719
 21
233.5669
  0
LINE
  5
333
100
AcDbEntity
  8
M0
100
AcDbLine
 10
171.108731
 20
227.5669
 11
171.908719
 21
227.5669
  0
LINE
  5
334
100
AcDbEntity
  8
M0
100
AcDbLine
 10
171.108731
 20
233.5669
 11
171.908719
 21
233.5669
  0
LINE
  5
335
100
AcDbEntity
  8
M0
100
AcDbLine
 10
171.108731
 20
230.5669
 11
171.908719
 21
231.366873
  0
LINE
  5
336
100
AcDbEntity
  8
M0
100
AcDbLine
 10
171.108731
 20
229.766912
 11
171.908719
 21
230.5669
  0
LINE
  5
337
100
AcDbEntity
  8
M0
100
AcDbLine
 10
171.108761
 20
222.566107
 11
171.108761
 21
228.566107
  0
LINE
  5
338
100
AcDbEntity
  8
M0
  6
DASHDOT
100
AcDbLine
 10
166.308758
 20
225.566107
 11
183.27641
 21
225.566107
  0
ARC
  5
339
100
AcDbEntity
  8
M0
100
AcDbCircle
 10
176.808758
 20
225.566107
 40
8.0
100
AcDbArc
 50
165.963604
 51
176.416628
  0
LINE
  5
33A
100
AcDbEntity
  8
M0
100
AcDbLine
 10
171.108761
 20
222.566091
 11
170.195492
 21
222.645986
  0
ARC
  5
33B
100
AcDbEntity
  8
M0
100
AcDbCircle
 10
170.308804
 20
227.191122
 40
1.299999
100
AcDbArc
 50
137.674918
 51
165.963889
  0
ARC
  5
33C
100
AcDbEntity
  8
M0
100
AcDbCircle
 10
170.308819
 20
223.941046
 40
1.299999
100
AcDbArc
 50
194.037324
 51
264.998908
  0
LINE
  5
33D
100
AcDbEntity
  8
M0
100
AcDbLine
 10
178.909619
 20
223.816091
 11
176.209607
 21
223.816076
  0
LINE
  5
33E
100
AcDbEntity
  8
M0
100
AcDbLine
 10
168.824399
 20
226.066107
 11
170.058758
 21
226.066107
  0
LINE
  5
33F
100
AcDbEntity
  8
M0
100
AcDbLine
 10
170.058758
 20
226.066107
 11
170.058758
 21
225.066107
  0
LINE
  5
340
100
AcDbEntity
  8
M0
100
AcDbLine
 10
170.058758
 20
225.066107
 11
168.824399
 21
225.066107
  0
ARC
  5
341
100
AcDbEntity
  8
M0
100
AcDbCircle
 10
176.808758
 20
225.566107
 40
8.0
100
AcDbArc
 50
183.583299
 51
194.036931
  0
LINE
  5
342
100
AcDbEntity
  8
M0
100
AcDbLine
 10
171.908749
 20
222.566107
 11
171.908749
 21
228.566107
  0
LINE
  5
343
100
AcDbEntity
  8
M0
100
AcDbLine
 10
171.108761
 20
222.566107
 11
171.908749
 21
222.566107
  0
LINE
  5
344
100
AcDbEntity
  8
M0
100
AcDbLine
 10
171.108761
 20
225.566107
 11
171.908749
 21
226.366079
  0
LINE
  5
345
100
AcDbEntity
  8
M0
100
AcDbLine
 10
171.108761
 20
224.766119
 11
171.908749
 21
225.566107
  0
LINE
  5
346
100
AcDbEntity
  8
M0
100
AcDbLine
 10
178.909634
 20
284.318929
 11
176.209622
 21
284.318929
  0
LINE
  5
347
100
AcDbEntity
  8
M0
  6
DASHDOT
100
AcDbLine
 10
166.308774
 20
282.568929
 11
183.276425
 21
282.568929
  0
LINE
  5
348
100
AcDbEntity
  8
M0
100
AcDbLine
 10
178.909619
 20
280.818929
 11
176.209607
 21
280.818929
  0
LINE
  5
349
100
AcDbEntity
  8
M0
100
AcDbLine
 10
178.909619
 20
224.316091
 11
176.209607
 21
224.316091
  0
LINE
  5
34A
100
AcDbEntity
  8
M0
100
AcDbLine
 10
178.909619
 20
226.816107
 11
176.209607
 21
226.816107
  0
LINE
  5
34B
100
AcDbEntity
  8
M0
100
AcDbLine
 10
178.909634
 20
283.818929
 11
176.209622
 21
283.818929
  0
LINE
  5
34C
100
AcDbEntity
  8
M0
100
AcDbLine
 10
178.909619
 20
281.318929
 11
176.209607
 21
281.318929
  0
LINE
  5
34D
100
AcDbEntity
  8
M0
100
AcDbLine
 10
163.908734
 20
284.069418
 11
163.908734
 21
286.067465
  0
LINE
  5
34E
100
AcDbEntity
  8
M0
100
AcDbLine
 10
163.908734
 20
286.067467
 11
163.408734
 21
286.067467
  0
LINE
  5
34F
100
AcDbEntity
  8
M0
100
AcDbLine
 10
163.408734
 20
286.067465
 11
163.408734
 21
284.069418
  0
LINE
  5
350
100
AcDbEntity
  8
M0
100
AcDbLine
 10
163.408734
 20
285.567206
 11
162.408757
 21
285.567206
  0
LINE
  5
351
100
AcDbEntity
  8
M0
100
AcDbLine
 10
162.408749
 20
284.069418
 11
162.408749
 21
285.566976
  0
LINE
  5
352
100
AcDbEntity
  8
M0
100
AcDbLine
 10
161.289371
 20
285.469054
 11
162.408757
 21
285.567206
  0
ARC
  5
353
100
AcDbEntity
  8
M0
100
AcDbCircle
 10
168.808865
 20
282.06722
 40
8.999986
100
AcDbArc
 50
164.121636
 51
167.146044
  0
ARC
  5
354
100
AcDbEntity
  8
M0
100
AcDbCircle
 10
161.40263
 20
284.174155
 40
1.299995
100
AcDbArc
 50
94.998659
 51
164.122466
  0
LINE
  5
355
100
AcDbEntity
  8
M0
100
AcDbLine
 10
173.908734
 20
280.067441
 11
173.908734
 21
284.067458
  0
LINE
  5
356
100
AcDbEntity
  8
M0
  6
DIVIDE
 62
     6
100
AcDbLine
 10
23.412961
 20
104.016515
 11
67.412945
 21
104.016515
  0
LINE
  5
357
100
AcDbEntity
  8
M0
  6
DIVIDE
 62
     6
100
AcDbLine
 10
67.412945
 20
104.016515
 11
67.412945
 21
169.016515
  0
LINE
  5
358
100
AcDbEntity
  8
M0
  6
DIVIDE
 62
     6
100
AcDbLine
 10
67.412945
 20
169.0165
 11
23.412961
 21
169.0165
  0
LINE
  5
359
100
AcDbEntity
  8
M0
  6
DIVIDE
 62
     6
100
AcDbLine
 10
23.412961
 20
169.0165
 11
23.412961
 21
104.016515
  0
CIRCLE
  5
35A
100
AcDbEntity
  8
M0
 62
     6
100
AcDbCircle
 10
28.412961
 20
164.0165
 40
2.5
  0
CIRCLE
  5
35B
100
AcDbEntity
  8
M0
 62
     6
100
AcDbCircle
 10
61.412961
 20
109.016515
 40
2.5
  0
CIRCLE
  5
35C
100
AcDbEntity
  8
M0
 62
     6
100
AcDbCircle
 10
61.412961
 20
109.016515
 40
1.249997
  0
CIRCLE
  5
35D
100
AcDbEntity
  8
M0
 62
     6
100
AcDbCircle
 10
28.412961
 20
164.0165
 40
1.249997
  0
LINE
  5
35E
100
AcDbEntity
  8
M0
  6
DASHDOT
 62
     6
100
AcDbLine
 10
66.010358
 20
109.016515
 11
56.815549
 21
109.016515
  0
LINE
  5
35F
100
AcDbEntity
  8
M0
  6
DASHDOT
 62
     6
100
AcDbLine
 10
61.412945
 20
113.613912
 11
61.412961
 21
104.419103
  0
LINE
  5
360
100
AcDbEntity
  8
M0
  6
DASHDOT
 62
     6
100
AcDbLine
 10
32.510358
 20
164.0165
 11
24.315549
 21
164.0165
  0
LINE
  5
361
100
AcDbEntity
  8
M0
  6
DASHDOT
 62
     6
100
AcDbLine
 10
28.412945
 20
168.113896
 11
28.412961
 21
159.919087
  0
LINE
  5
362
100
AcDbEntity
  8
M0
  6
DASHDOT
 62
     6
100
AcDbLine
 10
45.412961
 20
100.023015
 11
45.412961
 21
173.010015
  0
LINE
  5
363
100
AcDbEntity
  8
M0
  6
DASHDOT
 62
     6
100
AcDbLine
 10
20.919461
 20
136.516515
 11
69.90646
 21
136.516515
  0
LINE
  5
364
100
AcDbEntity
  8
M1
 62
     2
100
AcDbLine
 10
11.764706
 20
11.764706
 11
11.764706
 21
335.294108
  0
LINE
  5
365
100
AcDbEntity
  8
M1
 62
     2
100
AcDbLine
 10
11.764706
 20
335.294108
 11
235.294111
 21
335.294108
  0
LINE
  5
366
100
AcDbEntity
  8
M1
 62
     2
100
AcDbLine
 10
235.294111
 20
335.294108
 11
235.294111
 21
11.764706
  0
LINE
  5
367
100
AcDbEntity
  8
M1
 62
     2
100
AcDbLine
 10
235.294111
 20
11.764706
 11
11.764706
 21
11.764706
  0
LINE
  5
368
100
AcDbEntity
  8
M1
 62
     2
100
AcDbLine
 10
235.294111
 20
23.529411
 11
117.647056
 21
23.529411
  0
LINE
  5
369
100
AcDbEntity
  8
M1
 62
     2
100
AcDbLine
 10
235.294111
 20
35.294117
 11
117.647056
 21
35.294117
  0
LINE
  5
36A
100
AcDbEntity
  8
M1
 62
     2
100
AcDbLine
 10
235.294111
 20
47.058822
 11
117.647056
 21
47.058822
  0
LINE
  5
36B
100
AcDbEntity
  8
M1
 62
     2
100
AcDbLine
 10
117.647056
 20
11.764706
 11
117.647056
 21
47.058822
  0
TEXT
  5
36C
100
AcDbEntity
  8
M1
 62
     2
100
AcDbText
 10
120.588232
 20
14.705882
 40
5.882353
  1
適　用；
 41
1.0
  7
STANDARD
100
AcDbText
  0
TEXT
  5
36D
100
AcDbEntity
  8
M1
 62
     2
100
AcDbText
 10
120.588232
 20
38.235293
 40
5.882353
  1
登録名：
 41
1.0
  7
STANDARD
100
AcDbText
  0
TEXT
  5
36E
100
AcDbEntity
  8
M1
 62
     2
100
AcDbText
 10
148.823525
 20
38.235293
 40
5.882353
  1
ＤＭＸ８ＧＲ００
 41
0.5
  7
STANDARD
100
AcDbText
  0
TEXT
  5
36F
100
AcDbEntity
  8
M1
 62
     2
100
AcDbText
 10
120.588232
 20
26.470587
 40
5.882353
  1
形　式；
 41
1.0
  7
STANDARD
100
AcDbText
  0
TEXT
  5
370
100
AcDbEntity
  8
M1
 62
     2
100
AcDbText
 10
148.823525
 20
26.470587
 40
5.882353
  1
Ｘ８－Ｇ
 41
0.5
  7
STANDARD
100
AcDbText
  0
LINE
  5
371
100
AcDbEntity
  8
DN0
100
AcDbLine
 10
35.719414
 20
86.029801
 11
57.201764
 21
86.029801
  0
TEXT
  5
372
100
AcDbEntity
  8
DN0
100
AcDbText
 10
36.313531
 20
86.559212
 40
5.294117
  1
せん孔図
 41
0.833333
  7
STANDARD
100
AcDbText
  0
ENDSEC
  0
SECTION
  2
OBJECTS
  0
DICTIONARY
  5
C
100
AcDbDictionary
  3
ACAD_GROUP
350
D
  3
ACAD_MLINESTYLE
350
E
  0
DICTIONARY
  5
D
102
{ACAD_REACTORS
330
C
102
}
100
AcDbDictionary
  0
DICTIONARY
  5
E
102
{ACAD_REACTORS
330
C
102
}
100
AcDbDictionary
  3
STANDARD
350
13
  0
MLINESTYLE
  5
13
102
{ACAD_REACTORS
330
E
102
}
100
AcDbMlineStyle
  2
STANDARD
 70
     0
  3

 62
     0
 51
90.0
 52
90.0
 71
     2
 49
0.5
 62
   256
  6
BYLAYER
 49
-0.5
 62
   256
  6
BYLAYER
  0
ENDSEC
  0
EOF
