  0
SECTION
  2
HEADER
  9
$ACADVER
  1
AC1014
  9
$INSBASE
 10
0.000000
 20
0.000000
 30
0.0
  9
$VIEWCTR
 10
7.531722
 20
4.5
  9
$VIEWSIZE
 40
9.0
  9
$SNAPMODE
 70
     0
  9
$SNAPUNIT
 10
1.0
 20
1.0
  9
$SNAPBASE
 10
0.0
 20
0.0
  9
$SNAPANG
 50
0.0
  9
$SNAPSTYLE
 70
     0
  9
$SNAPISOPAIR
 70
     0
  9
$GRIDMODE
 70
     0
  9
$GRIDUNIT
 10
0.0
 20
0.0
  9
$ORTHOMODE
 70
     0
  9
$REGENMODE
 70
     1
  9
$FILLMODE
 70
     1
  9
$QTEXTMODE
 70
     0
  9
$DRAGMODE
 70
     2
  9
$LTSCALE
  40
     1.000000
  9
$OSMODE
 70
     0
  9
$ATTMODE
 70
     1
  9
$TEXTSIZE
 40
0.2
  9
$TRACEWID
 40
0.05
  9
$TEXTSTYLE
  7
STANDARD
  9
$CELTYPE
  6
BYLAYER
  9
$CECOLOR
 62
   256
  9
$DIMSCALE
 40
1.0
  9
$DIMASZ
 40
0.18
  9
$DIMEXO
 40
0.0625
  9
$DIMDLI
 40
0.38
  9
$DIMRND
 40
0.0
  9
$DIMDLE
 40
0.0
  9
$DIMEXE
 40
0.18
  9
$DIMTP
 40
0.0
  9
$DIMTM
 40
0.0
  9
$DIMTXT
 40
0.18
  9
$DIMCEN
 40
0.09
  9
$DIMTSZ
 40
0.0
  9
$DIMTOL
 70
     0
  9
$DIMLIM
 70
     0
  9
$DIMTIH
 70
     1
  9
$DIMTOH
 70
     1
  9
$DIMSE1
 70
     0
  9
$DIMSE2
 70
     0
  9
$DIMTAD
 70
     0
  9
$DIMZIN
 70
     0
  9
$DIMBLK
  1

  9
$LUNITS
 70
     2
  9
$LUPREC
 70
     4
  9
$AXISMODE
 70
     0
  9
$AXISUNIT
 10
0.0
 20
0.0
  9
$SKETCHINC
 40
0.1
  9
$FILLETRAD
 40
0.0
  9
$AUNITS
 70
     0
  9
$AUPREC
 70
     0
  9
$MENU
  1
ACAD
  9
$ELEVATION
 40
0.0
  9
$THICKNESS
 40
0.0
  9
$VIEWDIR
 10
0.0
 20
0.0
 30
1.0
  9
$LIMCHECK
 70
     0
  9
$BLIPMODE
 70
     1
  9
$CHAMFERA
 40
0.0
  9
$CHAMFERB
 40
0.0
  9
$FASTZOOM
 70
     1
  9
$SKPOLY
 70
     0
  9
$TDCREATE
 40
0000000.0000000000
  9
$TDUPDATE
 40
0000000.0000000000
  9
$TDINDWG
 40
0.0000000000
  9
$TDUSRTIMER
 40
0.0000000000
  9
$USRTIMER
 70
     1
  9
$ANGBASE
 50
0.0
  9
$ANGDIR
 70
     0
  9
$PDMODE
 70
     0
  9
$PDSIZE
 40
0.0
  9
$PLINEWID
 40
0.0
  9
$COORDS
 70
     0
  9
$USERI1
 70
     0
  9
$USERI2
 70
     0
  9
$USERI3
 70
     0
  9
$USERI4
 70
     0
  9
$USERI5
 70
     0
  9
$USERR1
 40
0.0
  9
$USERR2
 40
0.0
  9
$USERR3
 40
0.0
  9
$USERR4
 40
0.0
  9
$USERR5
 40
0.0
  9
$CLAYER
  8
M0
  9
$EXTMIN
 10
10.0
 20
10.0
  9
$EXTMAX
 10
200.0
 20
285.0
  9
$LIMMIN
 10
0.0
 20
0.0
  9
$LIMMAX
 10
210.0
 20
297.0
  9
$HANDSEED
  5
261
  0
ENDSEC
  0
SECTION
  2
CLASSES
  0
ENDSEC
  0
SECTION
  2
TABLES
  0
TABLE
  2
VPORT
  5
8
100
AcDbSymbolTable
 70
     2
  0
VPORT
  5
14
100
AcDbSymbolTableRecord
100
AcDbViewportTableRecord
  2
*ACTIVE
 70
     0
 10
0.0
 20
0.0
 11
1.0
 21
1.0
 12
484.0
 22
297.0
 13
0.0
 23
0.0
 14
1.0
 24
1.0
 15
0.0
 25
0.0
 16
0.0
 26
0.0
 36
1.0
 17
0.0
 27
0.0
 37
0.0
 40
594.0
 41
2.0
 42
50.0
 43
0.0
 44
0.0
 50
0.0
 51
0.0
 71
     0
 72
   100
 73
     1
 74
     1
 75
     0
 76
     0
 77
     0
 78
     0
  0
ENDTAB
  0
TABLE
  2
LTYPE
  5
5
100
AcDbSymbolTable
 70
     5
  0
LTYPE
  5
15
100
AcDbSymbolTableRecord
100
AcDbLinetypeTableRecord
  2
BYBLOCK
 70
     0
  3

 72
    65
 73
     0
 40
0.0
  0
LTYPE
  5
16
100
AcDbSymbolTableRecord
100
AcDbLinetypeTableRecord
  2
BYLAYER
 70
     0
  3

 72
    65
 73
     0
 40
0.0
  0
LTYPE
  5
17
100
AcDbSymbolTableRecord
100
AcDbLinetypeTableRecord
  2
CONTINUOUS
 70
    64
  3
Solid line
 72
    65
 73
     0
 40
0.0
  0
LTYPE
  5
18
100
AcDbSymbolTableRecord
100
AcDbLinetypeTableRecord
  2
DASHED
 70
    64
  3
__ __ __ __ __ __ __ __ __ __ __ __ __ __ __ __
 72
    65
 73
     2
 40
0.75
 49
0.5
 74
     0
 49
-0.25
 74
     0
  0
LTYPE
  5
19
100
AcDbSymbolTableRecord
100
AcDbLinetypeTableRecord
  2
DASHDOT
 70
    64
  3
__ . __ . __ . __ . __ . __ . __ . __ . __ . __
 72
    65
 73
     4
 40
1.0
 49
0.5
 74
     0
 49
-0.25
 74
     0
 49
0.0
 74
     0
 49
-0.25
 74
     0
  0
LTYPE
  5
1A
100
AcDbSymbolTableRecord
100
AcDbLinetypeTableRecord
  2
DIVIDE
 70
    64
  3
____ . . ____ . . ____ . . ____ . . ____ . . __
 72
    65
 73
     6
 40
1.25
 49
0.5
 74
     0
 49
-0.25
 74
     0
 49
0.0
 74
     0
 49
-0.25
 74
     0
 49
0.0
 74
     0
 49
-0.25
 74
     0
  0
LTYPE
  5
1B
100
AcDbSymbolTableRecord
100
AcDbLinetypeTableRecord
  2
DOT
 70
    64
  3
. . . . . . . . . . . . . . . . . . . . . . . .
 72
    65
 73
     2
 40
0.25
 49
0.0
 74
     0
 49
-0.25
 74
     0
  0
ENDTAB
  0
TABLE
  2
LAYER
  5
2
100
AcDbSymbolTable
 70
   102
  0
LAYER
  5
F
100
AcDbSymbolTableRecord
100
AcDbLayerTableRecord
  2
0
 70
     0
 62
     7
  6
CONTINUOUS
  0
LAYER
  5
1C
100
AcDbSymbolTableRecord
100
AcDbLayerTableRecord
  2
DEFPOINTS
 70
     0
 62
     7
  6
CONTINUOUS
  0
LAYER
  5
1D
100
AcDbSymbolTableRecord
100
AcDbLayerTableRecord
  2
M0
 70
     0
 62
     3
  6
CONTINUOUS
  0
LAYER
  5
1E
100
AcDbSymbolTableRecord
100
AcDbLayerTableRecord
  2
M1
 70
     0
 62
     3
  6
CONTINUOUS
  0
LAYER
  5
1F
100
AcDbSymbolTableRecord
100
AcDbLayerTableRecord
  2
DD0
 70
     0
 62
     4
  6
CONTINUOUS
  0
LAYER
  5
20
100
AcDbSymbolTableRecord
100
AcDbLayerTableRecord
  2
DN0
 70
     0
 62
     2
  6
CONTINUOUS
  0
ENDTAB
  0
TABLE
  2
STYLE
  5
3
100
AcDbSymbolTable
 70
     2
  0
STYLE
  5
10
100
AcDbSymbolTableRecord
100
AcDbTextStyleTableRecord
  2
STANDARD
 70
     0
 40
0.0
 41
1.0
 50
0.0
 71
     0
 42
0.2
  3
txt
  4
BIGFONT
  0
ENDTAB
  0
TABLE
  2
VIEW
  5
6
100
AcDbSymbolTable
 70
     0
  0
ENDTAB
  0
TABLE
  2
UCS
  5
7
100
AcDbSymbolTable
 70
     0
  0
ENDTAB
  0
TABLE
  2
APPID
  5
9
100
AcDbSymbolTable
 70
     1
  0
APPID
  5
11
100
AcDbSymbolTableRecord
100
AcDbRegAppTableRecord
  2
ACAD
 70
     0
  0
ENDTAB
  0
TABLE
  2
DIMSTYLE
  5
A
100
AcDbSymbolTable
 70
     2
  0
DIMSTYLE
105
27
100
AcDbSymbolTableRecord
100
AcDbDimStyleTableRecord
  2
STANDARD
 70
     0
  3

  4

  5

  6
_OPEN
  7
_OPEN
 40
1.0
 41
3.0
 42
1.0
 43
8.0
 44
1.0
 45
0.0
 46
0.0
 47
0.0
 48
0.0
140
3.15
141
0.09
142
0.0
143
0.03937
144
1.0
145
0.0
146
1.0
147
0.6
 71
     0
 72
     0
 73
     1
 74
     1
 75
     0
 76
     0
 77
     3
 78
     8
170
     0
171
     2
172
     0
173
     1
174
     0
175
     0
176
     0
177
     0
178
     0
270
     2
271
     2
272
     4
273
     2
274
     2
340
10
275
     0
280
     0
281
     0
282
     0
283
     1
284
     0
285
     0
286
     0
287
     3
288
     0
  0
DIMSTYLE
105
28
100
AcDbSymbolTableRecord
100
AcDbDimStyleTableRecord
  2
LEADSTYL
 70
     0
  3

  4

  5

  6
_OPEN
  7
_OPEN
 40
1.0
 41
3.0
 42
0.0625
 43
0.38
 44
0.18
 45
0.0
 46
0.0
 47
0.0
 48
0.0
140
3.15
141
0.09
142
0.0
143
25.4
144
1.0
145
0.0
146
1.0
147
0.6
 71
     0
 72
     0
 73
     1
 74
     1
 75
     0
 76
     0
 77
     0
 78
     0
170
     0
171
     2
172
     0
173
     1
174
     0
175
     0
176
     0
177
     0
178
     0
270
     2
271
     4
272
     4
273
     2
274
     2
340
10
275
     0
280
     0
281
     0
282
     0
283
     1
284
     0
285
     0
286
     0
287
     3
288
     0
  0
ENDTAB
  0
TABLE
  2
BLOCK_RECORD
  5
1
100
AcDbSymbolTable
 70
     9
  0
BLOCK_RECORD
  5
21
100
AcDbSymbolTableRecord
100
AcDbBlockTableRecord
  2
*MODEL_SPACE
  0
BLOCK_RECORD
  5
24
100
AcDbSymbolTableRecord
100
AcDbBlockTableRecord
  2
*PAPER_SPACE
  0
BLOCK_RECORD
  5
29
100
AcDbSymbolTableRecord
100
AcDbBlockTableRecord
  2
_NONE
  0
BLOCK_RECORD
  5
2D
100
AcDbSymbolTableRecord
100
AcDbBlockTableRecord
  2
_OPEN
  0
BLOCK_RECORD
  5
33
100
AcDbSymbolTableRecord
100
AcDbBlockTableRecord
  2
_CLOSED
  0
BLOCK_RECORD
  5
3A
100
AcDbSymbolTableRecord
100
AcDbBlockTableRecord
  2
_ORIGIN
  0
BLOCK_RECORD
  5
3F
100
AcDbSymbolTableRecord
100
AcDbBlockTableRecord
  2
_DOT
  0
BLOCK_RECORD
  5
47
100
AcDbSymbolTableRecord
100
AcDbBlockTableRecord
  2
_OBLIQUE
  0
BLOCK_RECORD
  5
4B
100
AcDbSymbolTableRecord
100
AcDbBlockTableRecord
  2
DIMS0
  0
BLOCK_RECORD
  5
57
100
AcDbSymbolTableRecord
100
AcDbBlockTableRecord
  2
DIMS1
  0
BLOCK_RECORD
  5
63
100
AcDbSymbolTableRecord
100
AcDbBlockTableRecord
  2
DIMS2
  0
ENDTAB
  0
ENDSEC
  0
SECTION
  2
BLOCKS
  0
BLOCK
  5
22
100
AcDbEntity
  8
0
100
AcDbBlockBegin
  2
*MODEL_SPACE
 70
     0
 10
0.0
 20
0.0
 30
0.0
  3
*MODEL_SPACE
  1

  0
ENDBLK
  5
23
100
AcDbEntity
  8
0
100
AcDbBlockEnd
  0
BLOCK
  5
25
100
AcDbEntity
 67
     1
  8
0
100
AcDbBlockBegin
  2
*PAPER_SPACE
 70
     0
 10
0.0
 20
0.0
 30
0.0
  3
*PAPER_SPACE
  1

  0
ENDBLK
  5
26
100
AcDbEntity
 67
     1
  8
0
100
AcDbBlockEnd
  0
BLOCK
  5
2A
100
AcDbEntity
  8
0
100
AcDbBlockBegin
  2
_NONE
 70
     0
 10
0.0
 20
0.0
  0
CIRCLE
  5
2B
100
AcDbEntity
  8
0
 62
     0
100
AcDbCircle
 10
0.0
 20
0.0
 40
0.25
  0
ENDBLK
  5
2C
100
AcDbEntity
  8
0
100
AcDbBlockEnd
  0
BLOCK
  5
2E
100
AcDbEntity
  8
0
100
AcDbBlockBegin
  2
_OPEN
 70
     0
 10
0.0
 20
0.0
  0
LINE
  5
2F
100
AcDbEntity
  8
0
 62
     0
100
AcDbLine
 10
-0.965926
 20
0.258819
 11
0.0
 21
0.0
  0
LINE
  5
30
100
AcDbEntity
  8
0
 62
     0
100
AcDbLine
 10
0.0
 20
0.0
 11
-0.965926
 21
-0.258819
  0
LINE
  5
31
100
AcDbEntity
  8
0
 62
     0
100
AcDbLine
 10
0.0
 20
0.0
 11
-1.0
 21
0.0
  0
ENDBLK
  5
32
100
AcDbEntity
  8
0
100
AcDbBlockEnd
  0
BLOCK
  5
34
100
AcDbEntity
  8
0
100
AcDbBlockBegin
  2
_CLOSED
 70
     0
 10
0.0
 20
0.0
  0
LINE
  5
35
100
AcDbEntity
  8
0
 62
     0
100
AcDbLine
 10
-0.965926
 20
0.258819
 11
0.0
 21
0.0
  0
LINE
  5
36
100
AcDbEntity
  8
0
 62
     0
100
AcDbLine
 10
0.0
 20
0.0
 11
-0.965926
 21
-0.258819
  0
LINE
  5
37
100
AcDbEntity
  8
0
 62
     0
100
AcDbLine
 10
-0.965926
 20
0.258819
 11
-0.965926
 21
-0.258819
  0
LINE
  5
38
100
AcDbEntity
  8
0
 62
     0
100
AcDbLine
 10
0.0
 20
0.0
 11
-1.0
 21
0.0
  0
ENDBLK
  5
39
100
AcDbEntity
  8
0
100
AcDbBlockEnd
  0
BLOCK
  5
3B
100
AcDbEntity
  8
0
100
AcDbBlockBegin
  2
_ORIGIN
 70
     0
 10
0.0
 20
0.0
  0
CIRCLE
  5
3C
100
AcDbEntity
  8
0
 62
     0
100
AcDbCircle
 10
0.0
 20
0.0
 40
0.5
  0
LINE
  5
3D
100
AcDbEntity
  8
0
 62
     0
100
AcDbLine
 10
0.0
 20
0.0
 11
-1.0
 21
0.0
  0
ENDBLK
  5
3E
100
AcDbEntity
  8
0
100
AcDbBlockEnd
  0
BLOCK
  5
40
100
AcDbEntity
  8
0
100
AcDbBlockBegin
  2
_DOT
 70
     0
 10
0.0
 20
0.0
  0
POLYLINE
  5
41
100
AcDbEntity
  8
0
 62
     0
100
AcDb2dPolyline
 66
     1
 70
     1
 40
0.5
 41
0.5
  0
VERTEX
  5
42
100
AcDbEntity
  8
0
 62
     0
100
AcDbVertex
100
AcDb2dVertex
 10
-0.25
 20
0.0
 42
1.0
  0
VERTEX
  5
43
100
AcDbEntity
  8
0
 62
     0
100
AcDbVertex
100
AcDb2dVertex
 10
0.25
 20
0.0
 42
1.0
  0
SEQEND
  5
44
100
AcDbEntity
  8
0
 62
     0
  0
LINE
  5
45
100
AcDbEntity
  8
0
 62
     0
100
AcDbLine
 10
-0.5
 20
0.0
 11
-1.0
 21
0.0
  0
ENDBLK
  5
46
100
AcDbEntity
  8
0
100
AcDbBlockEnd
  0
BLOCK
  5
48
100
AcDbEntity
  8
0
100
AcDbBlockBegin
  2
_OBLIQUE
 70
     0
 10
0.0
 20
0.0
  0
LINE
  5
49
100
AcDbEntity
  8
0
 62
     0
100
AcDbLine
 10
-0.353553
 20
-0.353553
 11
0.353553
 21
0.353553
  0
ENDBLK
  5
4A
100
AcDbEntity
  8
0
100
AcDbBlockEnd
  0
BLOCK
  5
4C
100
AcDbEntity
  8
DD0
100
AcDbBlockBegin
  2
DIMS0
 70
     0
 10
0.0
 20
0.0
  0
LINE
  5
4D
100
AcDbEntity
  8
DD0
100
AcDbLine
 10
105.674377
 20
207.984848
 11
105.674377
 21
160.184891
  0
LINE
  5
4E
100
AcDbEntity
  8
DD0
100
AcDbLine
 10
184.174332
 20
195.184845
 11
184.174332
 21
160.184891
  0
LINE
  5
4F
100
AcDbEntity
  8
DD0
100
AcDbLine
 10
108.572155
 20
161.961348
 11
105.674377
 21
161.184891
  0
LINE
  5
50
100
AcDbEntity
  8
DD0
100
AcDbLine
 10
105.674377
 20
161.184891
 11
108.572155
 21
160.408434
  0
LINE
  5
51
100
AcDbEntity
  8
DD0
100
AcDbLine
 10
181.276554
 20
160.408434
 11
184.174332
 21
161.184891
  0
LINE
  5
52
100
AcDbEntity
  8
DD0
100
AcDbLine
 10
184.174332
 20
161.184891
 11
181.276554
 21
161.961348
  0
LINE
  5
53
100
AcDbEntity
  8
DD0
100
AcDbLine
 10
105.674377
 20
161.184891
 11
184.174332
 21
161.184891
  0
TEXT
  5
54
100
AcDbEntity
  8
DD0
100
AcDbText
 10
138.881845
 20
161.784897
 40
3.15
  1
７８．５
 41
0.833333
  7
STANDARD
100
AcDbText
  0
ENDBLK
  5
55
100
AcDbEntity
  8
DD0
100
AcDbBlockEnd
  0
BLOCK
  5
58
100
AcDbEntity
  8
DD0
100
AcDbBlockBegin
  2
DIMS1
 70
     0
 10
0.0
 20
0.0
  0
LINE
  5
59
100
AcDbEntity
  8
DD0
100
AcDbLine
 10
31.674374
 20
176.18483
 11
31.674374
 21
160.184845
  0
LINE
  5
5A
100
AcDbEntity
  8
DD0
100
AcDbLine
 10
76.67437
 20
176.68486
 11
76.67437
 21
160.184845
  0
LINE
  5
5B
100
AcDbEntity
  8
DD0
100
AcDbLine
 10
34.572151
 20
161.961302
 11
31.674374
 21
161.184845
  0
LINE
  5
5C
100
AcDbEntity
  8
DD0
100
AcDbLine
 10
31.674374
 20
161.184845
 11
34.572151
 21
160.408388
  0
LINE
  5
5D
100
AcDbEntity
  8
DD0
100
AcDbLine
 10
73.776592
 20
160.408388
 11
76.67437
 21
161.184845
  0
LINE
  5
5E
100
AcDbEntity
  8
DD0
100
AcDbLine
 10
76.67437
 20
161.184845
 11
73.776592
 21
161.961302
  0
LINE
  5
5F
100
AcDbEntity
  8
DD0
100
AcDbLine
 10
31.674374
 20
161.184845
 11
76.67437
 21
161.184845
  0
TEXT
  5
60
100
AcDbEntity
  8
DD0
100
AcDbText
 10
51.281869
 20
161.784851
 40
3.15
  1
４５
 41
0.833333
  7
STANDARD
100
AcDbText
  0
ENDBLK
  5
61
100
AcDbEntity
  8
DD0
100
AcDbBlockEnd
  0
BLOCK
  5
64
100
AcDbEntity
  8
DD0
100
AcDbBlockBegin
  2
DIMS2
 70
     0
 10
0.0
 20
0.0
  0
LINE
  5
65
100
AcDbEntity
  8
DD0
100
AcDbLine
 10
41.174374
 20
174.684845
 11
23.060066
 21
174.684845
  0
LINE
  5
66
100
AcDbEntity
  8
DD0
100
AcDbLine
 10
35.174381
 20
245.484818
 11
23.060066
 21
245.484818
  0
LINE
  5
67
100
AcDbEntity
  8
DD0
100
AcDbLine
 10
23.283609
 20
177.582622
 11
24.060066
 21
174.684845
  0
LINE
  5
68
100
AcDbEntity
  8
DD0
100
AcDbLine
 10
24.060066
 20
174.684845
 11
24.836523
 21
177.582622
  0
LINE
  5
69
100
AcDbEntity
  8
DD0
100
AcDbLine
 10
24.836523
 20
242.58704
 11
24.060066
 21
245.484818
  0
LINE
  5
6A
100
AcDbEntity
  8
DD0
100
AcDbLine
 10
24.060066
 20
245.484818
 11
23.283609
 21
242.58704
  0
LINE
  5
6B
100
AcDbEntity
  8
DD0
100
AcDbLine
 10
24.060066
 20
174.684845
 11
24.060066
 21
245.484818
  0
TEXT
  5
6C
100
AcDbEntity
  8
DD0
100
AcDbText
 10
23.460066
 20
207.192346
 40
3.15
  1
７１
 50
90.000003
 41
0.833333
  7
STANDARD
100
AcDbText
  0
ENDBLK
  5
6D
100
AcDbEntity
  8
DD0
100
AcDbBlockEnd
  0
ENDSEC
  0
SECTION
  2
ENTITIES
  0
INSERT
  5
56
100
AcDbEntity
  8
DD0
100
AcDbBlockReference
  2
DIMS0
 10
0.0
 20
0.0
  0
INSERT
  5
62
100
AcDbEntity
  8
DD0
100
AcDbBlockReference
  2
DIMS1
 10
0.0
 20
0.0
  0
INSERT
  5
6E
100
AcDbEntity
  8
DD0
100
AcDbBlockReference
  2
DIMS2
 10
0.0
 20
0.0
  0
TEXT
  5
6F
100
AcDbEntity
  8
M0
100
AcDbText
 10
35.799357
 20
187.934844
 40
4.0
  1
２
 41
0.9375
  7
STANDARD
100
AcDbText
  0
TEXT
  5
70
100
AcDbEntity
  8
M0
100
AcDbText
 10
45.174357
 20
187.934844
 40
4.0
  1
４
 41
1.25
  7
STANDARD
100
AcDbText
  0
TEXT
  5
71
100
AcDbEntity
  8
M0
100
AcDbText
 10
55.174357
 20
187.93486
 40
4.0
  1
６
 41
1.25
  7
STANDARD
100
AcDbText
  0
TEXT
  5
72
100
AcDbEntity
  8
M0
100
AcDbText
 10
65.50769
 20
187.93486
 40
4.0
  1
Ｃ２
 41
0.833333
  7
STANDARD
100
AcDbText
  0
TEXT
  5
73
100
AcDbEntity
  8
M0
100
AcDbText
 10
38.840993
 20
204.184844
 40
2.0
  1
９８
 41
0.833333
  7
STANDARD
100
AcDbText
  0
TEXT
  5
74
100
AcDbEntity
  8
M0
100
AcDbText
 10
48.840993
 20
204.184844
 40
2.0
  1
９７
 41
0.833333
  7
STANDARD
100
AcDbText
  0
TEXT
  5
75
100
AcDbEntity
  8
M0
100
AcDbText
 10
55.840993
 20
204.18486
 40
2.0
  1
９５
 41
0.833333
  7
STANDARD
100
AcDbText
  0
TEXT
  5
76
100
AcDbEntity
  8
M0
100
AcDbText
 10
68.841008
 20
204.18486
 40
2.0
  1
９６
 41
0.833333
  7
STANDARD
100
AcDbText
  0
LINE
  5
77
100
AcDbEntity
  8
M0
100
AcDbLine
 10
181.174342
 20
220.38475
 11
184.174342
 21
220.38475
  0
LINE
  5
78
100
AcDbEntity
  8
M0
100
AcDbLine
 10
181.174342
 20
222.184799
 11
184.174342
 21
222.184799
  0
LINE
  5
79
100
AcDbEntity
  8
M0
 62
     7
100
AcDbLine
 10
184.174339
 20
196.184843
 11
184.174347
 21
222.184813
  0
LINE
  5
7A
100
AcDbEntity
  8
M0
 62
     7
100
AcDbLine
 10
181.174346
 20
219.184844
 11
144.174376
 21
219.184856
  0
LINE
  5
7B
100
AcDbEntity
  8
M0
 62
     7
100
AcDbLine
 10
110.174346
 20
219.184866
 11
110.174357
 21
207.684866
  0
LINE
  5
7C
100
AcDbEntity
  8
M0
 62
     7
100
AcDbLine
 10
159.674337
 20
190.184851
 11
175.674337
 21
190.184846
  0
LINE
  5
7D
100
AcDbEntity
  8
M0
 62
     7
100
AcDbLine
 10
181.174347
 20
222.184798
 11
181.174346
 21
219.184844
  0
LINE
  5
7E
100
AcDbEntity
  8
M0
 62
     7
100
AcDbLine
 10
176.674337
 20
191.184846
 11
176.674338
 21
194.684846
  0
LINE
  5
7F
100
AcDbEntity
  8
M0
 62
     7
100
AcDbLine
 10
177.174338
 20
195.184845
 11
183.174338
 21
195.184844
  0
ARC
  5
80
100
AcDbEntity
  8
M0
 62
     7
100
AcDbCircle
 10
183.174339
 20
196.184844
 40
1.0
100
AcDbArc
 50
270.0
 51
359.999982
  0
ARC
  5
81
100
AcDbEntity
  8
M0
 62
     7
100
AcDbCircle
 10
175.674337
 20
191.184846
 40
1.0
100
AcDbArc
 50
270.0
 51
359.999982
  0
LINE
  5
82
100
AcDbEntity
  8
M0
 62
     7
100
AcDbLine
 10
144.174361
 20
219.184856
 11
144.17436
 21
215.184856
  0
LINE
  5
83
100
AcDbEntity
  8
M0
 62
     7
100
AcDbLine
 10
144.17436
 20
215.184856
 11
134.674375
 21
215.184859
  0
LINE
  5
84
100
AcDbEntity
  8
M0
 62
     7
100
AcDbLine
 10
134.674375
 20
214.184859
 11
131.674375
 21
214.18486
  0
LINE
  5
85
100
AcDbEntity
  8
M0
 62
     7
100
AcDbLine
 10
126.17436
 20
214.684861
 11
110.174344
 21
214.684866
  0
LINE
  5
86
100
AcDbEntity
  8
M0
 62
     7
100
AcDbLine
 10
126.17436
 20
214.684861
 11
126.17436
 21
215.184861
  0
LINE
  5
87
100
AcDbEntity
  8
M0
 62
     7
100
AcDbLine
 10
115.574396
 20
204.184865
 11
110.174341
 21
204.184866
  0
LINE
  5
88
100
AcDbEntity
  8
M0
 62
     7
100
AcDbLine
 10
115.574397
 20
207.684865
 11
115.574394
 21
199.184849
  0
LINE
  5
89
100
AcDbEntity
  8
M0
 62
     7
100
AcDbLine
 10
121.574408
 20
193.184863
 11
127.174368
 21
193.184861
  0
LINE
  5
8A
100
AcDbEntity
  8
M0
 62
     7
100
AcDbLine
 10
120.274389
 20
191.184863
 11
128.545049
 21
191.184861
  0
ARC
  5
8B
100
AcDbEntity
  8
M0
 62
     7
100
AcDbCircle
 10
121.574394
 20
199.184863
 40
6.0
100
AcDbArc
 50
179.999836
 51
270.0
  0
LINE
  5
8C
100
AcDbEntity
  8
M0
 62
     7
100
AcDbLine
 10
150.917191
 20
174.684854
 11
138.753296
 21
174.684857
  0
LINE
  5
8D
100
AcDbEntity
  8
M0
 62
     7
100
AcDbLine
 10
153.121705
 20
177.184853
 11
141.174394
 21
177.184857
  0
LINE
  5
8E
100
AcDbEntity
  8
M0
 62
     7
100
AcDbLine
 10
159.674337
 20
190.184851
 11
156.71274
 21
179.131934
  0
ARC
  5
8F
100
AcDbEntity
  8
M0
 62
     7
100
AcDbCircle
 10
153.121706
 20
181.184853
 40
4.0
100
AcDbArc
 50
270.0
 51
344.999972
  0
ARC
  5
90
100
AcDbEntity
  8
M0
 62
     7
100
AcDbCircle
 10
150.917193
 20
180.684854
 40
6.0
100
AcDbArc
 50
270.0
 51
344.999972
  0
LINE
  5
91
100
AcDbEntity
  8
M0
 62
     7
100
AcDbLine
 10
134.674375
 20
215.184859
 11
134.674375
 21
214.184859
  0
LINE
  5
92
100
AcDbEntity
  8
M0
 62
     7
100
AcDbLine
 10
131.674375
 20
215.184844
 11
131.674375
 21
214.184844
  0
LINE
  5
93
100
AcDbEntity
  8
M0
 62
     7
100
AcDbLine
 10
131.674375
 20
215.18486
 11
126.17436
 21
215.184861
  0
LINE
  5
94
100
AcDbEntity
  8
M0
 62
     7
100
AcDbLine
 10
128.174368
 20
191.184861
 11
128.174369
 21
195.184861
  0
ARC
  5
95
100
AcDbEntity
  8
M0
 62
     7
100
AcDbCircle
 10
127.174368
 20
194.184861
 40
1.0
100
AcDbArc
 50
270.0
 51
359.999982
  0
LINE
  5
96
100
AcDbEntity
  8
M0
 62
     7
100
AcDbLine
 10
114.274375
 20
197.184865
 11
114.274378
 21
204.184865
  0
ARC
  5
97
100
AcDbEntity
  8
M0
 62
     7
100
AcDbCircle
 10
120.274375
 20
197.184863
 40
6.0
100
AcDbArc
 50
179.999836
 51
270.0
  0
LINE
  5
98
100
AcDbEntity
  8
M0
 62
     7
100
AcDbLine
 10
131.174368
 20
191.68486
 11
131.174369
 21
195.18486
  0
LINE
  5
99
100
AcDbEntity
  8
M0
 62
     7
100
AcDbLine
 10
128.174369
 20
195.184861
 11
131.174369
 21
195.18486
  0
LINE
  5
9A
100
AcDbEntity
  8
M0
 62
     7
100
AcDbLine
 10
135.174367
 20
188.184859
 11
134.674367
 21
188.184859
  0
LINE
  5
9B
100
AcDbEntity
  8
M0
 62
     7
100
AcDbLine
 10
130.674307
 20
191.68486
 11
131.174368
 21
191.68486
  0
LINE
  5
9C
100
AcDbEntity
  8
M0
 62
     7
100
AcDbLine
 10
130.674307
 20
191.68486
 11
129.062704
 21
191.253022
  0
LINE
  5
9D
100
AcDbEntity
  8
M0
 62
     7
100
AcDbLine
 10
131.174368
 20
191.68486
 11
134.674367
 21
188.184859
  0
LINE
  5
9E
100
AcDbEntity
  8
M0
 62
     7
100
AcDbLine
 10
135.174382
 20
188.184859
 11
135.174395
 21
180.684843
  0
ARC
  5
9F
100
AcDbEntity
  8
M0
 62
     7
100
AcDbCircle
 10
141.174396
 20
183.184857
 40
6.0
100
AcDbArc
 50
179.999836
 51
270.0
  0
ARC
  5
A0
100
AcDbEntity
  8
M0
 62
     7
100
AcDbCircle
 10
141.174395
 20
180.684857
 40
6.0
100
AcDbArc
 50
179.999836
 51
270.0
  0
ARC
  5
A1
100
AcDbEntity
  8
M0
 62
     7
100
AcDbCircle
 10
128.54505
 20
193.184861
 40
2.0
100
AcDbArc
 50
270.0
 51
285.00095
  0
LINE
  5
A2
100
AcDbEntity
  8
M0
 62
     7
100
AcDbLine
 10
133.674365
 20
182.184859
 11
133.674367
 21
189.184859
  0
LINE
  5
A3
100
AcDbEntity
  8
M0
 62
     7
100
AcDbLine
 10
133.674365
 20
182.184859
 11
134.889588
 21
177.64958
  0
ARC
  5
A4
100
AcDbEntity
  8
M0
 62
     7
100
AcDbCircle
 10
138.753297
 20
178.684857
 40
4.0
100
AcDbArc
 50
194.999838
 51
270.0
  0
LINE
  5
A5
100
AcDbEntity
  8
M0
 62
     7
100
AcDbLine
 10
164.575841
 20
188.684849
 11
159.27242
 21
188.684851
  0
ARC
  5
A6
100
AcDbEntity
  8
M0
 62
     7
100
AcDbCircle
 10
164.575842
 20
192.684849
 40
4.0
100
AcDbArc
 50
270.0
 51
321.318004
  0
ARC
  5
A7
100
AcDbEntity
  8
M0
 62
     7
100
AcDbCircle
 10
177.174338
 20
194.684845
 40
0.5
100
AcDbArc
 50
90.0
 51
179.998233
  0
LINE
  5
A8
100
AcDbEntity
  8
M0
 62
     7
100
AcDbLine
 10
31.674346
 20
219.184834
 11
31.674373
 21
177.184834
  0
LINE
  5
A9
100
AcDbEntity
  8
M0
 62
     7
100
AcDbLine
 10
42.174374
 20
174.684841
 11
43.174374
 21
174.684842
  0
LINE
  5
AA
100
AcDbEntity
  8
M0
 62
     7
100
AcDbLine
 10
76.674372
 20
177.684863
 11
76.674356
 21
203.184863
  0
LINE
  5
AB
100
AcDbEntity
  8
M0
 62
     7
100
AcDbLine
 10
74.674372
 20
177.684861
 11
74.674372
 21
179.184861
  0
LINE
  5
AC
100
AcDbEntity
  8
M0
 62
     7
100
AcDbLine
 10
63.674374
 20
175.184855
 11
63.674372
 21
179.184855
  0
LINE
  5
AD
100
AcDbEntity
  8
M0
 62
     7
100
AcDbLine
 10
31.674346
 20
219.184819
 11
35.674362
 21
219.184822
  0
LINE
  5
AE
100
AcDbEntity
  8
M0
 62
     7
100
AcDbLine
 10
74.674372
 20
179.184861
 11
63.674372
 21
179.184855
  0
LINE
  5
AF
100
AcDbEntity
  8
M0
 62
     7
100
AcDbLine
 10
76.174373
 20
177.184862
 11
75.174373
 21
177.184862
  0
LINE
  5
B0
100
AcDbEntity
  8
M0
 62
     7
100
AcDbLine
 10
61.674367
 20
186.684853
 11
61.674374
 21
175.184853
  0
LINE
  5
B1
100
AcDbEntity
  8
M0
 62
     7
100
AcDbLine
 10
53.674364
 20
191.684848
 11
53.674374
 21
175.184848
  0
LINE
  5
B2
100
AcDbEntity
  8
M0
 62
     7
100
AcDbLine
 10
51.674364
 20
191.684847
 11
51.674374
 21
175.184847
  0
LINE
  5
B3
100
AcDbEntity
  8
M0
 62
     7
100
AcDbLine
 10
43.674374
 20
175.184842
 11
43.674364
 21
191.684842
  0
LINE
  5
B4
100
AcDbEntity
  8
M0
 62
     7
100
AcDbLine
 10
41.674364
 20
191.684841
 11
41.674374
 21
175.184841
  0
LINE
  5
B5
100
AcDbEntity
  8
M0
 62
     7
100
AcDbLine
 10
65.174372
 20
179.184855
 11
65.174367
 21
186.684855
  0
LINE
  5
B6
100
AcDbEntity
  8
M0
 62
     7
100
AcDbLine
 10
61.674373
 20
177.184853
 11
53.674373
 21
177.184848
  0
LINE
  5
B7
100
AcDbEntity
  8
M0
 62
     7
100
AcDbLine
 10
51.674373
 20
177.184847
 11
43.674373
 21
177.184842
  0
LINE
  5
B8
100
AcDbEntity
  8
M0
 62
     7
100
AcDbLine
 10
41.674373
 20
177.184841
 11
31.674373
 21
177.184834
  0
LINE
  5
B9
100
AcDbEntity
  8
M0
 62
     7
100
AcDbLine
 10
60.674366
 20
187.684853
 11
54.674366
 21
187.684849
  0
LINE
  5
BA
100
AcDbEntity
  8
M0
 62
     7
100
AcDbLine
 10
50.674366
 20
187.684846
 11
44.674366
 21
187.684843
  0
LINE
  5
BB
100
AcDbEntity
  8
M0
 62
     7
100
AcDbLine
 10
62.174374
 20
174.684854
 11
63.174374
 21
174.684854
  0
LINE
  5
BC
100
AcDbEntity
  8
M0
 62
     7
100
AcDbLine
 10
52.174374
 20
174.684847
 11
53.174374
 21
174.684848
  0
LINE
  5
BD
100
AcDbEntity
  8
M0
 62
     7
100
AcDbLine
 10
36.674362
 20
193.684822
 11
36.674356
 21
204.184838
  0
LINE
  5
BE
100
AcDbEntity
  8
M0
 62
     7
100
AcDbLine
 10
34.674346
 20
219.184836
 11
34.674363
 21
193.184836
  0
LINE
  5
BF
100
AcDbEntity
  8
M0
 62
     7
100
AcDbLine
 10
36.174363
 20
193.184837
 11
32.174363
 21
193.184835
  0
LINE
  5
C0
100
AcDbEntity
  8
M0
 62
     7
100
AcDbLine
 10
74.674362
 20
193.684861
 11
74.674358
 21
200.584862
  0
LINE
  5
C1
100
AcDbEntity
  8
M0
 62
     7
100
AcDbLine
 10
66.674358
 20
200.584857
 11
66.674363
 21
192.184856
  0
LINE
  5
C2
100
AcDbEntity
  8
M0
 62
     7
100
AcDbLine
 10
64.674363
 20
192.184855
 11
64.674356
 21
203.184855
  0
LINE
  5
C3
100
AcDbEntity
  8
M0
 62
     7
100
AcDbLine
 10
56.674356
 20
203.18485
 11
56.674363
 21
192.18485
  0
LINE
  5
C4
100
AcDbEntity
  8
M0
 62
     7
100
AcDbLine
 10
54.674363
 20
192.184849
 11
54.674356
 21
203.184849
  0
LINE
  5
C5
100
AcDbEntity
  8
M0
 62
     7
100
AcDbLine
 10
46.674356
 20
203.184844
 11
46.674363
 21
192.184844
  0
LINE
  5
C6
100
AcDbEntity
  8
M0
 62
     7
100
AcDbLine
 10
44.674356
 20
203.184843
 11
44.674363
 21
192.184843
  0
LINE
  5
C7
100
AcDbEntity
  8
M0
 62
     7
100
AcDbLine
 10
76.174363
 20
193.184862
 11
75.174363
 21
193.184862
  0
LINE
  5
C8
100
AcDbEntity
  8
M0
 62
     7
100
AcDbLine
 10
53.174368
 20
184.684848
 11
52.174368
 21
184.684847
  0
LINE
  5
C9
100
AcDbEntity
  8
M0
 62
     7
100
AcDbLine
 10
43.174368
 20
184.684842
 11
42.174368
 21
184.684841
  0
LINE
  5
CA
100
AcDbEntity
  8
M0
 62
     7
100
AcDbLine
 10
46.174364
 20
191.684844
 11
45.174364
 21
191.684843
  0
LINE
  5
CB
100
AcDbEntity
  8
M0
 62
     7
100
AcDbLine
 10
56.174364
 20
191.68485
 11
55.174364
 21
191.684849
  0
LINE
  5
CC
100
AcDbEntity
  8
M0
 62
     7
100
AcDbLine
 10
66.174364
 20
191.684856
 11
65.174364
 21
191.684855
  0
LINE
  5
CD
100
AcDbEntity
  8
M0
 62
     7
100
AcDbLine
 10
66.674363
 20
192.184856
 11
76.674363
 21
192.184863
  0
LINE
  5
CE
100
AcDbEntity
  8
M0
 62
     7
100
AcDbLine
 10
56.674363
 20
192.18485
 11
64.674363
 21
192.184855
  0
LINE
  5
CF
100
AcDbEntity
  8
M0
 62
     7
100
AcDbLine
 10
46.674363
 20
192.184844
 11
54.674363
 21
192.184849
  0
ARC
  5
D0
100
AcDbEntity
  8
M0
 62
     7
100
AcDbCircle
 10
42.174374
 20
175.184841
 40
0.5
100
AcDbArc
 50
180.000036
 51
270.0
  0
ARC
  5
D1
100
AcDbEntity
  8
M0
 62
     7
100
AcDbCircle
 10
43.174374
 20
175.184842
 40
0.5
100
AcDbArc
 50
270.0
 51
360.000036
  0
ARC
  5
D2
100
AcDbEntity
  8
M0
 62
     7
100
AcDbCircle
 10
52.174374
 20
175.184847
 40
0.5
100
AcDbArc
 50
180.000036
 51
270.0
  0
ARC
  5
D3
100
AcDbEntity
  8
M0
 62
     7
100
AcDbCircle
 10
53.174374
 20
175.184848
 40
0.5
100
AcDbArc
 50
270.0
 51
360.000036
  0
ARC
  5
D4
100
AcDbEntity
  8
M0
 62
     7
100
AcDbCircle
 10
62.174374
 20
175.184854
 40
0.5
100
AcDbArc
 50
180.000036
 51
270.0
  0
ARC
  5
D5
100
AcDbEntity
  8
M0
 62
     7
100
AcDbCircle
 10
63.174374
 20
175.184854
 40
0.5
100
AcDbArc
 50
270.0
 51
360.000036
  0
ARC
  5
D6
100
AcDbEntity
  8
M0
 62
     7
100
AcDbCircle
 10
75.174372
 20
177.684862
 40
0.5
100
AcDbArc
 50
180.000036
 51
269.998287
  0
ARC
  5
D7
100
AcDbEntity
  8
M0
 62
     7
100
AcDbCircle
 10
76.174372
 20
177.684862
 40
0.5
100
AcDbArc
 50
269.998287
 51
360.000036
  0
ARC
  5
D8
100
AcDbEntity
  8
M0
 62
     7
100
AcDbCircle
 10
42.174368
 20
185.184841
 40
0.5
100
AcDbArc
 50
180.000036
 51
270.0
  0
ARC
  5
D9
100
AcDbEntity
  8
M0
 62
     7
100
AcDbCircle
 10
43.174368
 20
185.184842
 40
0.5
100
AcDbArc
 50
270.0
 51
360.000036
  0
ARC
  5
DA
100
AcDbEntity
  8
M0
 62
     7
100
AcDbCircle
 10
52.174368
 20
185.184847
 40
0.5
100
AcDbArc
 50
180.000036
 51
270.0
  0
ARC
  5
DB
100
AcDbEntity
  8
M0
 62
     7
100
AcDbCircle
 10
53.174368
 20
185.184848
 40
0.5
100
AcDbArc
 50
270.0
 51
360.000036
  0
ARC
  5
DC
100
AcDbEntity
  8
M0
 62
     7
100
AcDbCircle
 10
75.174362
 20
193.684862
 40
0.5
100
AcDbArc
 50
180.000036
 51
269.998287
  0
ARC
  5
DD
100
AcDbEntity
  8
M0
 62
     7
100
AcDbCircle
 10
76.174362
 20
193.684862
 40
0.5
100
AcDbArc
 50
269.998287
 51
360.000036
  0
ARC
  5
DE
100
AcDbEntity
  8
M0
 62
     7
100
AcDbCircle
 10
75.674356
 20
203.184862
 40
1.0
100
AcDbArc
 50
0.0
 51
90.0
  0
ARC
  5
DF
100
AcDbEntity
  8
M0
 62
     7
100
AcDbCircle
 10
63.674356
 20
203.184855
 40
1.0
100
AcDbArc
 50
0.0
 51
90.0
  0
ARC
  5
E0
100
AcDbEntity
  8
M0
 62
     7
100
AcDbCircle
 10
57.674356
 20
203.184851
 40
1.0
100
AcDbArc
 50
90.0
 51
180.000036
  0
ARC
  5
E1
100
AcDbEntity
  8
M0
 62
     7
100
AcDbCircle
 10
53.674356
 20
203.184848
 40
1.0
100
AcDbArc
 50
0.0
 51
90.0
  0
LINE
  5
E2
100
AcDbEntity
  8
M0
 62
     7
100
AcDbLine
 10
71.674366
 20
187.68486
 11
66.174366
 21
187.684856
  0
LINE
  5
E3
100
AcDbEntity
  8
M0
 62
     7
100
AcDbLine
 10
73.174372
 20
179.18486
 11
73.174369
 21
183.68486
  0
LINE
  5
E4
100
AcDbEntity
  8
M0
 62
     7
100
AcDbLine
 10
32.174364
 20
191.934835
 11
44.674364
 21
191.934843
  0
LINE
  5
E5
100
AcDbEntity
  8
M0
 62
     7
100
AcDbLine
 10
40.674366
 20
187.68484
 11
35.174366
 21
187.684837
  0
LINE
  5
E6
100
AcDbEntity
  8
M0
 62
     7
100
AcDbLine
 10
33.674373
 20
177.184836
 11
33.674367
 21
186.184836
  0
LINE
  5
E7
100
AcDbEntity
  8
M0
 62
     7
100
AcDbLine
 10
75.674356
 20
204.184862
 11
38.434442
 21
204.184839
  0
ARC
  5
E8
100
AcDbEntity
  8
M0
 62
     7
100
AcDbCircle
 10
47.674356
 20
203.184844
 40
1.0
100
AcDbArc
 50
90.0
 51
180.000036
  0
ARC
  5
E9
100
AcDbEntity
  8
M0
 62
     7
100
AcDbCircle
 10
43.674356
 20
203.184842
 40
1.0
100
AcDbArc
 50
0.0
 51
90.0
  0
ARC
  5
EA
100
AcDbEntity
  8
M0
 62
     7
100
AcDbCircle
 10
50.674364
 20
191.184846
 40
1.0
100
AcDbArc
 50
3.597218E-005
 51
90.0
  0
ARC
  5
EB
100
AcDbEntity
  8
M0
 62
     7
100
AcDbCircle
 10
44.674364
 20
191.184843
 40
1.0
100
AcDbArc
 50
90.0
 51
180.000036
  0
ARC
  5
EC
100
AcDbEntity
  8
M0
 62
     7
100
AcDbCircle
 10
54.674364
 20
191.184849
 40
1.0
100
AcDbArc
 50
90.0
 51
180.000036
  0
ARC
  5
ED
100
AcDbEntity
  8
M0
 62
     7
100
AcDbCircle
 10
53.174364
 20
191.684848
 40
0.5
100
AcDbArc
 50
3.597218E-005
 51
90.0
  0
ARC
  5
EE
100
AcDbEntity
  8
M0
 62
     7
100
AcDbCircle
 10
52.174364
 20
191.684847
 40
0.5
100
AcDbArc
 50
90.0
 51
180.000036
  0
ARC
  5
EF
100
AcDbEntity
  8
M0
 62
     7
100
AcDbCircle
 10
43.174364
 20
191.684842
 40
0.5
100
AcDbArc
 50
3.597218E-005
 51
90.0
  0
ARC
  5
F0
100
AcDbEntity
  8
M0
 62
     7
100
AcDbCircle
 10
42.174364
 20
191.684841
 40
0.5
100
AcDbArc
 50
90.0
 51
180.000036
  0
ARC
  5
F1
100
AcDbEntity
  8
M0
 62
     7
100
AcDbCircle
 10
45.174363
 20
192.184843
 40
0.5
100
AcDbArc
 50
180.000036
 51
270.0
  0
ARC
  5
F2
100
AcDbEntity
  8
M0
 62
     7
100
AcDbCircle
 10
46.174363
 20
192.184844
 40
0.5
100
AcDbArc
 50
270.0
 51
360.000036
  0
ARC
  5
F3
100
AcDbEntity
  8
M0
 62
     7
100
AcDbCircle
 10
55.174363
 20
192.184849
 40
0.5
100
AcDbArc
 50
180.000036
 51
270.0
  0
ARC
  5
F4
100
AcDbEntity
  8
M0
 62
     7
100
AcDbCircle
 10
56.174363
 20
192.18485
 40
0.5
100
AcDbArc
 50
270.0
 51
360.000036
  0
ARC
  5
F5
100
AcDbEntity
  8
M0
 62
     7
100
AcDbCircle
 10
65.174363
 20
192.184855
 40
0.5
100
AcDbArc
 50
180.000036
 51
269.998287
  0
ARC
  5
F6
100
AcDbEntity
  8
M0
 62
     7
100
AcDbCircle
 10
66.174363
 20
192.184856
 40
0.5
100
AcDbArc
 50
269.998287
 51
360.000036
  0
ARC
  5
F7
100
AcDbEntity
  8
M0
 62
     7
100
AcDbCircle
 10
36.174362
 20
193.684837
 40
0.5
100
AcDbArc
 50
270.0
 51
360.000036
  0
ARC
  5
F8
100
AcDbEntity
  8
M0
 62
     7
100
AcDbCircle
 10
32.174362
 20
193.684835
 40
0.5
100
AcDbArc
 50
180.000036
 51
270.0
  0
ARC
  5
F9
100
AcDbEntity
  8
M0
 62
     7
100
AcDbCircle
 10
66.174367
 20
186.684856
 40
1.0
100
AcDbArc
 50
90.0
 51
180.000036
  0
ARC
  5
FA
100
AcDbEntity
  8
M0
 62
     7
100
AcDbCircle
 10
60.674367
 20
186.684853
 40
1.0
100
AcDbArc
 50
3.597218E-005
 51
90.0
  0
ARC
  5
FB
100
AcDbEntity
  8
M0
 62
     7
100
AcDbCircle
 10
54.674367
 20
186.684849
 40
1.0
100
AcDbArc
 50
90.0
 51
180.000036
  0
ARC
  5
FC
100
AcDbEntity
  8
M0
 62
     7
100
AcDbCircle
 10
50.674367
 20
186.684846
 40
1.0
100
AcDbArc
 50
3.597218E-005
 51
90.0
  0
ARC
  5
FD
100
AcDbEntity
  8
M0
 62
     7
100
AcDbCircle
 10
44.674367
 20
186.684843
 40
1.0
100
AcDbArc
 50
90.0
 51
180.000036
  0
ARC
  5
FE
100
AcDbEntity
  8
M0
 62
     7
100
AcDbCircle
 10
40.674367
 20
186.68484
 40
1.0
100
AcDbArc
 50
3.597218E-005
 51
90.0
  0
LINE
  5
FF
100
AcDbEntity
  8
M0
 62
     7
100
AcDbLine
 10
36.674358
 20
200.584838
 11
37.470924
 21
203.452481
  0
LINE
  5
100
100
AcDbEntity
  8
M0
 62
     7
100
AcDbLine
 10
66.674358
 20
200.584857
 11
67.470911
 21
203.4525
  0
ARC
  5
101
100
AcDbEntity
  8
M0
 62
     7
100
AcDbCircle
 10
68.434427
 20
203.184858
 40
1.0
100
AcDbArc
 50
90.0
 51
164.476182
  0
ARC
  5
102
100
AcDbEntity
  8
M0
 62
     7
100
AcDbCircle
 10
38.434443
 20
203.184839
 40
1.0
100
AcDbArc
 50
90.0
 51
164.475963
  0
LINE
  5
103
100
AcDbEntity
  8
M0
 62
     7
100
AcDbLine
 10
73.174369
 20
183.68486
 11
72.704214
 21
185.565445
  0
ARC
  5
104
100
AcDbEntity
  8
M0
 62
     7
100
AcDbCircle
 10
73.674367
 20
185.807969
 40
1.0
100
AcDbArc
 50
180.000036
 51
194.034583
  0
LINE
  5
105
100
AcDbEntity
  8
M0
 62
     7
100
AcDbLine
 10
72.674367
 20
186.68486
 11
72.674367
 21
185.807968
  0
ARC
  5
106
100
AcDbEntity
  8
M0
 62
     7
100
AcDbCircle
 10
71.674367
 20
186.68486
 40
1.0
100
AcDbArc
 50
3.597218E-005
 51
90.0
  0
ARC
  5
107
100
AcDbEntity
  8
M0
 62
     7
100
AcDbCircle
 10
32.174363
 20
192.684835
 40
0.5
100
AcDbArc
 50
180.000036
 51
270.0
  0
ARC
  5
108
100
AcDbEntity
  8
M0
 62
     7
100
AcDbCircle
 10
35.174367
 20
186.184837
 40
1.5
100
AcDbArc
 50
90.0
 51
180.000036
  0
LINE
  5
109
100
AcDbEntity
  8
M0
 62
     7
100
AcDbLine
 10
34.974361
 20
196.684836
 11
34.674361
 21
196.684836
  0
LINE
  5
10A
100
AcDbEntity
  8
M0
 62
     7
100
AcDbLine
 10
35.474362
 20
195.184837
 11
34.974362
 21
195.184836
  0
LINE
  5
10B
100
AcDbEntity
  8
M0
 62
     7
100
AcDbLine
 10
34.974362
 20
195.184836
 11
34.974361
 21
196.684836
  0
LINE
  5
10C
100
AcDbEntity
  8
M0
 62
     7
100
AcDbLine
 10
35.474363
 20
193.184837
 11
35.474362
 21
195.184837
  0
LINE
  5
10D
100
AcDbEntity
  8
M0
 62
     7
100
AcDbLine
 10
74.674358
 20
200.584862
 11
73.979502
 21
203.086327
  0
ARC
  5
10E
100
AcDbEntity
  8
M0
 62
     7
100
AcDbCircle
 10
72.53422
 20
202.68486
 40
1.5
100
AcDbArc
 50
15.524197
 51
90.0
  0
LINE
  5
10F
100
AcDbEntity
  8
M0
 62
     1
100
AcDbLine
 10
67.474372
 20
221.184839
 11
36.174369
 21
221.184859
  0
LINE
  5
110
100
AcDbEntity
  8
M0
 62
     1
100
AcDbLine
 10
35.674369
 20
220.684874
 11
35.674358
 21
204.184877
  0
LINE
  5
111
100
AcDbEntity
  8
M0
 62
     1
100
AcDbLine
 10
35.674358
 20
204.184858
 11
76.174358
 21
204.184849
  0
LINE
  5
112
100
AcDbEntity
  8
M0
 62
     1
100
AcDbLine
 10
76.674359
 20
204.684849
 11
76.674366
 21
215.684833
  0
LINE
  5
113
100
AcDbEntity
  8
M0
 62
     1
100
AcDbLine
 10
76.174366
 20
216.184834
 11
68.474369
 21
216.184839
  0
LINE
  5
114
100
AcDbEntity
  8
M0
 62
     1
100
AcDbLine
 10
67.974369
 20
216.684839
 11
67.974372
 21
220.684839
  0
ARC
  5
115
100
AcDbEntity
  8
M0
 62
     1
100
AcDbCircle
 10
76.174359
 20
204.684849
 40
0.5
100
AcDbArc
 50
270.0
 51
359.999855
  0
ARC
  5
116
100
AcDbEntity
  8
M0
 62
     1
100
AcDbCircle
 10
67.474372
 20
220.684839
 40
0.5
100
AcDbArc
 50
359.998215
 51
450.0
  0
ARC
  5
117
100
AcDbEntity
  8
M0
 62
     1
100
AcDbCircle
 10
36.174369
 20
220.684859
 40
0.5
100
AcDbArc
 50
89.998215
 51
179.999964
  0
ARC
  5
118
100
AcDbEntity
  8
M0
 62
     1
100
AcDbCircle
 10
76.174366
 20
215.684834
 40
0.5
100
AcDbArc
 50
359.999855
 51
450.0
  0
ARC
  5
119
100
AcDbEntity
  8
M0
 62
     1
100
AcDbCircle
 10
68.474369
 20
216.684839
 40
0.5
100
AcDbArc
 50
179.999964
 51
270.0
  0
CIRCLE
  5
11A
100
AcDbEntity
  8
M0
 62
     1
100
AcDbCircle
 10
44.674363
 20
211.484872
 40
4.5
  0
LINE
  5
11B
100
AcDbEntity
  8
M0
  6
DASHDOT
 62
     1
100
AcDbLine
 10
51.674363
 20
211.484867
 11
37.674363
 21
211.484876
  0
LINE
  5
11C
100
AcDbEntity
  8
M0
  6
DASHDOT
 62
     1
100
AcDbLine
 10
44.674367
 20
218.484872
 11
44.674359
 21
204.484872
  0
LINE
  5
11D
100
AcDbEntity
  8
M0
 62
     1
100
AcDbLine
 10
115.574377
 20
204.184843
 11
115.574378
 21
207.684843
  0
LINE
  5
11E
100
AcDbEntity
  8
M0
 62
     1
100
AcDbLine
 10
113.174398
 20
221.184844
 11
108.674383
 21
221.184845
  0
LINE
  5
11F
100
AcDbEntity
  8
M0
 62
     1
100
AcDbLine
 10
108.674383
 20
221.184845
 11
108.674378
 21
204.184845
  0
LINE
  5
120
100
AcDbEntity
  8
M0
 62
     1
100
AcDbLine
 10
108.674378
 20
204.184845
 11
115.574377
 21
204.184843
  0
LINE
  5
121
100
AcDbEntity
  8
M0
 62
     1
100
AcDbLine
 10
115.574378
 20
207.684843
 11
110.174379
 21
207.684845
  0
LINE
  5
122
100
AcDbEntity
  8
M0
 62
     1
100
AcDbLine
 10
110.174379
 20
207.684845
 11
110.174383
 21
221.184845
  0
LINE
  5
123
100
AcDbEntity
  8
M0
 62
     1
100
AcDbLine
 10
110.174382
 20
217.184845
 11
112.174397
 21
217.184844
  0
ARC
  5
124
100
AcDbEntity
  8
M0
 62
     1
100
AcDbCircle
 10
113.174382
 20
219.184844
 40
2.0
100
AcDbArc
 50
359.999545
 51
450.0
  0
LINE
  5
125
100
AcDbEntity
  8
M0
 62
     1
100
AcDbLine
 10
112.174412
 20
217.484832
 11
113.474385
 21
217.484832
  0
ARC
  5
126
100
AcDbEntity
  8
M0
 62
     1
100
AcDbCircle
 10
113.474385
 20
219.184828
 40
1.7
100
AcDbArc
 50
270.0
 51
359.999468
  0
LINE
  5
127
100
AcDbEntity
  8
M0
 62
     1
100
AcDbLine
 10
112.174397
 20
217.484832
 11
112.174397
 21
217.184814
  0
LINE
  5
128
100
AcDbEntity
  8
M0
 62
     7
100
AcDbLine
 10
126.174377
 20
216.18486
 11
143.974365
 21
216.184855
  0
LINE
  5
129
100
AcDbEntity
  8
M0
 62
     7
100
AcDbLine
 10
126.174376
 20
214.68486
 11
126.174377
 21
216.18486
  0
LINE
  5
12A
100
AcDbEntity
  8
M0
 62
     7
100
AcDbLine
 10
126.174376
 20
214.68486
 11
110.47441
 21
214.684865
  0
LINE
  5
12B
100
AcDbEntity
  8
M0
 62
     7
100
AcDbLine
 10
143.974365
 20
216.184855
 11
143.974365
 21
219.184855
  0
LINE
  5
12C
100
AcDbEntity
  8
M0
 62
     7
100
AcDbLine
 10
166.474381
 20
219.184848
 11
166.474382
 21
221.684833
  0
LINE
  5
12D
100
AcDbEntity
  8
M0
 62
     7
100
AcDbLine
 10
163.474381
 20
219.184849
 11
163.474382
 21
221.684834
  0
LINE
  5
12E
100
AcDbEntity
  8
M0
 62
     7
100
AcDbLine
 10
125.174377
 20
217.184861
 11
125.174378
 21
221.684846
  0
LINE
  5
12F
100
AcDbEntity
  8
M0
 62
     7
100
AcDbLine
 10
125.174377
 20
217.184861
 11
110.174377
 21
217.184866
  0
LINE
  5
130
100
AcDbEntity
  8
M0
 62
     7
100
AcDbLine
 10
181.174378
 20
219.184843
 11
181.174378
 21
221.684828
  0
LINE
  5
131
100
AcDbEntity
  8
M0
 62
     7
100
AcDbLine
 10
178.974371
 20
235.784835
 11
173.974386
 21
235.784836
  0
LINE
  5
132
100
AcDbEntity
  8
M0
 62
     7
100
AcDbLine
 10
181.174378
 20
221.684828
 11
179.474366
 21
221.684828
  0
LINE
  5
133
100
AcDbEntity
  8
M0
 62
     7
100
AcDbLine
 10
179.474366
 20
221.684828
 11
179.474369
 21
229.784835
  0
LINE
  5
134
100
AcDbEntity
  8
M0
 62
     7
100
AcDbLine
 10
178.974384
 20
230.284835
 11
177.474369
 21
230.284835
  0
LINE
  5
135
100
AcDbEntity
  8
M0
 62
     7
100
AcDbLine
 10
176.474369
 20
231.284836
 11
176.474369
 21
231.984832
  0
LINE
  5
136
100
AcDbEntity
  8
M0
 62
     7
100
AcDbLine
 10
176.97437
 20
232.484832
 11
178.97437
 21
232.484832
  0
LINE
  5
137
100
AcDbEntity
  8
M0
 62
     7
100
AcDbLine
 10
179.47437
 20
232.984832
 11
179.474371
 21
235.284835
  0
LINE
  5
138
100
AcDbEntity
  8
M0
 62
     7
100
AcDbLine
 10
166.474381
 20
219.184848
 11
181.174378
 21
219.184843
  0
LINE
  5
139
100
AcDbEntity
  8
M0
 62
     7
100
AcDbLine
 10
143.974365
 20
219.184855
 11
163.474381
 21
219.184849
  0
LINE
  5
13A
100
AcDbEntity
  8
M0
 62
     7
100
AcDbLine
 10
117.974457
 20
220.684863
 11
114.497254
 21
220.684864
  0
LINE
  5
13B
100
AcDbEntity
  8
M0
 62
     7
100
AcDbLine
 10
170.780488
 20
221.684831
 11
125.174378
 21
221.684846
  0
ARC
  5
13C
100
AcDbEntity
  8
M0
 62
     7
100
AcDbCircle
 10
177.474369
 20
231.284835
 40
1.0
100
AcDbArc
 50
179.999982
 51
270.0
  0
LINE
  5
13D
100
AcDbEntity
  8
M0
 62
     7
100
AcDbLine
 10
115.474457
 20
220.684864
 11
115.474459
 21
224.384846
  0
LINE
  5
13E
100
AcDbEntity
  8
M0
 62
     7
100
AcDbLine
 10
115.474459
 20
224.384846
 11
117.974459
 21
224.384845
  0
LINE
  5
13F
100
AcDbEntity
  8
M0
 62
     7
100
AcDbLine
 10
117.974457
 20
220.684863
 11
117.974459
 21
224.384845
  0
LINE
  5
140
100
AcDbEntity
  8
M0
 62
     7
100
AcDbLine
 10
119.974473
 20
222.684862
 11
136.474458
 21
222.684857
  0
LINE
  5
141
100
AcDbEntity
  8
M0
 62
     7
100
AcDbLine
 10
126.474461
 20
230.284851
 11
130.474461
 21
230.28485
  0
LINE
  5
142
100
AcDbEntity
  8
M0
 62
     7
100
AcDbLine
 10
132.474459
 20
224.984846
 11
139.974459
 21
224.984844
  0
LINE
  5
143
100
AcDbEntity
  8
M0
 62
     7
100
AcDbLine
 10
117.974473
 20
220.684863
 11
119.974458
 21
222.684862
  0
LINE
  5
144
100
AcDbEntity
  8
M0
 62
     7
100
AcDbLine
 10
136.474458
 20
222.684857
 11
137.474473
 21
221.684842
  0
LINE
  5
145
100
AcDbEntity
  8
M0
 62
     7
100
AcDbLine
 10
173.474369
 20
230.484818
 11
173.474371
 21
235.284836
  0
LINE
  5
146
100
AcDbEntity
  8
M0
 62
     7
100
AcDbLine
 10
170.780488
 20
221.684831
 11
173.474369
 21
230.484833
  0
LINE
  5
147
100
AcDbEntity
  8
M0
 62
     7
100
AcDbLine
 10
117.974458
 20
223.384845
 11
120.474458
 21
223.384844
  0
LINE
  5
148
100
AcDbEntity
  8
M0
 62
     7
100
AcDbLine
 10
120.474459
 20
224.184847
 11
125.974459
 21
224.184845
  0
LINE
  5
149
100
AcDbEntity
  8
M0
 62
     7
100
AcDbLine
 10
120.474458
 20
223.384844
 11
120.474459
 21
224.184847
  0
LINE
  5
14A
100
AcDbEntity
  8
M0
 62
     7
100
AcDbLine
 10
130.474459
 20
226.984847
 11
130.474461
 21
230.28485
  0
LINE
  5
14B
100
AcDbEntity
  8
M0
 62
     7
100
AcDbLine
 10
126.474461
 20
230.284851
 11
125.974459
 21
224.184845
  0
ARC
  5
14C
100
AcDbEntity
  8
M0
 62
     7
100
AcDbCircle
 10
132.474459
 20
226.984846
 40
2.0
100
AcDbArc
 50
179.999982
 51
270.0
  0
LINE
  5
14D
100
AcDbEntity
  8
M0
 62
     7
100
AcDbLine
 10
139.974459
 20
224.984844
 11
143.274461
 21
221.68484
  0
ARC
  5
14E
100
AcDbEntity
  8
M0
 62
     7
100
AcDbCircle
 10
178.974369
 20
229.784835
 40
0.5
100
AcDbArc
 50
359.998233
 51
450.0
  0
ARC
  5
14F
100
AcDbEntity
  8
M0
 62
     7
100
AcDbCircle
 10
178.97437
 20
232.984832
 40
0.5
100
AcDbArc
 50
270.0
 51
359.998233
  0
ARC
  5
150
100
AcDbEntity
  8
M0
 62
     7
100
AcDbCircle
 10
176.974369
 20
231.984832
 40
0.5
100
AcDbArc
 50
90.0
 51
179.999982
  0
ARC
  5
151
100
AcDbEntity
  8
M0
 62
     7
100
AcDbCircle
 10
178.974371
 20
235.284835
 40
0.5
100
AcDbArc
 50
359.998233
 51
450.0
  0
ARC
  5
152
100
AcDbEntity
  8
M0
 62
     7
100
AcDbCircle
 10
173.974371
 20
235.284836
 40
0.5
100
AcDbArc
 50
90.0
 51
179.999982
  0
LINE
  5
153
100
AcDbEntity
  8
M0
 62
     7
100
AcDbLine
 10
67.124378
 20
235.784821
 11
64.974369
 21
235.784822
  0
LINE
  5
154
100
AcDbEntity
  8
M0
 62
     7
100
AcDbLine
 10
31.674374
 20
224.984855
 11
31.674371
 21
219.184852
  0
LINE
  5
155
100
AcDbEntity
  8
M0
 62
     7
100
AcDbLine
 10
76.674368
 20
214.684824
 11
76.674372
 21
221.684839
  0
LINE
  5
156
100
AcDbEntity
  8
M0
 62
     7
100
AcDbLine
 10
67.974373
 20
218.065201
 11
68.478217
 21
216.184829
  0
LINE
  5
157
100
AcDbEntity
  8
M0
 62
     7
100
AcDbLine
 10
68.274362
 20
220.809356
 11
69.245552
 21
217.184829
  0
LINE
  5
158
100
AcDbEntity
  8
M0
 62
     7
100
AcDbLine
 10
76.674369
 20
217.184824
 11
69.245552
 21
217.184829
  0
LINE
  5
159
100
AcDbEntity
  8
M0
 62
     7
100
AcDbLine
 10
68.274363
 20
221.684845
 11
76.674372
 21
221.684824
  0
LINE
  5
15A
100
AcDbEntity
  8
M0
 62
     7
100
AcDbLine
 10
67.674373
 20
222.68483
 11
67.674376
 21
227.68483
  0
LINE
  5
15B
100
AcDbEntity
  8
M0
 62
     7
100
AcDbLine
 10
68.274362
 20
220.684845
 11
68.274364
 21
222.684829
  0
LINE
  5
15C
100
AcDbEntity
  8
M0
 62
     7
100
AcDbLine
 10
68.274362
 20
220.684845
 11
76.674372
 21
220.684824
  0
LINE
  5
15D
100
AcDbEntity
  8
M0
 62
     7
100
AcDbLine
 10
68.274364
 20
222.684829
 11
52.174373
 21
222.684839
  0
LINE
  5
15E
100
AcDbEntity
  8
M0
 62
     7
100
AcDbLine
 10
41.674373
 20
223.384843
 11
49.174373
 21
223.384853
  0
LINE
  5
15F
100
AcDbEntity
  8
M0
 62
     7
100
AcDbLine
 10
41.674374
 20
224.184831
 11
49.174374
 21
224.184841
  0
LINE
  5
160
100
AcDbEntity
  8
M0
 62
     7
100
AcDbLine
 10
49.174374
 20
224.384869
 11
52.174374
 21
224.384836
  0
LINE
  5
161
100
AcDbEntity
  8
M0
 62
     7
100
AcDbLine
 10
66.174374
 20
224.984834
 11
31.674374
 21
224.984855
  0
LINE
  5
162
100
AcDbEntity
  8
M0
 62
     7
100
AcDbLine
 10
41.674372
 20
221.184846
 11
41.674374
 21
224.184861
  0
LINE
  5
163
100
AcDbEntity
  8
M0
 62
     7
100
AcDbLine
 10
52.174373
 20
222.684855
 11
52.174374
 21
224.384867
  0
LINE
  5
164
100
AcDbEntity
  8
M0
 62
     7
100
AcDbLine
 10
49.174373
 20
223.384853
 11
49.174374
 21
224.384869
  0
LINE
  5
165
100
AcDbEntity
  8
M0
 62
     7
100
AcDbLine
 10
66.174373
 20
222.684831
 11
66.174374
 21
224.984834
  0
LINE
  5
166
100
AcDbEntity
  8
M0
 62
     7
100
AcDbLine
 10
61.974369
 20
235.784824
 11
58.974369
 21
235.784826
  0
LINE
  5
167
100
AcDbEntity
  8
M0
 62
     7
100
AcDbLine
 10
33.674392
 20
228.684851
 11
33.674389
 21
224.984869
  0
LINE
  5
168
100
AcDbEntity
  8
M0
 62
     7
100
AcDbLine
 10
38.674389
 20
224.984866
 11
38.674392
 21
228.684848
  0
LINE
  5
169
100
AcDbEntity
  8
M0
 62
     7
100
AcDbLine
 10
43.674392
 20
228.684845
 11
43.674389
 21
224.984863
  0
LINE
  5
16A
100
AcDbEntity
  8
M0
 62
     7
100
AcDbLine
 10
48.674389
 20
224.98486
 11
48.674392
 21
228.684842
  0
LINE
  5
16B
100
AcDbEntity
  8
M0
 62
     7
100
AcDbLine
 10
53.674392
 20
228.684838
 11
53.674389
 21
224.984857
  0
LINE
  5
16C
100
AcDbEntity
  8
M0
 62
     7
100
AcDbLine
 10
56.974393
 20
224.984855
 11
56.974395
 21
228.684836
  0
LINE
  5
16D
100
AcDbEntity
  8
M0
 62
     7
100
AcDbLine
 10
38.974377
 20
224.984851
 11
38.974383
 21
234.484866
  0
LINE
  5
16E
100
AcDbEntity
  8
M0
 62
     7
100
AcDbLine
 10
41.974377
 20
224.984849
 11
41.974383
 21
234.484864
  0
LINE
  5
16F
100
AcDbEntity
  8
M0
 62
     7
100
AcDbLine
 10
43.97438
 20
228.684845
 11
43.974383
 21
234.484863
  0
LINE
  5
170
100
AcDbEntity
  8
M0
 62
     7
100
AcDbLine
 10
58.974362
 20
224.984838
 11
58.974369
 21
235.784826
  0
LINE
  5
171
100
AcDbEntity
  8
M0
 62
     7
100
AcDbLine
 10
61.974362
 20
224.984836
 11
61.974369
 21
235.784824
  0
LINE
  5
172
100
AcDbEntity
  8
M0
 62
     7
100
AcDbLine
 10
64.974362
 20
224.984834
 11
64.974369
 21
235.784822
  0
LINE
  5
173
100
AcDbEntity
  8
M0
 62
     7
100
AcDbLine
 10
67.124373
 20
227.68483
 11
67.124378
 21
235.784821
  0
LINE
  5
174
100
AcDbEntity
  8
M0
 62
     7
100
AcDbLine
 10
67.674376
 20
227.68483
 11
67.124373
 21
227.68483
  0
LINE
  5
175
100
AcDbEntity
  8
M0
 62
     7
100
AcDbLine
 10
67.124375
 20
230.484833
 11
64.974365
 21
230.484834
  0
LINE
  5
176
100
AcDbEntity
  8
M0
 62
     7
100
AcDbLine
 10
61.974365
 20
230.484836
 11
58.974365
 21
230.484838
  0
LINE
  5
177
100
AcDbEntity
  8
M0
 62
     7
100
AcDbLine
 10
41.974381
 20
230.484849
 11
38.974381
 21
230.484851
  0
LINE
  5
178
100
AcDbEntity
  8
M0
 62
     7
100
AcDbLine
 10
45.374392
 20
234.484862
 11
43.974383
 21
234.484863
  0
LINE
  5
179
100
AcDbEntity
  8
M0
 62
     7
100
AcDbLine
 10
41.974383
 20
234.484864
 11
38.974383
 21
234.484866
  0
LINE
  5
17A
100
AcDbEntity
  8
M0
 62
     7
100
AcDbLine
 10
64.974364
 20
228.184847
 11
61.974364
 21
228.184848
  0
LINE
  5
17B
100
AcDbEntity
  8
M0
 62
     7
100
AcDbLine
 10
43.674391
 20
228.18486
 11
41.974379
 21
228.184861
  0
LINE
  5
17C
100
AcDbEntity
  8
M0
 62
     7
100
AcDbLine
 10
56.974395
 20
228.684836
 11
53.674392
 21
228.684838
  0
LINE
  5
17D
100
AcDbEntity
  8
M0
 62
     7
100
AcDbLine
 10
48.674392
 20
228.684842
 11
43.674392
 21
228.684845
  0
LINE
  5
17E
100
AcDbEntity
  8
M0
 62
     7
100
AcDbLine
 10
38.674392
 20
228.684848
 11
33.674392
 21
228.684851
  0
LINE
  5
17F
100
AcDbEntity
  8
M0
 62
     7
100
AcDbLine
 10
45.174393
 20
230.484847
 11
43.974381
 21
230.484848
  0
LINE
  5
180
100
AcDbEntity
  8
M0
 62
     6
100
AcDbLine
 10
37.174376
 20
234.284814
 11
37.174372
 21
228.684823
  0
LINE
  5
181
100
AcDbEntity
  8
M0
 62
     6
100
AcDbLine
 10
35.174372
 20
228.684824
 11
35.174376
 21
234.284815
  0
LINE
  5
182
100
AcDbEntity
  8
M0
 62
     6
100
AcDbLine
 10
35.374373
 20
234.484812
 11
35.374379
 21
244.684825
  0
LINE
  5
183
100
AcDbEntity
  8
M0
 62
     6
100
AcDbLine
 10
36.97437
 20
244.684839
 11
36.974364
 21
234.484811
  0
LINE
  5
184
100
AcDbEntity
  8
M0
 62
     6
100
AcDbLine
 10
35.374373
 20
234.484812
 11
35.174376
 21
234.284815
  0
LINE
  5
185
100
AcDbEntity
  8
M0
 62
     6
100
AcDbLine
 10
36.974364
 20
234.484811
 11
37.174376
 21
234.284814
  0
ARC
  5
186
100
AcDbEntity
  8
M0
 62
     6
100
AcDbCircle
 10
36.174367
 20
244.684824
 40
0.8
100
AcDbArc
 50
89.998871
 51
179.999964
  0
ARC
  5
187
100
AcDbEntity
  8
M0
 62
     6
100
AcDbCircle
 10
36.174367
 20
244.684824
 40
0.8
100
AcDbArc
 50
-0.001129
 51
89.998871
  0
LINE
  5
188
100
AcDbEntity
  8
M0
 62
     6
100
AcDbLine
 10
127.674355
 20
245.484818
 11
127.674359
 21
230.284836
  0
LINE
  5
189
100
AcDbEntity
  8
M0
 62
     6
100
AcDbLine
 10
128.674359
 20
230.284837
 11
128.674355
 21
245.484818
  0
LINE
  5
18A
100
AcDbEntity
  8
M0
 62
     6
100
AcDbLine
 10
128.674355
 20
245.484818
 11
127.674355
 21
245.484818
  0
LINE
  5
18B
100
AcDbEntity
  8
M0
 62
     6
100
AcDbLine
 10
128.674358
 20
234.484818
 11
127.674358
 21
234.484818
  0
LINE
  5
18C
100
AcDbEntity
  8
M0
 62
     6
100
AcDbLine
 10
128.674358
 20
234.284822
 11
127.674358
 21
234.284821
  0
LINE
  5
18D
100
AcDbEntity
  8
M0
 62
     6
100
AcDbLine
 10
47.174376
 20
234.284814
 11
47.174372
 21
228.684823
  0
LINE
  5
18E
100
AcDbEntity
  8
M0
 62
     6
100
AcDbLine
 10
45.174372
 20
228.684824
 11
45.174376
 21
234.284815
  0
LINE
  5
18F
100
AcDbEntity
  8
M0
 62
     6
100
AcDbLine
 10
45.374373
 20
234.484812
 11
45.374379
 21
244.684825
  0
LINE
  5
190
100
AcDbEntity
  8
M0
 62
     6
100
AcDbLine
 10
46.97437
 20
244.684839
 11
46.974364
 21
234.484811
  0
LINE
  5
191
100
AcDbEntity
  8
M0
 62
     6
100
AcDbLine
 10
45.374373
 20
234.484812
 11
45.174376
 21
234.284815
  0
LINE
  5
192
100
AcDbEntity
  8
M0
 62
     6
100
AcDbLine
 10
46.974364
 20
234.484811
 11
47.174376
 21
234.284814
  0
ARC
  5
193
100
AcDbEntity
  8
M0
 62
     6
100
AcDbCircle
 10
46.174367
 20
244.684824
 40
0.8
100
AcDbArc
 50
89.998871
 51
179.999964
  0
ARC
  5
194
100
AcDbEntity
  8
M0
 62
     6
100
AcDbCircle
 10
46.174367
 20
244.684824
 40
0.8
100
AcDbArc
 50
-0.001129
 51
89.998871
  0
LINE
  5
195
100
AcDbEntity
  8
M0
 62
     6
100
AcDbLine
 10
57.174376
 20
234.284814
 11
57.17437
 21
224.984824
  0
LINE
  5
196
100
AcDbEntity
  8
M0
 62
     6
100
AcDbLine
 10
55.174372
 20
228.684824
 11
55.174376
 21
234.284815
  0
LINE
  5
197
100
AcDbEntity
  8
M0
 62
     6
100
AcDbLine
 10
55.374373
 20
234.484812
 11
55.374379
 21
244.684825
  0
LINE
  5
198
100
AcDbEntity
  8
M0
 62
     6
100
AcDbLine
 10
56.97437
 20
244.684839
 11
56.974364
 21
234.484811
  0
LINE
  5
199
100
AcDbEntity
  8
M0
 62
     6
100
AcDbLine
 10
55.374373
 20
234.484812
 11
55.174376
 21
234.284815
  0
LINE
  5
19A
100
AcDbEntity
  8
M0
 62
     6
100
AcDbLine
 10
56.974364
 20
234.484811
 11
57.174376
 21
234.284814
  0
ARC
  5
19B
100
AcDbEntity
  8
M0
 62
     6
100
AcDbCircle
 10
56.174367
 20
244.684824
 40
0.8
100
AcDbArc
 50
89.998871
 51
179.999964
  0
ARC
  5
19C
100
AcDbEntity
  8
M0
 62
     6
100
AcDbCircle
 10
56.174367
 20
244.684824
 40
0.8
100
AcDbArc
 50
-0.001129
 51
89.998871
  0
CIRCLE
  5
19D
100
AcDbEntity
  8
M0
 62
   114
100
AcDbCircle
 10
44.674357
 20
211.484848
 40
3.799999
  0
LINE
  5
19E
100
AcDbEntity
  8
M0
 62
   114
100
AcDbLine
 10
45.174357
 20
215.2518
 11
45.174357
 21
207.71788
  0
LINE
  5
19F
100
AcDbEntity
  8
M0
 62
   114
100
AcDbLine
 10
44.174357
 20
215.2518
 11
44.174357
 21
207.71788
  0
LINE
  5
1A0
100
AcDbEntity
  8
M0
 62
   114
100
AcDbLine
 10
108.674379
 20
214.484831
 11
106.174394
 21
214.484847
  0
LINE
  5
1A1
100
AcDbEntity
  8
M0
 62
   114
100
AcDbLine
 10
105.674363
 20
213.984847
 11
105.674377
 21
208.984847
  0
LINE
  5
1A2
100
AcDbEntity
  8
M0
 62
   114
100
AcDbLine
 10
106.174377
 20
208.484847
 11
108.674377
 21
208.484831
  0
ARC
  5
1A3
100
AcDbEntity
  8
M0
 62
   114
100
AcDbCircle
 10
106.174378
 20
213.984847
 40
0.5
100
AcDbArc
 50
90.0
 51
179.999982
  0
ARC
  5
1A4
100
AcDbEntity
  8
M0
 62
   114
100
AcDbCircle
 10
106.174377
 20
208.984847
 40
0.5
100
AcDbArc
 50
179.999982
 51
270.0
  0
CIRCLE
  5
1A5
100
AcDbEntity
  8
M0
 62
     4
100
AcDbCircle
 10
40.674357
 20
199.484817
 40
2.999997
  0
LINE
  5
1A6
100
AcDbEntity
  8
M0
 62
     4
100
AcDbLine
 10
37.715373
 20
203.432159
 11
36.899211
 21
200.784866
  0
LINE
  5
1A7
100
AcDbEntity
  8
M0
 62
     4
100
AcDbLine
 10
37.715373
 20
195.537567
 11
36.899211
 21
198.18489
  0
LINE
  5
1A8
100
AcDbEntity
  8
M0
 62
     4
100
AcDbLine
 10
43.632853
 20
203.432174
 11
44.449259
 21
200.784866
  0
LINE
  5
1A9
100
AcDbEntity
  8
M0
 62
     4
100
AcDbLine
 10
43.632853
 20
195.537551
 11
44.449259
 21
198.18489
  0
LINE
  5
1AA
100
AcDbEntity
  8
M0
 62
     4
100
AcDbLine
 10
38.1934
 20
195.18489
 11
43.15507
 21
195.18489
  0
LINE
  5
1AB
100
AcDbEntity
  8
M0
 62
     4
100
AcDbLine
 10
44.449259
 20
198.18489
 11
44.449259
 21
200.784866
  0
LINE
  5
1AC
100
AcDbEntity
  8
M0
 62
     4
100
AcDbLine
 10
43.15507
 20
203.784866
 11
38.1934
 21
203.784851
  0
LINE
  5
1AD
100
AcDbEntity
  8
M0
 62
     4
100
AcDbLine
 10
36.899211
 20
200.784866
 11
36.899211
 21
198.18489
  0
LINE
  5
1AE
100
AcDbEntity
  8
M0
 62
     4
100
AcDbLine
 10
42.264933
 20
197.893997
 11
39.083293
 21
201.075759
  0
LINE
  5
1AF
100
AcDbEntity
  8
M0
 62
     4
100
AcDbLine
 10
41.027629
 20
200.899002
 11
39.26005
 21
199.131301
  0
LINE
  5
1B0
100
AcDbEntity
  8
M0
 62
     4
100
AcDbLine
 10
42.088175
 20
199.838333
 11
40.320597
 21
198.070755
  0
ARC
  5
1B1
100
AcDbEntity
  8
M0
 62
     4
100
AcDbCircle
 10
38.1934
 20
203.284851
 40
0.5
100
AcDbArc
 50
89.998251
 51
162.874002
  0
ARC
  5
1B2
100
AcDbEntity
  8
M0
 62
     4
100
AcDbCircle
 10
38.1934
 20
195.68489
 40
0.5
100
AcDbArc
 50
197.129131
 51
270.0
  0
ARC
  5
1B3
100
AcDbEntity
  8
M0
 62
     4
100
AcDbCircle
 10
43.15507
 20
195.68489
 40
0.5
100
AcDbArc
 50
270.0
 51
342.861236
  0
ARC
  5
1B4
100
AcDbEntity
  8
M0
 62
     4
100
AcDbCircle
 10
43.15507
 20
203.284851
 40
0.5
100
AcDbArc
 50
17.136442
 51
90.0
  0
LINE
  5
1B5
100
AcDbEntity
  8
M0
  6
DASHDOT
 62
     4
100
AcDbLine
 10
44.174357
 20
199.484817
 11
37.174357
 21
199.484817
  0
LINE
  5
1B6
100
AcDbEntity
  8
M0
  6
DASHDOT
 62
     4
100
AcDbLine
 10
40.674342
 20
202.984817
 11
40.674357
 21
195.984817
  0
CIRCLE
  5
1B7
100
AcDbEntity
  8
M0
 62
     4
100
AcDbCircle
 10
50.674357
 20
199.484817
 40
2.999997
  0
LINE
  5
1B8
100
AcDbEntity
  8
M0
 62
     4
100
AcDbLine
 10
47.715373
 20
203.432159
 11
46.899211
 21
200.784866
  0
LINE
  5
1B9
100
AcDbEntity
  8
M0
 62
     4
100
AcDbLine
 10
47.715373
 20
195.537567
 11
46.899211
 21
198.18489
  0
LINE
  5
1BA
100
AcDbEntity
  8
M0
 62
     4
100
AcDbLine
 10
53.632853
 20
203.432174
 11
54.449259
 21
200.784866
  0
LINE
  5
1BB
100
AcDbEntity
  8
M0
 62
     4
100
AcDbLine
 10
53.632853
 20
195.537551
 11
54.449259
 21
198.18489
  0
LINE
  5
1BC
100
AcDbEntity
  8
M0
 62
     4
100
AcDbLine
 10
48.1934
 20
195.18489
 11
53.15507
 21
195.18489
  0
LINE
  5
1BD
100
AcDbEntity
  8
M0
 62
     4
100
AcDbLine
 10
54.449259
 20
198.18489
 11
54.449259
 21
200.784866
  0
LINE
  5
1BE
100
AcDbEntity
  8
M0
 62
     4
100
AcDbLine
 10
53.15507
 20
203.784866
 11
48.1934
 21
203.784851
  0
LINE
  5
1BF
100
AcDbEntity
  8
M0
 62
     4
100
AcDbLine
 10
46.899211
 20
200.784866
 11
46.899211
 21
198.18489
  0
LINE
  5
1C0
100
AcDbEntity
  8
M0
 62
     4
100
AcDbLine
 10
52.264933
 20
197.893997
 11
49.083293
 21
201.075759
  0
LINE
  5
1C1
100
AcDbEntity
  8
M0
 62
     4
100
AcDbLine
 10
51.027629
 20
200.899002
 11
49.26005
 21
199.131301
  0
LINE
  5
1C2
100
AcDbEntity
  8
M0
 62
     4
100
AcDbLine
 10
52.088175
 20
199.838333
 11
50.320597
 21
198.070755
  0
ARC
  5
1C3
100
AcDbEntity
  8
M0
 62
     4
100
AcDbCircle
 10
48.1934
 20
203.284851
 40
0.5
100
AcDbArc
 50
89.998251
 51
162.874002
  0
ARC
  5
1C4
100
AcDbEntity
  8
M0
 62
     4
100
AcDbCircle
 10
48.1934
 20
195.68489
 40
0.5
100
AcDbArc
 50
197.129131
 51
270.0
  0
ARC
  5
1C5
100
AcDbEntity
  8
M0
 62
     4
100
AcDbCircle
 10
53.15507
 20
195.68489
 40
0.5
100
AcDbArc
 50
270.0
 51
342.861236
  0
ARC
  5
1C6
100
AcDbEntity
  8
M0
 62
     4
100
AcDbCircle
 10
53.15507
 20
203.284851
 40
0.5
100
AcDbArc
 50
17.136442
 51
90.0
  0
LINE
  5
1C7
100
AcDbEntity
  8
M0
  6
DASHDOT
 62
     4
100
AcDbLine
 10
54.174357
 20
199.484817
 11
47.174357
 21
199.484817
  0
LINE
  5
1C8
100
AcDbEntity
  8
M0
  6
DASHDOT
 62
     4
100
AcDbLine
 10
50.674342
 20
202.984817
 11
50.674357
 21
195.984817
  0
CIRCLE
  5
1C9
100
AcDbEntity
  8
M0
 62
     4
100
AcDbCircle
 10
60.674357
 20
199.484817
 40
2.999997
  0
LINE
  5
1CA
100
AcDbEntity
  8
M0
 62
     4
100
AcDbLine
 10
57.715373
 20
203.432159
 11
56.899211
 21
200.784866
  0
LINE
  5
1CB
100
AcDbEntity
  8
M0
 62
     4
100
AcDbLine
 10
57.715373
 20
195.537567
 11
56.899211
 21
198.18489
  0
LINE
  5
1CC
100
AcDbEntity
  8
M0
 62
     4
100
AcDbLine
 10
63.632853
 20
203.432174
 11
64.449259
 21
200.784866
  0
LINE
  5
1CD
100
AcDbEntity
  8
M0
 62
     4
100
AcDbLine
 10
63.632853
 20
195.537551
 11
64.449259
 21
198.18489
  0
LINE
  5
1CE
100
AcDbEntity
  8
M0
 62
     4
100
AcDbLine
 10
58.1934
 20
195.18489
 11
63.15507
 21
195.18489
  0
LINE
  5
1CF
100
AcDbEntity
  8
M0
 62
     4
100
AcDbLine
 10
64.449259
 20
198.18489
 11
64.449259
 21
200.784866
  0
LINE
  5
1D0
100
AcDbEntity
  8
M0
 62
     4
100
AcDbLine
 10
63.15507
 20
203.784866
 11
58.1934
 21
203.784851
  0
LINE
  5
1D1
100
AcDbEntity
  8
M0
 62
     4
100
AcDbLine
 10
56.899211
 20
200.784866
 11
56.899211
 21
198.18489
  0
LINE
  5
1D2
100
AcDbEntity
  8
M0
 62
     4
100
AcDbLine
 10
62.264933
 20
197.893997
 11
59.083293
 21
201.075759
  0
LINE
  5
1D3
100
AcDbEntity
  8
M0
 62
     4
100
AcDbLine
 10
61.027629
 20
200.899002
 11
59.26005
 21
199.131301
  0
LINE
  5
1D4
100
AcDbEntity
  8
M0
 62
     4
100
AcDbLine
 10
62.088175
 20
199.838333
 11
60.320597
 21
198.070755
  0
ARC
  5
1D5
100
AcDbEntity
  8
M0
 62
     4
100
AcDbCircle
 10
58.1934
 20
203.284851
 40
0.5
100
AcDbArc
 50
89.998251
 51
162.874002
  0
ARC
  5
1D6
100
AcDbEntity
  8
M0
 62
     4
100
AcDbCircle
 10
58.1934
 20
195.68489
 40
0.5
100
AcDbArc
 50
197.129131
 51
270.0
  0
ARC
  5
1D7
100
AcDbEntity
  8
M0
 62
     4
100
AcDbCircle
 10
63.15507
 20
195.68489
 40
0.5
100
AcDbArc
 50
270.0
 51
342.861236
  0
ARC
  5
1D8
100
AcDbEntity
  8
M0
 62
     4
100
AcDbCircle
 10
63.15507
 20
203.284851
 40
0.5
100
AcDbArc
 50
17.136442
 51
90.0
  0
LINE
  5
1D9
100
AcDbEntity
  8
M0
  6
DASHDOT
 62
     4
100
AcDbLine
 10
64.174357
 20
199.484817
 11
57.174357
 21
199.484817
  0
LINE
  5
1DA
100
AcDbEntity
  8
M0
  6
DASHDOT
 62
     4
100
AcDbLine
 10
60.674342
 20
202.984817
 11
60.674357
 21
195.984817
  0
CIRCLE
  5
1DB
100
AcDbEntity
  8
M0
 62
     4
100
AcDbCircle
 10
70.674357
 20
199.484817
 40
2.999997
  0
LINE
  5
1DC
100
AcDbEntity
  8
M0
 62
     4
100
AcDbLine
 10
67.715373
 20
203.432159
 11
66.899211
 21
200.784866
  0
LINE
  5
1DD
100
AcDbEntity
  8
M0
 62
     4
100
AcDbLine
 10
67.715373
 20
195.537567
 11
66.899211
 21
198.18489
  0
LINE
  5
1DE
100
AcDbEntity
  8
M0
 62
     4
100
AcDbLine
 10
73.632853
 20
203.432174
 11
74.449259
 21
200.784866
  0
LINE
  5
1DF
100
AcDbEntity
  8
M0
 62
     4
100
AcDbLine
 10
73.632853
 20
195.537551
 11
74.449259
 21
198.18489
  0
LINE
  5
1E0
100
AcDbEntity
  8
M0
 62
     4
100
AcDbLine
 10
68.1934
 20
195.18489
 11
73.15507
 21
195.18489
  0
LINE
  5
1E1
100
AcDbEntity
  8
M0
 62
     4
100
AcDbLine
 10
74.449259
 20
198.18489
 11
74.449259
 21
200.784866
  0
LINE
  5
1E2
100
AcDbEntity
  8
M0
 62
     4
100
AcDbLine
 10
73.15507
 20
203.784866
 11
68.1934
 21
203.784851
  0
LINE
  5
1E3
100
AcDbEntity
  8
M0
 62
     4
100
AcDbLine
 10
66.899211
 20
200.784866
 11
66.899211
 21
198.18489
  0
LINE
  5
1E4
100
AcDbEntity
  8
M0
 62
     4
100
AcDbLine
 10
72.264933
 20
197.893997
 11
69.083293
 21
201.075759
  0
LINE
  5
1E5
100
AcDbEntity
  8
M0
 62
     4
100
AcDbLine
 10
71.027629
 20
200.899002
 11
69.26005
 21
199.131301
  0
LINE
  5
1E6
100
AcDbEntity
  8
M0
 62
     4
100
AcDbLine
 10
72.088175
 20
199.838333
 11
70.320597
 21
198.070755
  0
ARC
  5
1E7
100
AcDbEntity
  8
M0
 62
     4
100
AcDbCircle
 10
68.1934
 20
203.284851
 40
0.5
100
AcDbArc
 50
89.998251
 51
162.874002
  0
ARC
  5
1E8
100
AcDbEntity
  8
M0
 62
     4
100
AcDbCircle
 10
68.1934
 20
195.68489
 40
0.5
100
AcDbArc
 50
197.129131
 51
270.0
  0
ARC
  5
1E9
100
AcDbEntity
  8
M0
 62
     4
100
AcDbCircle
 10
73.15507
 20
195.68489
 40
0.5
100
AcDbArc
 50
270.0
 51
342.861236
  0
ARC
  5
1EA
100
AcDbEntity
  8
M0
 62
     4
100
AcDbCircle
 10
73.15507
 20
203.284851
 40
0.5
100
AcDbArc
 50
17.136442
 51
90.0
  0
LINE
  5
1EB
100
AcDbEntity
  8
M0
  6
DASHDOT
 62
     4
100
AcDbLine
 10
74.174357
 20
199.484817
 11
67.174357
 21
199.484817
  0
LINE
  5
1EC
100
AcDbEntity
  8
M0
  6
DASHDOT
 62
     4
100
AcDbLine
 10
70.674342
 20
202.984817
 11
70.674357
 21
195.984817
  0
CIRCLE
  5
1ED
100
AcDbEntity
  8
M0
  6
DASHED
 62
    74
100
AcDbCircle
 10
61.674357
 20
211.484817
 40
5.9
  0
LINE
  5
1EE
100
AcDbEntity
  8
M0
  6
DASHDOT
 62
    74
100
AcDbLine
 10
54.774363
 20
211.484817
 11
68.574358
 21
211.484817
  0
LINE
  5
1EF
100
AcDbEntity
  8
M0
  6
DASHDOT
 62
    74
100
AcDbLine
 10
61.674357
 20
204.584816
 11
61.674357
 21
218.384811
  0
LINE
  5
1F0
100
AcDbEntity
  8
M0
  6
DASHED
 62
    74
100
AcDbLine
 10
62.174357
 20
209.734817
 11
62.174357
 21
210.984817
  0
LINE
  5
1F1
100
AcDbEntity
  8
M0
  6
DASHED
 62
    74
100
AcDbLine
 10
62.174357
 20
210.984817
 11
63.424357
 21
210.984817
  0
LINE
  5
1F2
100
AcDbEntity
  8
M0
  6
DASHED
 62
    74
100
AcDbLine
 10
63.424357
 20
210.984817
 11
63.424357
 21
211.984817
  0
LINE
  5
1F3
100
AcDbEntity
  8
M0
  6
DASHED
 62
    74
100
AcDbLine
 10
63.424357
 20
211.984817
 11
62.174357
 21
211.984817
  0
LINE
  5
1F4
100
AcDbEntity
  8
M0
  6
DASHED
 62
    74
100
AcDbLine
 10
62.174357
 20
211.984817
 11
62.174357
 21
213.234817
  0
LINE
  5
1F5
100
AcDbEntity
  8
M0
  6
DASHED
 62
    74
100
AcDbLine
 10
62.174357
 20
213.234817
 11
61.174357
 21
213.234817
  0
LINE
  5
1F6
100
AcDbEntity
  8
M0
  6
DASHED
 62
    74
100
AcDbLine
 10
61.174357
 20
213.234817
 11
61.174357
 21
211.984817
  0
LINE
  5
1F7
100
AcDbEntity
  8
M0
  6
DASHED
 62
    74
100
AcDbLine
 10
61.174357
 20
211.984817
 11
59.924357
 21
211.984817
  0
LINE
  5
1F8
100
AcDbEntity
  8
M0
  6
DASHED
 62
    74
100
AcDbLine
 10
59.924357
 20
211.984817
 11
59.924357
 21
210.984817
  0
LINE
  5
1F9
100
AcDbEntity
  8
M0
  6
DASHED
 62
    74
100
AcDbLine
 10
59.924357
 20
210.984817
 11
61.174357
 21
210.984817
  0
LINE
  5
1FA
100
AcDbEntity
  8
M0
  6
DASHED
 62
    74
100
AcDbLine
 10
61.174357
 20
210.984817
 11
61.174357
 21
209.734817
  0
LINE
  5
1FB
100
AcDbEntity
  8
M0
  6
DASHED
 62
    74
100
AcDbLine
 10
61.174357
 20
209.734817
 11
62.174357
 21
209.734817
  0
CIRCLE
  5
1FC
100
AcDbEntity
  8
M0
 62
   253
100
AcDbCircle
 10
37.674357
 20
182.984817
 40
2.999997
  0
LINE
  5
1FD
100
AcDbEntity
  8
M0
 62
   253
100
AcDbLine
 10
34.715373
 20
186.932159
 11
33.899211
 21
184.284866
  0
LINE
  5
1FE
100
AcDbEntity
  8
M0
 62
   253
100
AcDbLine
 10
34.715373
 20
179.037567
 11
33.899211
 21
181.68489
  0
LINE
  5
1FF
100
AcDbEntity
  8
M0
 62
   253
100
AcDbLine
 10
40.632853
 20
186.932174
 11
41.449259
 21
184.284866
  0
LINE
  5
200
100
AcDbEntity
  8
M0
 62
   253
100
AcDbLine
 10
40.632853
 20
179.037551
 11
41.449259
 21
181.68489
  0
LINE
  5
201
100
AcDbEntity
  8
M0
 62
   253
100
AcDbLine
 10
35.1934
 20
178.68489
 11
40.15507
 21
178.68489
  0
LINE
  5
202
100
AcDbEntity
  8
M0
 62
   253
100
AcDbLine
 10
41.449259
 20
181.68489
 11
41.449259
 21
184.284866
  0
LINE
  5
203
100
AcDbEntity
  8
M0
 62
   253
100
AcDbLine
 10
40.15507
 20
187.284866
 11
35.1934
 21
187.284851
  0
LINE
  5
204
100
AcDbEntity
  8
M0
 62
   253
100
AcDbLine
 10
33.899211
 20
184.284866
 11
33.899211
 21
181.68489
  0
LINE
  5
205
100
AcDbEntity
  8
M0
  6
DASHDOT
 62
   253
100
AcDbLine
 10
31.399211
 20
182.984817
 11
43.949259
 21
182.984817
  0
LINE
  5
206
100
AcDbEntity
  8
M0
  6
DASHDOT
 62
   253
100
AcDbLine
 10
37.674357
 20
176.184906
 11
37.674357
 21
189.784866
  0
LINE
  5
207
100
AcDbEntity
  8
M0
 62
   253
100
AcDbLine
 10
39.264933
 20
181.393997
 11
36.083293
 21
184.575759
  0
LINE
  5
208
100
AcDbEntity
  8
M0
 62
   253
100
AcDbLine
 10
38.027629
 20
184.399002
 11
36.26005
 21
182.631301
  0
LINE
  5
209
100
AcDbEntity
  8
M0
 62
   253
100
AcDbLine
 10
39.088175
 20
183.338333
 11
37.320597
 21
181.570755
  0
ARC
  5
20A
100
AcDbEntity
  8
M0
 62
   253
100
AcDbCircle
 10
35.1934
 20
186.784851
 40
0.5
100
AcDbArc
 50
89.998251
 51
162.874002
  0
ARC
  5
20B
100
AcDbEntity
  8
M0
 62
   253
100
AcDbCircle
 10
35.1934
 20
179.18489
 40
0.5
100
AcDbArc
 50
197.129131
 51
270.0
  0
ARC
  5
20C
100
AcDbEntity
  8
M0
 62
   253
100
AcDbCircle
 10
40.15507
 20
179.18489
 40
0.5
100
AcDbArc
 50
270.0
 51
342.861236
  0
ARC
  5
20D
100
AcDbEntity
  8
M0
 62
   253
100
AcDbCircle
 10
40.15507
 20
186.784851
 40
0.5
100
AcDbArc
 50
17.136442
 51
90.0
  0
CIRCLE
  5
20E
100
AcDbEntity
  8
M0
 62
   253
100
AcDbCircle
 10
47.674357
 20
182.984817
 40
2.999997
  0
LINE
  5
20F
100
AcDbEntity
  8
M0
 62
   253
100
AcDbLine
 10
44.715373
 20
186.932159
 11
43.899211
 21
184.284866
  0
LINE
  5
210
100
AcDbEntity
  8
M0
 62
   253
100
AcDbLine
 10
44.715373
 20
179.037567
 11
43.899211
 21
181.68489
  0
LINE
  5
211
100
AcDbEntity
  8
M0
 62
   253
100
AcDbLine
 10
50.632853
 20
186.932174
 11
51.449259
 21
184.284866
  0
LINE
  5
212
100
AcDbEntity
  8
M0
 62
   253
100
AcDbLine
 10
50.632853
 20
179.037551
 11
51.449259
 21
181.68489
  0
LINE
  5
213
100
AcDbEntity
  8
M0
 62
   253
100
AcDbLine
 10
45.1934
 20
178.68489
 11
50.15507
 21
178.68489
  0
LINE
  5
214
100
AcDbEntity
  8
M0
 62
   253
100
AcDbLine
 10
51.449259
 20
181.68489
 11
51.449259
 21
184.284866
  0
LINE
  5
215
100
AcDbEntity
  8
M0
 62
   253
100
AcDbLine
 10
50.15507
 20
187.284866
 11
45.1934
 21
187.284851
  0
LINE
  5
216
100
AcDbEntity
  8
M0
 62
   253
100
AcDbLine
 10
43.899211
 20
184.284866
 11
43.899211
 21
181.68489
  0
LINE
  5
217
100
AcDbEntity
  8
M0
  6
DASHDOT
 62
   253
100
AcDbLine
 10
41.399211
 20
182.984817
 11
53.949259
 21
182.984817
  0
LINE
  5
218
100
AcDbEntity
  8
M0
  6
DASHDOT
 62
   253
100
AcDbLine
 10
47.674357
 20
176.184906
 11
47.674357
 21
189.784866
  0
LINE
  5
219
100
AcDbEntity
  8
M0
 62
   253
100
AcDbLine
 10
49.264933
 20
181.393997
 11
46.083293
 21
184.575759
  0
LINE
  5
21A
100
AcDbEntity
  8
M0
 62
   253
100
AcDbLine
 10
48.027629
 20
184.399002
 11
46.26005
 21
182.631301
  0
LINE
  5
21B
100
AcDbEntity
  8
M0
 62
   253
100
AcDbLine
 10
49.088175
 20
183.338333
 11
47.320597
 21
181.570755
  0
ARC
  5
21C
100
AcDbEntity
  8
M0
 62
   253
100
AcDbCircle
 10
45.1934
 20
186.784851
 40
0.5
100
AcDbArc
 50
89.998251
 51
162.874002
  0
ARC
  5
21D
100
AcDbEntity
  8
M0
 62
   253
100
AcDbCircle
 10
45.1934
 20
179.18489
 40
0.5
100
AcDbArc
 50
197.129131
 51
270.0
  0
ARC
  5
21E
100
AcDbEntity
  8
M0
 62
   253
100
AcDbCircle
 10
50.15507
 20
179.18489
 40
0.5
100
AcDbArc
 50
270.0
 51
342.861236
  0
ARC
  5
21F
100
AcDbEntity
  8
M0
 62
   253
100
AcDbCircle
 10
50.15507
 20
186.784851
 40
0.5
100
AcDbArc
 50
17.136442
 51
90.0
  0
CIRCLE
  5
220
100
AcDbEntity
  8
M0
 62
   253
100
AcDbCircle
 10
57.674357
 20
182.984817
 40
2.999997
  0
LINE
  5
221
100
AcDbEntity
  8
M0
 62
   253
100
AcDbLine
 10
54.715373
 20
186.932159
 11
53.899211
 21
184.284866
  0
LINE
  5
222
100
AcDbEntity
  8
M0
 62
   253
100
AcDbLine
 10
54.715373
 20
179.037567
 11
53.899211
 21
181.68489
  0
LINE
  5
223
100
AcDbEntity
  8
M0
 62
   253
100
AcDbLine
 10
60.632853
 20
186.932174
 11
61.449259
 21
184.284866
  0
LINE
  5
224
100
AcDbEntity
  8
M0
 62
   253
100
AcDbLine
 10
60.632853
 20
179.037551
 11
61.449259
 21
181.68489
  0
LINE
  5
225
100
AcDbEntity
  8
M0
 62
   253
100
AcDbLine
 10
55.1934
 20
178.68489
 11
60.15507
 21
178.68489
  0
LINE
  5
226
100
AcDbEntity
  8
M0
 62
   253
100
AcDbLine
 10
61.449259
 20
181.68489
 11
61.449259
 21
184.284866
  0
LINE
  5
227
100
AcDbEntity
  8
M0
 62
   253
100
AcDbLine
 10
60.15507
 20
187.284866
 11
55.1934
 21
187.284851
  0
LINE
  5
228
100
AcDbEntity
  8
M0
 62
   253
100
AcDbLine
 10
53.899211
 20
184.284866
 11
53.899211
 21
181.68489
  0
LINE
  5
229
100
AcDbEntity
  8
M0
  6
DASHDOT
 62
   253
100
AcDbLine
 10
51.399211
 20
182.984817
 11
63.949259
 21
182.984817
  0
LINE
  5
22A
100
AcDbEntity
  8
M0
  6
DASHDOT
 62
   253
100
AcDbLine
 10
57.674357
 20
176.184906
 11
57.674357
 21
189.784866
  0
LINE
  5
22B
100
AcDbEntity
  8
M0
 62
   253
100
AcDbLine
 10
59.264933
 20
181.393997
 11
56.083293
 21
184.575759
  0
LINE
  5
22C
100
AcDbEntity
  8
M0
 62
   253
100
AcDbLine
 10
58.027629
 20
184.399002
 11
56.26005
 21
182.631301
  0
LINE
  5
22D
100
AcDbEntity
  8
M0
 62
   253
100
AcDbLine
 10
59.088175
 20
183.338333
 11
57.320597
 21
181.570755
  0
ARC
  5
22E
100
AcDbEntity
  8
M0
 62
   253
100
AcDbCircle
 10
55.1934
 20
186.784851
 40
0.5
100
AcDbArc
 50
89.998251
 51
162.874002
  0
ARC
  5
22F
100
AcDbEntity
  8
M0
 62
   253
100
AcDbCircle
 10
55.1934
 20
179.18489
 40
0.5
100
AcDbArc
 50
197.129131
 51
270.0
  0
ARC
  5
230
100
AcDbEntity
  8
M0
 62
   253
100
AcDbCircle
 10
60.15507
 20
179.18489
 40
0.5
100
AcDbArc
 50
270.0
 51
342.861236
  0
ARC
  5
231
100
AcDbEntity
  8
M0
 62
   253
100
AcDbCircle
 10
60.15507
 20
186.784851
 40
0.5
100
AcDbArc
 50
17.136442
 51
90.0
  0
CIRCLE
  5
232
100
AcDbEntity
  8
M0
 62
   253
100
AcDbCircle
 10
69.174357
 20
182.984817
 40
2.999997
  0
LINE
  5
233
100
AcDbEntity
  8
M0
 62
   253
100
AcDbLine
 10
66.215373
 20
186.932159
 11
65.399211
 21
184.284866
  0
LINE
  5
234
100
AcDbEntity
  8
M0
 62
   253
100
AcDbLine
 10
66.169978
 20
179.184844
 11
65.399211
 21
181.68489
  0
LINE
  5
235
100
AcDbEntity
  8
M0
 62
   253
100
AcDbLine
 10
72.132853
 20
186.932174
 11
72.949259
 21
184.284866
  0
LINE
  5
236
100
AcDbEntity
  8
M0
 62
   253
100
AcDbLine
 10
72.178277
 20
179.184844
 11
72.949259
 21
181.68489
  0
LINE
  5
237
100
AcDbEntity
  8
M0
 62
   253
100
AcDbLine
 10
72.949259
 20
181.68489
 11
72.949259
 21
184.284866
  0
LINE
  5
238
100
AcDbEntity
  8
M0
 62
   253
100
AcDbLine
 10
71.65507
 20
187.284866
 11
66.6934
 21
187.284851
  0
LINE
  5
239
100
AcDbEntity
  8
M0
 62
   253
100
AcDbLine
 10
65.399211
 20
184.284866
 11
65.399211
 21
181.68489
  0
LINE
  5
23A
100
AcDbEntity
  8
M0
  6
DASHDOT
 62
   253
100
AcDbLine
 10
62.899211
 20
182.984817
 11
75.449259
 21
182.984817
  0
LINE
  5
23B
100
AcDbEntity
  8
M0
  6
DASHDOT
 62
   253
100
AcDbLine
 10
69.174357
 20
176.184906
 11
69.174357
 21
189.784866
  0
LINE
  5
23C
100
AcDbEntity
  8
M0
 62
   253
100
AcDbLine
 10
70.764933
 20
181.393997
 11
67.583293
 21
184.575759
  0
LINE
  5
23D
100
AcDbEntity
  8
M0
 62
   253
100
AcDbLine
 10
69.527629
 20
184.399002
 11
67.76005
 21
182.631301
  0
LINE
  5
23E
100
AcDbEntity
  8
M0
 62
   253
100
AcDbLine
 10
70.588175
 20
183.338333
 11
68.820597
 21
181.570755
  0
ARC
  5
23F
100
AcDbEntity
  8
M0
 62
   253
100
AcDbCircle
 10
66.6934
 20
186.784851
 40
0.5
100
AcDbArc
 50
89.998251
 51
162.874002
  0
ARC
  5
240
100
AcDbEntity
  8
M0
 62
   253
100
AcDbCircle
 10
71.65507
 20
186.784851
 40
0.5
100
AcDbArc
 50
17.136442
 51
90.0
  0
LINE
  5
241
100
AcDbEntity
  8
M0
  6
DASHED
 62
   154
100
AcDbLine
 10
72.674357
 20
212.384811
 11
72.674357
 21
213.584808
  0
LINE
  5
242
100
AcDbEntity
  8
M0
  6
DASHED
 62
   154
100
AcDbLine
 10
72.674357
 20
213.584808
 11
69.674357
 21
213.584808
  0
LINE
  5
243
100
AcDbEntity
  8
M0
  6
DASHED
 62
   154
100
AcDbLine
 10
69.674357
 20
213.584808
 11
69.674357
 21
212.384811
  0
LINE
  5
244
100
AcDbEntity
  8
M0
  6
DASHED
 62
   154
100
AcDbLine
 10
69.674357
 20
212.384811
 11
72.674357
 21
212.384811
  0
LINE
  5
245
100
AcDbEntity
  8
M0
  6
DASHDOT
 62
   154
100
AcDbLine
 10
68.280584
 20
212.984817
 11
74.106353
 21
212.984817
  0
LINE
  5
246
100
AcDbEntity
  8
M0
  6
DASHDOT
 62
   154
100
AcDbLine
 10
71.174357
 20
211.146894
 11
71.174357
 21
215.302597
  0
LINE
  5
247
100
AcDbEntity
  8
M0
 62
   154
100
AcDbLine
 10
46.674357
 20
217.084847
 11
46.674357
 21
219.884841
  0
LINE
  5
248
100
AcDbEntity
  8
M0
 62
   154
100
AcDbLine
 10
46.674357
 20
219.884841
 11
42.674357
 21
219.884841
  0
LINE
  5
249
100
AcDbEntity
  8
M0
 62
   154
100
AcDbLine
 10
42.674357
 20
219.884841
 11
42.674357
 21
217.084847
  0
LINE
  5
24A
100
AcDbEntity
  8
M0
 62
   154
100
AcDbLine
 10
42.674357
 20
217.084847
 11
46.674357
 21
217.084847
  0
LINE
  5
24B
100
AcDbEntity
  8
M0
  6
DASHDOT
 62
   154
100
AcDbLine
 10
44.674357
 20
212.084847
 11
44.674357
 21
224.884841
  0
LINE
  5
24C
100
AcDbEntity
  8
M0
  6
DASHED
 62
   154
100
AcDbLine
 10
46.674357
 20
219.384841
 11
42.674357
 21
219.384841
  0
LINE
  5
24D
100
AcDbEntity
  8
M0
  6
DASHED
 62
   154
100
AcDbLine
 10
46.674357
 20
217.584838
 11
42.674357
 21
217.584838
  0
LINE
  5
24E
100
AcDbEntity
  8
M1
 62
     2
100
AcDbLine
 10
10.0
 20
10.0
 11
10.0
 21
285.0
  0
LINE
  5
24F
100
AcDbEntity
  8
M1
 62
     2
100
AcDbLine
 10
10.0
 20
285.0
 11
200.0
 21
285.0
  0
LINE
  5
250
100
AcDbEntity
  8
M1
 62
     2
100
AcDbLine
 10
200.0
 20
285.0
 11
200.0
 21
10.0
  0
LINE
  5
251
100
AcDbEntity
  8
M1
 62
     2
100
AcDbLine
 10
200.0
 20
10.0
 11
10.0
 21
10.0
  0
LINE
  5
252
100
AcDbEntity
  8
M1
 62
     2
100
AcDbLine
 10
200.0
 20
20.0
 11
100.0
 21
20.0
  0
LINE
  5
253
100
AcDbEntity
  8
M1
 62
     2
100
AcDbLine
 10
200.0
 20
30.0
 11
100.0
 21
30.0
  0
LINE
  5
254
100
AcDbEntity
  8
M1
 62
     2
100
AcDbLine
 10
200.0
 20
40.0
 11
100.0
 21
40.0
  0
LINE
  5
255
100
AcDbEntity
  8
M1
 62
     2
100
AcDbLine
 10
100.0
 20
10.0
 11
100.0
 21
40.0
  0
TEXT
  5
256
100
AcDbEntity
  8
M1
 62
     2
100
AcDbText
 10
102.5
 20
12.5
 40
5.0
  1
適　用；
  7
STANDARD
100
AcDbText
  0
TEXT
  5
257
100
AcDbEntity
  8
M1
 62
     2
100
AcDbText
 10
102.5
 20
32.5
 40
5.0
  1
登録名：
  7
STANDARD
100
AcDbText
  0
TEXT
  5
258
100
AcDbEntity
  8
M1
 62
     2
100
AcDbText
 10
126.5
 20
32.5
 40
5.0
  1
ＤＭＴＲ１２Ｂ１ＥＲ００
 41
0.5
  7
STANDARD
100
AcDbText
  0
TEXT
  5
259
100
AcDbEntity
  8
M1
 62
     2
100
AcDbText
 10
102.5
 20
22.5
 40
5.0
  1
形　式；
  7
STANDARD
100
AcDbText
  0
TEXT
  5
25A
100
AcDbEntity
  8
M1
 62
     2
100
AcDbText
 10
126.5
 20
22.5
 40
5.0
  1
ＴＲ１２Ｂ－１Ｅ，ＴＲ１２Ｂ－１ＥＦ，ＴＲ１２Ｂ－２Ｅ，ＴＲ１２Ｂ－２ＥＦ
 41
0.25
  7
STANDARD
100
AcDbText
  0
LINE
  5
25B
100
AcDbEntity
  8
DN0
100
AcDbLine
 10
32.381153
 20
129.446503
 11
82.67115
 21
129.446503
  0
TEXT
  5
25C
100
AcDbEntity
  8
DN0
100
AcDbText
 10
32.94282
 20
129.946503
 40
5.0
  1
単独使用できません。
 41
0.833333
  7
STANDARD
100
AcDbText
  0
TEXT
  5
25D
100
AcDbEntity
  8
DN0
100
AcDbText
 10
33.531644
 20
122.529961
 40
3.15
  1
電磁接触器Ｈ８Ｃ，Ｈ１０Ｃ，
 41
0.833333
  7
STANDARD
100
AcDbText
  0
TEXT
  5
25E
100
AcDbEntity
  8
DN0
100
AcDbText
 10
33.531644
 20
117.979958
 40
3.15
  1
Ｈ１１，Ｈ１２，Ｈ１０Ｂ－Ｒ
 41
0.833333
  7
STANDARD
100
AcDbText
  0
TEXT
  5
25F
100
AcDbEntity
  8
DN0
100
AcDbText
 10
33.531644
 20
113.429955
 40
3.15
  1
と組み合わせ専用品です。
 41
0.833333
  7
STANDARD
100
AcDbText
  0
ENDSEC
  0
SECTION
  2
OBJECTS
  0
DICTIONARY
  5
C
100
AcDbDictionary
  3
ACAD_GROUP
350
D
  3
ACAD_MLINESTYLE
350
E
  0
DICTIONARY
  5
D
102
{ACAD_REACTORS
330
C
102
}
100
AcDbDictionary
  0
DICTIONARY
  5
E
102
{ACAD_REACTORS
330
C
102
}
100
AcDbDictionary
  3
STANDARD
350
13
  0
MLINESTYLE
  5
13
102
{ACAD_REACTORS
330
E
102
}
100
AcDbMlineStyle
  2
STANDARD
 70
     0
  3

 62
     0
 51
90.0
 52
90.0
 71
     2
 49
0.5
 62
   256
  6
BYLAYER
 49
-0.5
 62
   256
  6
BYLAYER
  0
ENDSEC
  0
EOF
