  0
SECTION
  2
HEADER
  9
$ACADVER
  1
AC1014
  9
$INSBASE
 10
0.000000
 20
0.000000
 30
0.0
  9
$VIEWCTR
 10
7.531722
 20
4.5
  9
$VIEWSIZE
 40
9.0
  9
$SNAPMODE
 70
     0
  9
$SNAPUNIT
 10
1.0
 20
1.0
  9
$SNAPBASE
 10
0.0
 20
0.0
  9
$SNAPANG
 50
0.0
  9
$SNAPSTYLE
 70
     0
  9
$SNAPISOPAIR
 70
     0
  9
$GRIDMODE
 70
     0
  9
$GRIDUNIT
 10
0.0
 20
0.0
  9
$ORTHOMODE
 70
     0
  9
$REGENMODE
 70
     1
  9
$FILLMODE
 70
     1
  9
$QTEXTMODE
 70
     0
  9
$DRAGMODE
 70
     2
  9
$LTSCALE
  40
     1.000000
  9
$OSMODE
 70
     0
  9
$ATTMODE
 70
     1
  9
$TEXTSIZE
 40
0.2
  9
$TRACEWID
 40
0.05
  9
$TEXTSTYLE
  7
STANDARD
  9
$CELTYPE
  6
BYLAYER
  9
$CECOLOR
 62
   256
  9
$DIMSCALE
 40
1.0
  9
$DIMASZ
 40
0.18
  9
$DIMEXO
 40
0.0625
  9
$DIMDLI
 40
0.38
  9
$DIMRND
 40
0.0
  9
$DIMDLE
 40
0.0
  9
$DIMEXE
 40
0.18
  9
$DIMTP
 40
0.0
  9
$DIMTM
 40
0.0
  9
$DIMTXT
 40
0.18
  9
$DIMCEN
 40
0.09
  9
$DIMTSZ
 40
0.0
  9
$DIMTOL
 70
     0
  9
$DIMLIM
 70
     0
  9
$DIMTIH
 70
     1
  9
$DIMTOH
 70
     1
  9
$DIMSE1
 70
     0
  9
$DIMSE2
 70
     0
  9
$DIMTAD
 70
     0
  9
$DIMZIN
 70
     0
  9
$DIMBLK
  1

  9
$LUNITS
 70
     2
  9
$LUPREC
 70
     4
  9
$AXISMODE
 70
     0
  9
$AXISUNIT
 10
0.0
 20
0.0
  9
$SKETCHINC
 40
0.1
  9
$FILLETRAD
 40
0.0
  9
$AUNITS
 70
     0
  9
$AUPREC
 70
     0
  9
$MENU
  1
ACAD
  9
$ELEVATION
 40
0.0
  9
$THICKNESS
 40
0.0
  9
$VIEWDIR
 10
0.0
 20
0.0
 30
1.0
  9
$LIMCHECK
 70
     0
  9
$BLIPMODE
 70
     1
  9
$CHAMFERA
 40
0.0
  9
$CHAMFERB
 40
0.0
  9
$FASTZOOM
 70
     1
  9
$SKPOLY
 70
     0
  9
$TDCREATE
 40
0000000.0000000000
  9
$TDUPDATE
 40
0000000.0000000000
  9
$TDINDWG
 40
0.0000000000
  9
$TDUSRTIMER
 40
0.0000000000
  9
$USRTIMER
 70
     1
  9
$ANGBASE
 50
0.0
  9
$ANGDIR
 70
     0
  9
$PDMODE
 70
     0
  9
$PDSIZE
 40
0.0
  9
$PLINEWID
 40
0.0
  9
$COORDS
 70
     0
  9
$USERI1
 70
     0
  9
$USERI2
 70
     0
  9
$USERI3
 70
     0
  9
$USERI4
 70
     0
  9
$USERI5
 70
     0
  9
$USERR1
 40
0.0
  9
$USERR2
 40
0.0
  9
$USERR3
 40
0.0
  9
$USERR4
 40
0.0
  9
$USERR5
 40
0.0
  9
$CLAYER
  8
M0
  9
$EXTMIN
 10
14.285715
 20
14.285715
  9
$EXTMAX
 10
285.714291
 20
407.142864
  9
$LIMMIN
 10
0.0
 20
0.0
  9
$LIMMAX
 10
210.0
 20
297.0
  9
$HANDSEED
  5
2F0
  0
ENDSEC
  0
SECTION
  2
CLASSES
  0
ENDSEC
  0
SECTION
  2
TABLES
  0
TABLE
  2
VPORT
  5
8
100
AcDbSymbolTable
 70
     2
  0
VPORT
  5
14
100
AcDbSymbolTableRecord
100
AcDbViewportTableRecord
  2
*ACTIVE
 70
     0
 10
0.0
 20
0.0
 11
1.0
 21
1.0
 12
484.0
 22
297.0
 13
0.0
 23
0.0
 14
1.0
 24
1.0
 15
0.0
 25
0.0
 16
0.0
 26
0.0
 36
1.0
 17
0.0
 27
0.0
 37
0.0
 40
594.0
 41
2.0
 42
50.0
 43
0.0
 44
0.0
 50
0.0
 51
0.0
 71
     0
 72
   100
 73
     1
 74
     1
 75
     0
 76
     0
 77
     0
 78
     0
  0
ENDTAB
  0
TABLE
  2
LTYPE
  5
5
100
AcDbSymbolTable
 70
     5
  0
LTYPE
  5
15
100
AcDbSymbolTableRecord
100
AcDbLinetypeTableRecord
  2
BYBLOCK
 70
     0
  3

 72
    65
 73
     0
 40
0.0
  0
LTYPE
  5
16
100
AcDbSymbolTableRecord
100
AcDbLinetypeTableRecord
  2
BYLAYER
 70
     0
  3

 72
    65
 73
     0
 40
0.0
  0
LTYPE
  5
17
100
AcDbSymbolTableRecord
100
AcDbLinetypeTableRecord
  2
CONTINUOUS
 70
    64
  3
Solid line
 72
    65
 73
     0
 40
0.0
  0
LTYPE
  5
18
100
AcDbSymbolTableRecord
100
AcDbLinetypeTableRecord
  2
DASHED
 70
    64
  3
__ __ __ __ __ __ __ __ __ __ __ __ __ __ __ __
 72
    65
 73
     2
 40
0.75
 49
0.5
 74
     0
 49
-0.25
 74
     0
  0
LTYPE
  5
19
100
AcDbSymbolTableRecord
100
AcDbLinetypeTableRecord
  2
DASHDOT
 70
    64
  3
__ . __ . __ . __ . __ . __ . __ . __ . __ . __
 72
    65
 73
     4
 40
1.0
 49
0.5
 74
     0
 49
-0.25
 74
     0
 49
0.0
 74
     0
 49
-0.25
 74
     0
  0
LTYPE
  5
1A
100
AcDbSymbolTableRecord
100
AcDbLinetypeTableRecord
  2
DIVIDE
 70
    64
  3
____ . . ____ . . ____ . . ____ . . ____ . . __
 72
    65
 73
     6
 40
1.25
 49
0.5
 74
     0
 49
-0.25
 74
     0
 49
0.0
 74
     0
 49
-0.25
 74
     0
 49
0.0
 74
     0
 49
-0.25
 74
     0
  0
LTYPE
  5
1B
100
AcDbSymbolTableRecord
100
AcDbLinetypeTableRecord
  2
DOT
 70
    64
  3
. . . . . . . . . . . . . . . . . . . . . . . .
 72
    65
 73
     2
 40
0.25
 49
0.0
 74
     0
 49
-0.25
 74
     0
  0
ENDTAB
  0
TABLE
  2
LAYER
  5
2
100
AcDbSymbolTable
 70
   102
  0
LAYER
  5
F
100
AcDbSymbolTableRecord
100
AcDbLayerTableRecord
  2
0
 70
     0
 62
     7
  6
CONTINUOUS
  0
LAYER
  5
1C
100
AcDbSymbolTableRecord
100
AcDbLayerTableRecord
  2
DEFPOINTS
 70
     0
 62
     7
  6
CONTINUOUS
  0
LAYER
  5
1D
100
AcDbSymbolTableRecord
100
AcDbLayerTableRecord
  2
M0
 70
     0
 62
     3
  6
CONTINUOUS
  0
LAYER
  5
1E
100
AcDbSymbolTableRecord
100
AcDbLayerTableRecord
  2
M1
 70
     0
 62
     3
  6
CONTINUOUS
  0
LAYER
  5
1F
100
AcDbSymbolTableRecord
100
AcDbLayerTableRecord
  2
DD0
 70
     0
 62
     4
  6
CONTINUOUS
  0
LAYER
  5
20
100
AcDbSymbolTableRecord
100
AcDbLayerTableRecord
  2
DN0
 70
     0
 62
     2
  6
CONTINUOUS
  0
ENDTAB
  0
TABLE
  2
STYLE
  5
3
100
AcDbSymbolTable
 70
     2
  0
STYLE
  5
10
100
AcDbSymbolTableRecord
100
AcDbTextStyleTableRecord
  2
STANDARD
 70
     0
 40
0.0
 41
1.0
 50
0.0
 71
     0
 42
0.2
  3
txt
  4
BIGFONT
  0
ENDTAB
  0
TABLE
  2
VIEW
  5
6
100
AcDbSymbolTable
 70
     0
  0
ENDTAB
  0
TABLE
  2
UCS
  5
7
100
AcDbSymbolTable
 70
     0
  0
ENDTAB
  0
TABLE
  2
APPID
  5
9
100
AcDbSymbolTable
 70
     1
  0
APPID
  5
11
100
AcDbSymbolTableRecord
100
AcDbRegAppTableRecord
  2
ACAD
 70
     0
  0
ENDTAB
  0
TABLE
  2
DIMSTYLE
  5
A
100
AcDbSymbolTable
 70
     2
  0
DIMSTYLE
105
27
100
AcDbSymbolTableRecord
100
AcDbDimStyleTableRecord
  2
STANDARD
 70
     0
  3

  4

  5

  6
_OPEN
  7
_OPEN
 40
1.0
 41
4.285714
 42
1.0
 43
8.0
 44
1.0
 45
0.0
 46
0.0
 47
0.0
 48
0.0
140
4.5
141
0.09
142
0.0
143
0.03937
144
1.0
145
0.0
146
1.0
147
0.6
 71
     0
 72
     0
 73
     1
 74
     1
 75
     0
 76
     0
 77
     3
 78
     8
170
     0
171
     2
172
     0
173
     1
174
     0
175
     0
176
     0
177
     0
178
     0
270
     2
271
     2
272
     4
273
     2
274
     2
340
10
275
     0
280
     0
281
     0
282
     0
283
     1
284
     0
285
     0
286
     0
287
     3
288
     0
  0
DIMSTYLE
105
28
100
AcDbSymbolTableRecord
100
AcDbDimStyleTableRecord
  2
LEADSTYL
 70
     0
  3

  4

  5

  6
_OPEN
  7
_OPEN
 40
1.0
 41
4.285714
 42
0.0625
 43
0.38
 44
0.18
 45
0.0
 46
0.0
 47
0.0
 48
0.0
140
4.5
141
0.09
142
0.0
143
25.4
144
1.0
145
0.0
146
1.0
147
0.6
 71
     0
 72
     0
 73
     1
 74
     1
 75
     0
 76
     0
 77
     0
 78
     0
170
     0
171
     2
172
     0
173
     1
174
     0
175
     0
176
     0
177
     0
178
     0
270
     2
271
     4
272
     4
273
     2
274
     2
340
10
275
     0
280
     0
281
     0
282
     0
283
     1
284
     0
285
     0
286
     0
287
     3
288
     0
  0
ENDTAB
  0
TABLE
  2
BLOCK_RECORD
  5
1
100
AcDbSymbolTable
 70
    10
  0
BLOCK_RECORD
  5
21
100
AcDbSymbolTableRecord
100
AcDbBlockTableRecord
  2
*MODEL_SPACE
  0
BLOCK_RECORD
  5
24
100
AcDbSymbolTableRecord
100
AcDbBlockTableRecord
  2
*PAPER_SPACE
  0
BLOCK_RECORD
  5
29
100
AcDbSymbolTableRecord
100
AcDbBlockTableRecord
  2
_NONE
  0
BLOCK_RECORD
  5
2D
100
AcDbSymbolTableRecord
100
AcDbBlockTableRecord
  2
_OPEN
  0
BLOCK_RECORD
  5
33
100
AcDbSymbolTableRecord
100
AcDbBlockTableRecord
  2
_CLOSED
  0
BLOCK_RECORD
  5
3A
100
AcDbSymbolTableRecord
100
AcDbBlockTableRecord
  2
_ORIGIN
  0
BLOCK_RECORD
  5
3F
100
AcDbSymbolTableRecord
100
AcDbBlockTableRecord
  2
_DOT
  0
BLOCK_RECORD
  5
47
100
AcDbSymbolTableRecord
100
AcDbBlockTableRecord
  2
_OBLIQUE
  0
BLOCK_RECORD
  5
4B
100
AcDbSymbolTableRecord
100
AcDbBlockTableRecord
  2
DIMS0
  0
BLOCK_RECORD
  5
57
100
AcDbSymbolTableRecord
100
AcDbBlockTableRecord
  2
DIMS1
  0
BLOCK_RECORD
  5
63
100
AcDbSymbolTableRecord
100
AcDbBlockTableRecord
  2
DIMS2
  0
BLOCK_RECORD
  5
6F
100
AcDbSymbolTableRecord
100
AcDbBlockTableRecord
  2
DIMS3
  0
ENDTAB
  0
ENDSEC
  0
SECTION
  2
BLOCKS
  0
BLOCK
  5
22
100
AcDbEntity
  8
0
100
AcDbBlockBegin
  2
*MODEL_SPACE
 70
     0
 10
0.0
 20
0.0
 30
0.0
  3
*MODEL_SPACE
  1

  0
ENDBLK
  5
23
100
AcDbEntity
  8
0
100
AcDbBlockEnd
  0
BLOCK
  5
25
100
AcDbEntity
 67
     1
  8
0
100
AcDbBlockBegin
  2
*PAPER_SPACE
 70
     0
 10
0.0
 20
0.0
 30
0.0
  3
*PAPER_SPACE
  1

  0
ENDBLK
  5
26
100
AcDbEntity
 67
     1
  8
0
100
AcDbBlockEnd
  0
BLOCK
  5
2A
100
AcDbEntity
  8
0
100
AcDbBlockBegin
  2
_NONE
 70
     0
 10
0.0
 20
0.0
  0
CIRCLE
  5
2B
100
AcDbEntity
  8
0
 62
     0
100
AcDbCircle
 10
0.0
 20
0.0
 40
0.25
  0
ENDBLK
  5
2C
100
AcDbEntity
  8
0
100
AcDbBlockEnd
  0
BLOCK
  5
2E
100
AcDbEntity
  8
0
100
AcDbBlockBegin
  2
_OPEN
 70
     0
 10
0.0
 20
0.0
  0
LINE
  5
2F
100
AcDbEntity
  8
0
 62
     0
100
AcDbLine
 10
-0.965926
 20
0.258819
 11
0.0
 21
0.0
  0
LINE
  5
30
100
AcDbEntity
  8
0
 62
     0
100
AcDbLine
 10
0.0
 20
0.0
 11
-0.965926
 21
-0.258819
  0
LINE
  5
31
100
AcDbEntity
  8
0
 62
     0
100
AcDbLine
 10
0.0
 20
0.0
 11
-1.0
 21
0.0
  0
ENDBLK
  5
32
100
AcDbEntity
  8
0
100
AcDbBlockEnd
  0
BLOCK
  5
34
100
AcDbEntity
  8
0
100
AcDbBlockBegin
  2
_CLOSED
 70
     0
 10
0.0
 20
0.0
  0
LINE
  5
35
100
AcDbEntity
  8
0
 62
     0
100
AcDbLine
 10
-0.965926
 20
0.258819
 11
0.0
 21
0.0
  0
LINE
  5
36
100
AcDbEntity
  8
0
 62
     0
100
AcDbLine
 10
0.0
 20
0.0
 11
-0.965926
 21
-0.258819
  0
LINE
  5
37
100
AcDbEntity
  8
0
 62
     0
100
AcDbLine
 10
-0.965926
 20
0.258819
 11
-0.965926
 21
-0.258819
  0
LINE
  5
38
100
AcDbEntity
  8
0
 62
     0
100
AcDbLine
 10
0.0
 20
0.0
 11
-1.0
 21
0.0
  0
ENDBLK
  5
39
100
AcDbEntity
  8
0
100
AcDbBlockEnd
  0
BLOCK
  5
3B
100
AcDbEntity
  8
0
100
AcDbBlockBegin
  2
_ORIGIN
 70
     0
 10
0.0
 20
0.0
  0
CIRCLE
  5
3C
100
AcDbEntity
  8
0
 62
     0
100
AcDbCircle
 10
0.0
 20
0.0
 40
0.5
  0
LINE
  5
3D
100
AcDbEntity
  8
0
 62
     0
100
AcDbLine
 10
0.0
 20
0.0
 11
-1.0
 21
0.0
  0
ENDBLK
  5
3E
100
AcDbEntity
  8
0
100
AcDbBlockEnd
  0
BLOCK
  5
40
100
AcDbEntity
  8
0
100
AcDbBlockBegin
  2
_DOT
 70
     0
 10
0.0
 20
0.0
  0
POLYLINE
  5
41
100
AcDbEntity
  8
0
 62
     0
100
AcDb2dPolyline
 66
     1
 70
     1
 40
0.5
 41
0.5
  0
VERTEX
  5
42
100
AcDbEntity
  8
0
 62
     0
100
AcDbVertex
100
AcDb2dVertex
 10
-0.25
 20
0.0
 42
1.0
  0
VERTEX
  5
43
100
AcDbEntity
  8
0
 62
     0
100
AcDbVertex
100
AcDb2dVertex
 10
0.25
 20
0.0
 42
1.0
  0
SEQEND
  5
44
100
AcDbEntity
  8
0
 62
     0
  0
LINE
  5
45
100
AcDbEntity
  8
0
 62
     0
100
AcDbLine
 10
-0.5
 20
0.0
 11
-1.0
 21
0.0
  0
ENDBLK
  5
46
100
AcDbEntity
  8
0
100
AcDbBlockEnd
  0
BLOCK
  5
48
100
AcDbEntity
  8
0
100
AcDbBlockBegin
  2
_OBLIQUE
 70
     0
 10
0.0
 20
0.0
  0
LINE
  5
49
100
AcDbEntity
  8
0
 62
     0
100
AcDbLine
 10
-0.353553
 20
-0.353553
 11
0.353553
 21
0.353553
  0
ENDBLK
  5
4A
100
AcDbEntity
  8
0
100
AcDbBlockEnd
  0
BLOCK
  5
4C
100
AcDbEntity
  8
DD0
100
AcDbBlockBegin
  2
DIMS0
 70
     0
 10
0.0
 20
0.0
  0
LINE
  5
4D
100
AcDbEntity
  8
DD0
100
AcDbLine
 10
44.669634
 20
333.577211
 11
27.727539
 21
333.577211
  0
LINE
  5
4E
100
AcDbEntity
  8
DD0
100
AcDbLine
 10
43.669794
 20
255.978354
 11
27.727539
 21
255.978354
  0
LINE
  5
4F
100
AcDbEntity
  8
DD0
100
AcDbLine
 10
30.265335
 20
329.437529
 11
29.15611
 21
333.577211
  0
LINE
  5
50
100
AcDbEntity
  8
DD0
100
AcDbLine
 10
29.15611
 20
333.577211
 11
28.046886
 21
329.437529
  0
LINE
  5
51
100
AcDbEntity
  8
DD0
100
AcDbLine
 10
28.046886
 20
260.118036
 11
29.15611
 21
255.978354
  0
LINE
  5
52
100
AcDbEntity
  8
DD0
100
AcDbLine
 10
29.15611
 20
255.978354
 11
30.265335
 21
260.118036
  0
LINE
  5
53
100
AcDbEntity
  8
DD0
100
AcDbLine
 10
29.15611
 20
333.577211
 11
29.15611
 21
255.978354
  0
TEXT
  5
54
100
AcDbEntity
  8
DD0
100
AcDbText
 10
28.298967
 20
291.83137
 40
3.571429
  1
７８
 50
90.000003
 41
0.75
  7
STANDARD
100
AcDbText
  0
ENDBLK
  5
55
100
AcDbEntity
  8
DD0
100
AcDbBlockEnd
  0
BLOCK
  5
58
100
AcDbEntity
  8
DD0
100
AcDbBlockBegin
  2
DIMS1
 70
     0
 10
0.0
 20
0.0
  0
LINE
  5
59
100
AcDbEntity
  8
DD0
100
AcDbLine
 10
40.098221
 20
335.005782
 11
40.098221
 21
354.892388
  0
LINE
  5
5A
100
AcDbEntity
  8
DD0
100
AcDbLine
 10
143.102071
 20
341.00604
 11
143.102071
 21
354.892388
  0
LINE
  5
5B
100
AcDbEntity
  8
DD0
100
AcDbLine
 10
44.237903
 20
354.573041
 11
40.098221
 21
353.463817
  0
LINE
  5
5C
100
AcDbEntity
  8
DD0
100
AcDbLine
 10
40.098221
 20
353.463817
 11
44.237903
 21
352.354592
  0
LINE
  5
5D
100
AcDbEntity
  8
DD0
100
AcDbLine
 10
138.962388
 20
352.354592
 11
143.102071
 21
353.463817
  0
LINE
  5
5E
100
AcDbEntity
  8
DD0
100
AcDbLine
 10
143.102071
 20
353.463817
 11
138.962388
 21
354.573041
  0
LINE
  5
5F
100
AcDbEntity
  8
DD0
100
AcDbLine
 10
40.098221
 20
353.463817
 11
143.102071
 21
353.463817
  0
TEXT
  5
60
100
AcDbEntity
  8
DD0
100
AcDbText
 10
87.559673
 20
354.320968
 40
3.571429
  1
１０３
 41
0.666667
  7
STANDARD
100
AcDbText
  0
ENDBLK
  5
61
100
AcDbEntity
  8
DD0
100
AcDbBlockEnd
  0
BLOCK
  5
64
100
AcDbEntity
  8
DD0
100
AcDbBlockBegin
  2
DIMS2
 70
     0
 10
0.0
 20
0.0
  0
LINE
  5
65
100
AcDbEntity
  8
DD0
100
AcDbLine
 10
260.898747
 20
295.147884
 11
260.898747
 21
274.415157
  0
LINE
  5
66
100
AcDbEntity
  8
DD0
 60
     1
100
AcDbLine
 10
261.898023
 20
292.0478
 11
261.898023
 21
274.415157
  0
LINE
  5
67
100
AcDbEntity
  8
DD0
100
AcDbLine
 10
256.759065
 20
274.734504
 11
260.898747
 21
275.843729
  0
LINE
  5
68
100
AcDbEntity
  8
DD0
100
AcDbLine
 10
260.898747
 20
275.843729
 11
256.759065
 21
276.952953
  0
LINE
  5
69
100
AcDbEntity
  8
DD0
100
AcDbLine
 10
266.037706
 20
276.952953
 11
261.898023
 21
275.843729
  0
LINE
  5
6A
100
AcDbEntity
  8
DD0
100
AcDbLine
 10
261.898023
 20
275.843729
 11
266.037706
 21
274.734504
  0
LINE
  5
6B
100
AcDbEntity
  8
DD0
100
AcDbLine
 10
239.456041
 20
275.843729
 11
266.612309
 21
275.843729
  0
TEXT
  5
6C
100
AcDbEntity
  8
DD0
100
AcDbText
 10
241.130221
 20
276.70078
 40
3.571429
  1
１（取付足）
 50
-0.023647
 41
0.666667
  7
STANDARD
100
AcDbText
  0
ENDBLK
  5
6D
100
AcDbEntity
  8
DD0
100
AcDbBlockEnd
  0
BLOCK
  5
70
100
AcDbEntity
  8
DD0
100
AcDbBlockBegin
  2
DIMS3
 70
     0
 10
0.0
 20
0.0
  0
LINE
  5
71
100
AcDbEntity
  8
DD0
100
AcDbLine
 10
162.697833
 20
260.549539
 11
162.697833
 21
240.681549
  0
LINE
  5
72
100
AcDbEntity
  8
DD0
100
AcDbLine
 10
261.898023
 20
292.0478
 11
261.898023
 21
240.681549
  0
LINE
  5
73
100
AcDbEntity
  8
DD0
100
AcDbLine
 10
166.837515
 20
243.219345
 11
162.697833
 21
242.11012
  0
LINE
  5
74
100
AcDbEntity
  8
DD0
100
AcDbLine
 10
162.697833
 20
242.11012
 11
166.837515
 21
241.000896
  0
LINE
  5
75
100
AcDbEntity
  8
DD0
100
AcDbLine
 10
257.758341
 20
241.000896
 11
261.898023
 21
242.11012
  0
LINE
  5
76
100
AcDbEntity
  8
DD0
100
AcDbLine
 10
261.898023
 20
242.11012
 11
257.758341
 21
243.219345
  0
LINE
  5
77
100
AcDbEntity
  8
DD0
100
AcDbLine
 10
162.697833
 20
242.11012
 11
261.898023
 21
242.11012
  0
TEXT
  5
78
100
AcDbEntity
  8
DD0
100
AcDbText
 10
209.68602
 20
242.967272
 40
3.571429
  1
９９
 41
0.666667
  7
STANDARD
100
AcDbText
  0
ENDBLK
  5
79
100
AcDbEntity
  8
DD0
100
AcDbBlockEnd
  0
ENDSEC
  0
SECTION
  2
ENTITIES
  0
INSERT
  5
56
100
AcDbEntity
  8
DD0
100
AcDbBlockReference
  2
DIMS0
 10
0.0
 20
0.0
  0
INSERT
  5
62
100
AcDbEntity
  8
DD0
100
AcDbBlockReference
  2
DIMS1
 10
0.0
 20
0.0
  0
INSERT
  5
6E
100
AcDbEntity
  8
DD0
100
AcDbBlockReference
  2
DIMS2
 10
0.0
 20
0.0
  0
INSERT
  5
7A
100
AcDbEntity
  8
DD0
100
AcDbBlockReference
  2
DIMS3
 10
0.0
 20
0.0
  0
LINE
  5
7B
100
AcDbEntity
  8
M0
 62
     4
100
AcDbLine
 10
47.098397
 20
185.154023
 11
46.598213
 21
185.154023
  0
LINE
  5
7C
100
AcDbEntity
  8
M0
100
AcDbLine
 10
48.348229
 20
292.728348
 11
61.848229
 21
292.728348
  0
LINE
  5
7D
100
AcDbEntity
  8
M0
100
AcDbLine
 10
62.848229
 20
293.728104
 11
62.848229
 21
307.22786
  0
LINE
  5
7E
100
AcDbEntity
  8
M0
100
AcDbLine
 10
47.348229
 20
307.228104
 11
47.348229
 21
293.728348
  0
ARC
  5
7F
100
AcDbEntity
  8
M0
100
AcDbCircle
 10
61.848229
 20
307.228104
 40
1.0
100
AcDbArc
 50
359.985957
 51
374.506665
  0
ARC
  5
80
100
AcDbEntity
  8
M0
100
AcDbCircle
 10
48.348229
 20
307.228104
 40
1.0
100
AcDbArc
 50
165.493658
 51
180.0
  0
ARC
  5
81
100
AcDbEntity
  8
M0
100
AcDbCircle
 10
48.348229
 20
293.728348
 40
1.0
100
AcDbArc
 50
179.999945
 51
270.0
  0
ARC
  5
82
100
AcDbEntity
  8
M0
100
AcDbCircle
 10
61.848229
 20
293.728348
 40
1.0
100
AcDbArc
 50
270.0
 51
359.986012
  0
CIRCLE
  5
83
100
AcDbEntity
  8
M0
100
AcDbCircle
 10
55.098229
 20
300.478348
 40
5.249997
  0
LINE
  5
84
100
AcDbEntity
  8
M0
  6
DASHDOT
100
AcDbLine
 10
42.340721
 20
300.478348
 11
67.855736
 21
300.478348
  0
LINE
  5
85
100
AcDbEntity
  8
M0
  6
DASHDOT
100
AcDbLine
 10
55.098229
 20
287.72078
 11
55.098229
 21
313.235672
  0
LINE
  5
86
100
AcDbEntity
  8
M0
100
AcDbLine
 10
57.465447
 20
298.110916
 11
52.528816
 21
303.047684
  0
LINE
  5
87
100
AcDbEntity
  8
M0
100
AcDbLine
 10
52.829857
 20
298.916825
 11
56.630974
 21
302.71785
  0
LINE
  5
88
100
AcDbEntity
  8
M0
100
AcDbLine
 10
53.536965
 20
298.209549
 11
57.338066
 21
302.010575
  0
LINE
  5
89
100
AcDbEntity
  8
M0
100
AcDbLine
 10
74.348198
 20
292.728348
 11
87.848198
 21
292.728348
  0
LINE
  5
8A
100
AcDbEntity
  8
M0
100
AcDbLine
 10
88.848198
 20
293.728104
 11
88.848198
 21
307.22786
  0
LINE
  5
8B
100
AcDbEntity
  8
M0
100
AcDbLine
 10
73.348198
 20
307.228104
 11
73.348198
 21
293.728348
  0
ARC
  5
8C
100
AcDbEntity
  8
M0
100
AcDbCircle
 10
87.848198
 20
307.228104
 40
1.0
100
AcDbArc
 50
359.985957
 51
374.492299
  0
ARC
  5
8D
100
AcDbEntity
  8
M0
100
AcDbCircle
 10
74.348198
 20
307.228104
 40
1.0
100
AcDbArc
 50
165.508104
 51
180.0
  0
ARC
  5
8E
100
AcDbEntity
  8
M0
100
AcDbCircle
 10
74.348198
 20
293.728348
 40
1.0
100
AcDbArc
 50
179.999945
 51
270.0
  0
ARC
  5
8F
100
AcDbEntity
  8
M0
100
AcDbCircle
 10
87.848198
 20
293.728348
 40
1.0
100
AcDbArc
 50
270.0
 51
359.986012
  0
CIRCLE
  5
90
100
AcDbEntity
  8
M0
100
AcDbCircle
 10
81.098198
 20
300.478348
 40
5.249997
  0
LINE
  5
91
100
AcDbEntity
  8
M0
  6
DASHDOT
100
AcDbLine
 10
68.340691
 20
300.478348
 11
93.855705
 21
300.478348
  0
LINE
  5
92
100
AcDbEntity
  8
M0
  6
DASHDOT
100
AcDbLine
 10
81.098198
 20
287.72078
 11
81.098198
 21
313.235672
  0
LINE
  5
93
100
AcDbEntity
  8
M0
100
AcDbLine
 10
83.465416
 20
298.110916
 11
78.528786
 21
303.047684
  0
LINE
  5
94
100
AcDbEntity
  8
M0
100
AcDbLine
 10
78.829827
 20
298.916825
 11
82.630944
 21
302.71785
  0
LINE
  5
95
100
AcDbEntity
  8
M0
100
AcDbLine
 10
79.536934
 20
298.209549
 11
83.338036
 21
302.010575
  0
LINE
  5
96
100
AcDbEntity
  8
M0
100
AcDbLine
 10
100.348046
 20
292.728348
 11
113.848046
 21
292.728348
  0
LINE
  5
97
100
AcDbEntity
  8
M0
100
AcDbLine
 10
114.848046
 20
293.728104
 11
114.848046
 21
307.22786
  0
LINE
  5
98
100
AcDbEntity
  8
M0
100
AcDbLine
 10
99.348046
 20
307.228104
 11
99.348046
 21
293.728348
  0
ARC
  5
99
100
AcDbEntity
  8
M0
100
AcDbCircle
 10
113.848046
 20
307.228104
 40
1.0
100
AcDbArc
 50
359.985957
 51
374.477881
  0
ARC
  5
9A
100
AcDbEntity
  8
M0
100
AcDbCircle
 10
100.348046
 20
307.228104
 40
1.0
100
AcDbArc
 50
165.508104
 51
180.0
  0
ARC
  5
9B
100
AcDbEntity
  8
M0
100
AcDbCircle
 10
100.348046
 20
293.728348
 40
1.0
100
AcDbArc
 50
179.999945
 51
270.0
  0
ARC
  5
9C
100
AcDbEntity
  8
M0
100
AcDbCircle
 10
113.848046
 20
293.728348
 40
1.0
100
AcDbArc
 50
270.0
 51
359.986012
  0
CIRCLE
  5
9D
100
AcDbEntity
  8
M0
100
AcDbCircle
 10
107.098046
 20
300.478348
 40
5.249997
  0
LINE
  5
9E
100
AcDbEntity
  8
M0
  6
DASHDOT
100
AcDbLine
 10
94.340538
 20
300.478348
 11
119.855553
 21
300.478348
  0
LINE
  5
9F
100
AcDbEntity
  8
M0
  6
DASHDOT
100
AcDbLine
 10
107.098046
 20
287.72078
 11
107.098046
 21
313.235672
  0
LINE
  5
A0
100
AcDbEntity
  8
M0
100
AcDbLine
 10
109.465264
 20
298.110916
 11
104.528633
 21
303.047684
  0
LINE
  5
A1
100
AcDbEntity
  8
M0
100
AcDbLine
 10
104.829674
 20
298.916825
 11
108.630791
 21
302.71785
  0
LINE
  5
A2
100
AcDbEntity
  8
M0
100
AcDbLine
 10
105.536782
 20
298.209549
 11
109.337883
 21
302.010575
  0
LINE
  5
A3
100
AcDbEntity
  8
M0
100
AcDbLine
 10
74.348198
 20
314.228348
 11
87.848198
 21
314.228348
  0
LINE
  5
A4
100
AcDbEntity
  8
M0
100
AcDbLine
 10
88.848198
 20
315.228104
 11
88.848198
 21
328.72786
  0
LINE
  5
A5
100
AcDbEntity
  8
M0
100
AcDbLine
 10
87.848198
 20
329.728348
 11
74.348198
 21
329.728348
  0
LINE
  5
A6
100
AcDbEntity
  8
M0
100
AcDbLine
 10
73.348198
 20
328.728104
 11
73.348198
 21
315.228348
  0
ARC
  5
A7
100
AcDbEntity
  8
M0
100
AcDbCircle
 10
87.848198
 20
328.728104
 40
1.0
100
AcDbArc
 50
359.985957
 51
450.0
  0
ARC
  5
A8
100
AcDbEntity
  8
M0
100
AcDbCircle
 10
74.348198
 20
328.728104
 40
1.0
100
AcDbArc
 50
90.0
 51
180.0
  0
ARC
  5
A9
100
AcDbEntity
  8
M0
100
AcDbCircle
 10
74.348198
 20
315.228348
 40
1.0
100
AcDbArc
 50
179.999945
 51
270.0
  0
ARC
  5
AA
100
AcDbEntity
  8
M0
100
AcDbCircle
 10
87.848198
 20
315.228348
 40
1.0
100
AcDbArc
 50
270.0
 51
359.986012
  0
CIRCLE
  5
AB
100
AcDbEntity
  8
M0
100
AcDbCircle
 10
81.098198
 20
321.978348
 40
5.249994
  0
LINE
  5
AC
100
AcDbEntity
  8
M0
  6
DASHDOT
100
AcDbLine
 10
68.340691
 20
321.978348
 11
93.855705
 21
321.978348
  0
LINE
  5
AD
100
AcDbEntity
  8
M0
  6
DASHDOT
100
AcDbLine
 10
81.098198
 20
309.22078
 11
81.098198
 21
334.735672
  0
LINE
  5
AE
100
AcDbEntity
  8
M0
100
AcDbLine
 10
83.465416
 20
319.610916
 11
78.528786
 21
324.547684
  0
LINE
  5
AF
100
AcDbEntity
  8
M0
100
AcDbLine
 10
78.829827
 20
320.416825
 11
82.630944
 21
324.21785
  0
LINE
  5
B0
100
AcDbEntity
  8
M0
100
AcDbLine
 10
79.536934
 20
319.709549
 11
83.338036
 21
323.510575
  0
LINE
  5
B1
100
AcDbEntity
  8
M0
100
AcDbLine
 10
100.348183
 20
314.228348
 11
113.848183
 21
314.228348
  0
LINE
  5
B2
100
AcDbEntity
  8
M0
100
AcDbLine
 10
114.848183
 20
315.228104
 11
114.848183
 21
328.72786
  0
LINE
  5
B3
100
AcDbEntity
  8
M0
100
AcDbLine
 10
113.848183
 20
329.728348
 11
100.348183
 21
329.728348
  0
LINE
  5
B4
100
AcDbEntity
  8
M0
100
AcDbLine
 10
99.348183
 20
328.728104
 11
99.348183
 21
315.228348
  0
ARC
  5
B5
100
AcDbEntity
  8
M0
100
AcDbCircle
 10
113.848183
 20
328.728104
 40
1.0
100
AcDbArc
 50
359.985957
 51
450.0
  0
ARC
  5
B6
100
AcDbEntity
  8
M0
100
AcDbCircle
 10
100.348183
 20
328.728104
 40
1.0
100
AcDbArc
 50
90.0
 51
180.0
  0
ARC
  5
B7
100
AcDbEntity
  8
M0
100
AcDbCircle
 10
100.348183
 20
315.228348
 40
1.0
100
AcDbArc
 50
179.999945
 51
270.0
  0
ARC
  5
B8
100
AcDbEntity
  8
M0
100
AcDbCircle
 10
113.848183
 20
315.228348
 40
1.0
100
AcDbArc
 50
270.0
 51
359.986012
  0
CIRCLE
  5
B9
100
AcDbEntity
  8
M0
100
AcDbCircle
 10
107.098183
 20
321.978348
 40
5.249994
  0
LINE
  5
BA
100
AcDbEntity
  8
M0
  6
DASHDOT
100
AcDbLine
 10
94.340676
 20
321.978348
 11
119.85569
 21
321.978348
  0
LINE
  5
BB
100
AcDbEntity
  8
M0
  6
DASHDOT
100
AcDbLine
 10
107.098183
 20
309.22078
 11
107.098183
 21
334.735672
  0
LINE
  5
BC
100
AcDbEntity
  8
M0
100
AcDbLine
 10
109.465401
 20
319.610916
 11
104.528771
 21
324.547684
  0
LINE
  5
BD
100
AcDbEntity
  8
M0
100
AcDbLine
 10
104.829811
 20
320.416825
 11
108.630928
 21
324.21785
  0
LINE
  5
BE
100
AcDbEntity
  8
M0
100
AcDbLine
 10
105.536919
 20
319.709549
 11
109.338021
 21
323.510575
  0
LINE
  5
BF
100
AcDbEntity
  8
M0
100
AcDbLine
 10
48.348244
 20
314.228348
 11
61.848244
 21
314.228348
  0
LINE
  5
C0
100
AcDbEntity
  8
M0
100
AcDbLine
 10
62.848244
 20
315.228104
 11
62.848244
 21
328.72786
  0
LINE
  5
C1
100
AcDbEntity
  8
M0
100
AcDbLine
 10
61.848244
 20
329.728348
 11
48.348244
 21
329.728348
  0
LINE
  5
C2
100
AcDbEntity
  8
M0
100
AcDbLine
 10
47.348244
 20
328.728104
 11
47.348244
 21
315.228348
  0
ARC
  5
C3
100
AcDbEntity
  8
M0
100
AcDbCircle
 10
61.848244
 20
328.728104
 40
1.0
100
AcDbArc
 50
359.985957
 51
450.0
  0
ARC
  5
C4
100
AcDbEntity
  8
M0
100
AcDbCircle
 10
48.348244
 20
328.728104
 40
1.0
100
AcDbArc
 50
90.0
 51
180.0
  0
ARC
  5
C5
100
AcDbEntity
  8
M0
100
AcDbCircle
 10
48.348244
 20
315.228348
 40
1.0
100
AcDbArc
 50
179.999945
 51
270.0
  0
ARC
  5
C6
100
AcDbEntity
  8
M0
100
AcDbCircle
 10
61.848244
 20
315.228348
 40
1.0
100
AcDbArc
 50
270.0
 51
359.986012
  0
CIRCLE
  5
C7
100
AcDbEntity
  8
M0
100
AcDbCircle
 10
55.098244
 20
321.978348
 40
5.249994
  0
LINE
  5
C8
100
AcDbEntity
  8
M0
  6
DASHDOT
100
AcDbLine
 10
42.340737
 20
321.978348
 11
67.855751
 21
321.978348
  0
LINE
  5
C9
100
AcDbEntity
  8
M0
  6
DASHDOT
100
AcDbLine
 10
55.098244
 20
309.22078
 11
55.098244
 21
334.735672
  0
LINE
  5
CA
100
AcDbEntity
  8
M0
100
AcDbLine
 10
57.465462
 20
319.610916
 11
52.528832
 21
324.547684
  0
LINE
  5
CB
100
AcDbEntity
  8
M0
100
AcDbLine
 10
52.829872
 20
320.416825
 11
56.630989
 21
324.21785
  0
LINE
  5
CC
100
AcDbEntity
  8
M0
100
AcDbLine
 10
53.53698
 20
319.709549
 11
57.338082
 21
323.510575
  0
LINE
  5
CD
100
AcDbEntity
  8
M0
 62
     4
100
AcDbLine
 10
66.098207
 20
333.578824
 11
66.097874
 21
287.978727
  0
LINE
  5
CE
100
AcDbEntity
  8
M0
 62
     4
100
AcDbLine
 10
67.097866
 20
286.978475
 11
69.097851
 21
286.978461
  0
LINE
  5
CF
100
AcDbEntity
  8
M0
 62
     4
100
AcDbLine
 10
70.097858
 20
287.978698
 11
70.098191
 21
333.578551
  0
LINE
  5
D0
100
AcDbEntity
  8
M0
 62
     4
100
AcDbLine
 10
92.097862
 20
288.478293
 11
92.098191
 21
333.57839
  0
LINE
  5
D1
100
AcDbEntity
  8
M0
 62
     4
100
AcDbLine
 10
96.097862
 20
288.478264
 11
96.098191
 21
333.578361
  0
LINE
  5
D2
100
AcDbEntity
  8
M0
 62
     4
100
AcDbLine
 10
95.09784
 20
287.478271
 11
93.09784
 21
287.478285
  0
LINE
  5
D3
100
AcDbEntity
  8
M0
 62
     4
100
AcDbLine
 10
120.948198
 20
331.57818
 11
96.09804
 21
331.578031
  0
ARC
  5
D4
100
AcDbEntity
  8
M0
 62
     4
100
AcDbCircle
 10
95.097847
 20
288.478271
 40
1.0
100
AcDbArc
 50
270.0
 51
359.999582
  0
ARC
  5
D5
100
AcDbEntity
  8
M0
 62
     4
100
AcDbCircle
 10
93.097847
 20
288.478285
 40
1.0
100
AcDbArc
 50
179.999582
 51
270.0
  0
ARC
  5
D6
100
AcDbEntity
  8
M0
 62
     4
100
AcDbCircle
 10
67.097874
 20
287.978719
 40
1.0
100
AcDbArc
 50
179.999582
 51
270.0
  0
ARC
  5
D7
100
AcDbEntity
  8
M0
 62
     4
100
AcDbCircle
 10
69.097858
 20
287.978705
 40
1.0
100
AcDbArc
 50
270.0
 51
359.999582
  0
LINE
  5
D8
100
AcDbEntity
  8
M0
  6
DASHDOT
 62
     4
100
AcDbLine
 10
81.097855
 20
287.478617
 11
81.098166
 21
330.078715
  0
LINE
  5
D9
100
AcDbEntity
  8
M0
 62
     4
100
AcDbLine
 10
89.597891
 20
292.478555
 11
89.597994
 21
306.478555
  0
LINE
  5
DA
100
AcDbEntity
  8
M0
 62
     4
100
AcDbLine
 10
92.097888
 20
289.978293
 11
89.597891
 21
292.478555
  0
LINE
  5
DB
100
AcDbEntity
  8
M0
 62
     4
100
AcDbLine
 10
70.097888
 20
289.978698
 11
72.597922
 21
292.478923
  0
LINE
  5
DC
100
AcDbEntity
  8
M0
 62
     4
100
AcDbLine
 10
72.597922
 20
292.478923
 11
72.598024
 21
306.478679
  0
LINE
  5
DD
100
AcDbEntity
  8
M0
 62
     4
100
AcDbLine
 10
118.097956
 20
307.478103
 11
114.598017
 21
307.478357
  0
LINE
  5
DE
100
AcDbEntity
  8
M0
 62
     4
100
AcDbLine
 10
118.102022
 20
309.978347
 11
97.098019
 21
309.9785
  0
LINE
  5
DF
100
AcDbEntity
  8
M0
 62
     4
100
AcDbLine
 10
116.098018
 20
311.978362
 11
97.098064
 21
311.9785
  0
LINE
  5
E0
100
AcDbEntity
  8
M0
 62
     4
100
AcDbLine
 10
89.598041
 20
312.978555
 11
89.598159
 21
329.078409
  0
LINE
  5
E1
100
AcDbEntity
  8
M0
 62
     4
100
AcDbLine
 10
72.598072
 20
312.978679
 11
72.598189
 21
329.078533
  0
ARC
  5
E2
100
AcDbEntity
  8
M0
 62
     4
100
AcDbCircle
 10
91.097994
 20
306.478544
 40
1.0
100
AcDbArc
 50
359.999582
 51
449.998707
  0
ARC
  5
E3
100
AcDbEntity
  8
M0
 62
     4
100
AcDbCircle
 10
88.597994
 20
306.478562
 40
1.0
100
AcDbArc
 50
359.999582
 51
449.998707
  0
ARC
  5
E4
100
AcDbEntity
  8
M0
 62
     4
100
AcDbCircle
 10
71.097994
 20
306.47869
 40
1.0
100
AcDbArc
 50
89.998707
 51
179.999582
  0
ARC
  5
E5
100
AcDbEntity
  8
M0
 62
     4
100
AcDbCircle
 10
73.598024
 20
306.478672
 40
1.0
100
AcDbArc
 50
89.998707
 51
179.999582
  0
ARC
  5
E6
100
AcDbEntity
  8
M0
 62
     4
100
AcDbCircle
 10
73.598072
 20
312.978672
 40
1.0
100
AcDbArc
 50
179.999582
 51
270.0
  0
ARC
  5
E7
100
AcDbEntity
  8
M0
 62
     4
100
AcDbCircle
 10
88.598041
 20
312.978562
 40
1.0
100
AcDbArc
 50
270.0
 51
359.999582
  0
ARC
  5
E8
100
AcDbEntity
  8
M0
 62
     4
100
AcDbCircle
 10
71.098041
 20
312.97869
 40
1.0
100
AcDbArc
 50
179.999582
 51
270.0
  0
ARC
  5
E9
100
AcDbEntity
  8
M0
 62
     4
100
AcDbCircle
 10
91.098041
 20
312.978544
 40
1.0
100
AcDbArc
 50
270.0
 51
359.999582
  0
LINE
  5
EA
100
AcDbEntity
  8
M0
 62
     4
100
AcDbLine
 10
44.098191
 20
331.478887
 11
44.09795
 21
298.478887
  0
LINE
  5
EB
100
AcDbEntity
  8
M0
 62
     4
100
AcDbLine
 10
40.098222
 20
333.577202
 11
40.097962
 21
297.978825
  0
LINE
  5
EC
100
AcDbEntity
  8
M0
  6
DASHDOT
 62
     4
100
AcDbLine
 10
55.098181
 20
330.078905
 11
55.09787
 21
287.478807
  0
LINE
  5
ED
100
AcDbEntity
  8
M0
 62
     4
100
AcDbLine
 10
46.598174
 20
329.078723
 11
46.598049
 21
311.978869
  0
LINE
  5
EE
100
AcDbEntity
  8
M0
 62
     4
100
AcDbLine
 10
63.598189
 20
329.078843
 11
63.598049
 21
311.978745
  0
LINE
  5
EF
100
AcDbEntity
  8
M0
 62
     4
100
AcDbLine
 10
65.098016
 20
307.478734
 11
45.098016
 21
307.47888
  0
LINE
  5
F0
100
AcDbEntity
  8
M0
 62
     4
100
AcDbLine
 10
65.098034
 20
309.978734
 11
45.098034
 21
309.97888
  0
LINE
  5
F1
100
AcDbEntity
  8
M0
 62
     4
100
AcDbLine
 10
65.098049
 20
311.978734
 11
45.098049
 21
311.97888
  0
LINE
  5
F2
100
AcDbEntity
  8
M0
 62
     4
100
AcDbLine
 10
63.598009
 20
306.478745
 11
63.597907
 21
292.479233
  0
LINE
  5
F3
100
AcDbEntity
  8
M0
 62
     4
100
AcDbLine
 10
46.598009
 20
306.479113
 11
46.597988
 21
301.479113
  0
ARC
  5
F4
100
AcDbEntity
  8
M0
 62
     4
100
AcDbCircle
 10
65.098009
 20
306.478734
 40
1.0
100
AcDbArc
 50
359.999582
 51
449.998707
  0
ARC
  5
F5
100
AcDbEntity
  8
M0
 62
     4
100
AcDbCircle
 10
65.098056
 20
312.978734
 40
1.0
100
AcDbArc
 50
270.0
 51
359.999582
  0
ARC
  5
F6
100
AcDbEntity
  8
M0
 62
     4
100
AcDbCircle
 10
45.098009
 20
306.47888
 40
1.0
100
AcDbArc
 50
89.998707
 51
179.999582
  0
ARC
  5
F7
100
AcDbEntity
  8
M0
 62
     4
100
AcDbCircle
 10
45.098056
 20
312.97888
 40
1.0
100
AcDbArc
 50
179.999582
 51
270.0
  0
ARC
  5
F8
100
AcDbEntity
  8
M0
 62
     4
100
AcDbCircle
 10
65.098027
 20
308.978734
 40
1.0
100
AcDbArc
 50
359.999582
 51
449.998707
  0
ARC
  5
F9
100
AcDbEntity
  8
M0
 62
     4
100
AcDbCircle
 10
45.098027
 20
308.97888
 40
1.0
100
AcDbArc
 50
89.998707
 51
179.999582
  0
LINE
  5
FA
100
AcDbEntity
  8
M0
 62
     4
100
AcDbLine
 10
44.097969
 20
298.978887
 11
46.597988
 21
301.479113
  0
LINE
  5
FB
100
AcDbEntity
  8
M0
 62
     4
100
AcDbLine
 10
66.097873
 20
289.979459
 11
63.597861
 21
292.479233
  0
ARC
  5
FC
100
AcDbEntity
  8
M0
 62
     4
100
AcDbCircle
 10
62.598009
 20
306.478752
 40
1.0
100
AcDbArc
 50
359.999582
 51
449.998707
  0
ARC
  5
FD
100
AcDbEntity
  8
M0
 62
     4
100
AcDbCircle
 10
47.598009
 20
306.478862
 40
1.0
100
AcDbArc
 50
89.998707
 51
179.984719
  0
LINE
  5
FE
100
AcDbEntity
  8
M0
 62
     4
100
AcDbLine
 10
43.097943
 20
297.478895
 11
40.597943
 21
297.478913
  0
ARC
  5
FF
100
AcDbEntity
  8
M0
 62
     4
100
AcDbCircle
 10
40.597947
 20
297.978913
 40
0.5
100
AcDbArc
 50
179.999582
 51
270.0
  0
ARC
  5
100
100
AcDbEntity
  8
M0
 62
     4
100
AcDbCircle
 10
43.09795
 20
298.478895
 40
1.0
100
AcDbArc
 50
270.0
 51
359.999582
  0
LINE
  5
101
100
AcDbEntity
  8
M0
 62
     4
100
AcDbLine
 10
44.098207
 20
331.578741
 11
46.598174
 21
329.078723
  0
LINE
  5
102
100
AcDbEntity
  8
M0
 62
     4
100
AcDbLine
 10
143.101923
 20
332.577244
 11
96.098093
 21
332.577224
  0
ARC
  5
103
100
AcDbEntity
  8
M0
 62
     4
100
AcDbCircle
 10
43.098192
 20
331.578895
 40
1.0
100
AcDbArc
 50
359.999582
 51
449.998707
  0
LINE
  5
104
100
AcDbEntity
  8
M0
  6
DASHDOT
 62
     4
100
AcDbLine
 10
107.097862
 20
288.478183
 11
107.098177
 21
331.578281
  0
LINE
  5
105
100
AcDbEntity
  8
M0
 62
     4
100
AcDbLine
 10
98.597891
 20
292.478978
 11
98.597994
 21
306.478489
  0
LINE
  5
106
100
AcDbEntity
  8
M0
 62
     4
100
AcDbLine
 10
115.597913
 20
295.478854
 11
115.597994
 21
306.478365
  0
LINE
  5
107
100
AcDbEntity
  8
M0
 62
     4
100
AcDbLine
 10
96.097904
 20
289.97924
 11
98.597952
 21
292.478978
  0
ARC
  5
108
100
AcDbEntity
  8
M0
 62
     4
100
AcDbCircle
 10
99.598039
 20
306.478482
 40
1.0
100
AcDbArc
 50
89.998707
 51
179.999582
  0
ARC
  5
109
100
AcDbEntity
  8
M0
 62
     4
100
AcDbCircle
 10
97.098039
 20
306.4785
 40
1.0
100
AcDbArc
 50
89.998707
 51
179.999582
  0
ARC
  5
10A
100
AcDbEntity
  8
M0
 62
     4
100
AcDbCircle
 10
114.598009
 20
306.478373
 40
1.0
100
AcDbArc
 50
359.999582
 51
450.0
  0
LINE
  5
10B
100
AcDbEntity
  8
M0
 62
     4
100
AcDbLine
 10
91.098001
 20
307.478544
 11
71.098001
 21
307.47869
  0
LINE
  5
10C
100
AcDbEntity
  8
M0
 62
     4
100
AcDbLine
 10
99.598047
 20
307.478482
 11
97.098047
 21
307.4785
  0
LINE
  5
10D
100
AcDbEntity
  8
M0
 62
     4
100
AcDbLine
 10
114.598016
 20
307.478373
 11
99.598047
 21
307.478482
  0
ARC
  5
10E
100
AcDbEntity
  8
M0
 62
     4
100
AcDbCircle
 10
99.598072
 20
312.978482
 40
1.0
100
AcDbArc
 50
179.999582
 51
270.0
  0
ARC
  5
10F
100
AcDbEntity
  8
M0
 62
     4
100
AcDbCircle
 10
97.098072
 20
312.9785
 40
1.0
100
AcDbArc
 50
179.999582
 51
270.0
  0
LINE
  5
110
100
AcDbEntity
  8
M0
 62
     4
100
AcDbLine
 10
91.098019
 20
309.978544
 11
71.098019
 21
309.97869
  0
LINE
  5
111
100
AcDbEntity
  8
M0
 62
     4
100
AcDbLine
 10
91.098034
 20
311.978544
 11
71.098034
 21
311.97869
  0
LINE
  5
112
100
AcDbEntity
  8
M0
 62
     4
100
AcDbLine
 10
98.598041
 20
312.978489
 11
98.598159
 21
329.078831
  0
ARC
  5
113
100
AcDbEntity
  8
M0
 62
     4
100
AcDbCircle
 10
114.598056
 20
312.978373
 40
1.0
100
AcDbArc
 50
270.0
 51
359.999582
  0
LINE
  5
114
100
AcDbEntity
  8
M0
 62
     4
100
AcDbLine
 10
117.098026
 20
312.978354
 11
117.098162
 21
331.578208
  0
ARC
  5
115
100
AcDbEntity
  8
M0
 62
     4
100
AcDbCircle
 10
116.098026
 20
312.978362
 40
1.0
100
AcDbArc
 50
270.0
 51
359.999582
  0
LINE
  5
116
100
AcDbEntity
  8
M0
 62
     4
100
AcDbLine
 10
115.598026
 20
312.978365
 11
115.598151
 21
330.078463
  0
ARC
  5
117
100
AcDbEntity
  8
M0
 62
     4
100
AcDbCircle
 10
117.598009
 20
306.478366
 40
1.0
100
AcDbArc
 50
359.999582
 51
450.0
  0
ARC
  5
118
100
AcDbEntity
  8
M0
 62
     4
100
AcDbCircle
 10
97.098012
 20
308.9785
 40
1.0
100
AcDbArc
 50
89.998707
 51
179.999582
  0
ARC
  5
119
100
AcDbEntity
  8
M0
 62
     4
100
AcDbCircle
 10
71.098012
 20
308.97869
 40
1.0
100
AcDbArc
 50
89.998707
 51
179.999582
  0
ARC
  5
11A
100
AcDbEntity
  8
M0
 62
     4
100
AcDbCircle
 10
91.098012
 20
308.978544
 40
1.0
100
AcDbArc
 50
359.999582
 51
449.998707
  0
ARC
  5
11B
100
AcDbEntity
  8
M0
 62
     4
100
AcDbCircle
 10
117.598012
 20
308.978366
 40
1.0
100
AcDbArc
 50
59.734681
 51
90.0
  0
LINE
  5
11C
100
AcDbEntity
  8
M0
 62
     4
100
AcDbLine
 10
66.098207
 20
331.57858
 11
63.598189
 21
329.078843
  0
LINE
  5
11D
100
AcDbEntity
  8
M0
 62
     4
100
AcDbLine
 10
70.098177
 20
331.578551
 11
72.598189
 21
329.078533
  0
LINE
  5
11E
100
AcDbEntity
  8
M0
 62
     4
100
AcDbLine
 10
96.098238
 20
331.578361
 11
98.59822
 21
329.078587
  0
LINE
  5
11F
100
AcDbEntity
  8
M0
 62
     4
100
AcDbLine
 10
92.098268
 20
331.57839
 11
89.59822
 21
329.078409
  0
LINE
  5
120
100
AcDbEntity
  8
M0
 62
     4
100
AcDbLine
 10
120.948198
 20
331.57818
 11
120.948198
 21
311.819635
  0
LINE
  5
121
100
AcDbEntity
  8
M0
 62
     4
100
AcDbLine
 10
117.098177
 20
331.578208
 11
115.598151
 21
330.078463
  0
LINE
  5
122
100
AcDbEntity
  8
M0
 62
     4
100
AcDbLine
 10
118.601836
 20
292.474193
 11
115.597913
 21
295.478609
  0
LINE
  5
123
100
AcDbEntity
  8
M0
 62
     4
100
AcDbLine
 10
120.948054
 20
311.820123
 11
120.948043
 21
310.377282
  0
ARC
  5
124
100
AcDbEntity
  8
M0
 62
     4
100
AcDbCircle
 10
130.9481
 20
318.078107
 40
13.299997
100
AcDbArc
 50
165.188543
 51
194.810607
  0
LINE
  5
125
100
AcDbEntity
  8
M0
 62
     4
100
AcDbLine
 10
118.090062
 20
321.478347
 11
120.948145
 21
324.336725
  0
LINE
  5
126
100
AcDbEntity
  8
M0
 62
     4
100
AcDbLine
 10
118.090012
 20
314.678298
 11
120.948054
 21
311.819879
  0
ARC
  5
127
100
AcDbEntity
  8
M0
 62
     4
100
AcDbCircle
 10
95.098191
 20
333.578368
 40
1.0
100
AcDbArc
 50
359.999582
 51
449.998707
  0
LINE
  5
128
100
AcDbEntity
  8
M0
 62
     4
100
AcDbLine
 10
95.098199
 20
334.578368
 11
93.098199
 21
334.578383
  0
ARC
  5
129
100
AcDbEntity
  8
M0
 62
     4
100
AcDbCircle
 10
93.098191
 20
333.578383
 40
1.0
100
AcDbArc
 50
89.998707
 51
179.999582
  0
ARC
  5
12A
100
AcDbEntity
  8
M0
 62
     4
100
AcDbCircle
 10
69.098191
 20
333.578558
 40
1.0
100
AcDbArc
 50
359.999582
 51
449.998707
  0
LINE
  5
12B
100
AcDbEntity
  8
M0
 62
     4
100
AcDbLine
 10
69.098199
 20
334.578558
 11
67.098214
 21
334.578573
  0
ARC
  5
12C
100
AcDbEntity
  8
M0
 62
     4
100
AcDbCircle
 10
67.098207
 20
333.578573
 40
1.0
100
AcDbArc
 50
89.998707
 51
179.985538
  0
LINE
  5
12D
100
AcDbEntity
  8
M0
 62
     4
100
AcDbLine
 10
66.098215
 20
332.577611
 11
40.09823
 21
332.578468
  0
LINE
  5
12E
100
AcDbEntity
  8
M0
 62
     4
100
AcDbLine
 10
92.098077
 20
332.577487
 11
70.098077
 21
332.577593
  0
LINE
  5
12F
100
AcDbEntity
  8
M0
 62
     4
100
AcDbLine
 10
92.09804
 20
331.578046
 11
70.09804
 21
331.577885
  0
LINE
  5
130
100
AcDbEntity
  8
M0
 62
     4
100
AcDbLine
 10
66.098207
 20
331.577901
 11
44.098192
 21
331.578229
  0
LINE
  5
131
100
AcDbEntity
  8
M0
 62
     4
100
AcDbLine
 10
66.098253
 20
333.577447
 11
46.098207
 21
333.577202
  0
LINE
  5
132
100
AcDbEntity
  8
M0
 62
     4
100
AcDbLine
 10
92.0981
 20
333.577257
 11
70.0981
 21
333.5773
  0
LINE
  5
133
100
AcDbEntity
  8
M0
 62
     4
100
AcDbLine
 10
115.296435
 20
333.576226
 11
96.098146
 21
333.576958
  0
CIRCLE
  5
134
100
AcDbEntity
  8
M0
  6
DASHED
 62
     4
100
AcDbCircle
 10
130.951967
 20
318.076474
 40
7.699991
  0
LINE
  5
135
100
AcDbEntity
  8
M0
 62
     4
100
AcDbLine
 10
178.899863
 20
330.576981
 11
178.89978
 21
310.576993
  0
ARC
  5
136
100
AcDbEntity
  8
M0
 62
     4
100
AcDbCircle
 10
182.899847
 20
330.577225
 40
3.999998
100
AcDbArc
 50
89.999545
 51
179.999518
  0
LINE
  5
137
100
AcDbEntity
  8
M0
 62
     4
100
AcDbLine
 10
181.899886
 20
331.576249
 11
181.899652
 21
311.817951
  0
LINE
  5
138
100
AcDbEntity
  8
M0
 62
     4
100
AcDbLine
 10
181.899782
 20
324.337235
 11
189.699709
 21
324.337235
  0
LINE
  5
139
100
AcDbEntity
  8
M0
 62
     4
100
AcDbLine
 10
181.899652
 20
311.817951
 11
189.699701
 21
311.81795
  0
LINE
  5
13A
100
AcDbEntity
  8
M0
 62
     4
100
AcDbLine
 10
178.899719
 20
310.576993
 11
184.89859
 21
310.576991
  0
LINE
  5
13B
100
AcDbEntity
  8
M0
 62
     4
100
AcDbLine
 10
188.29243
 20
286.976897
 11
213.53839
 21
286.976895
  0
LINE
  5
13C
100
AcDbEntity
  8
M0
 62
     4
100
AcDbLine
 10
178.899795
 20
310.576993
 11
184.42873
 21
289.941497
  0
ARC
  5
13D
100
AcDbEntity
  8
M0
 62
     4
100
AcDbCircle
 10
188.292416
 20
290.976897
 40
4.0
100
AcDbArc
 50
195.001414
 51
269.999545
  0
LINE
  5
13E
100
AcDbEntity
  8
M0
 62
     4
100
AcDbLine
 10
192.790796
 20
292.576989
 11
213.898407
 21
292.57699
  0
ARC
  5
13F
100
AcDbEntity
  8
M0
 62
     4
100
AcDbCircle
 10
213.538406
 20
290.976895
 40
4.0
100
AcDbArc
 50
269.999518
 51
344.998155
  0
LINE
  5
140
100
AcDbEntity
  8
M0
 62
     4
100
AcDbLine
 10
216.898452
 20
290.576996
 11
222.898527
 21
290.576994
  0
LINE
  5
141
100
AcDbEntity
  8
M0
 62
     4
100
AcDbLine
 10
223.898542
 20
292.577002
 11
230.23892
 21
292.576997
  0
ARC
  5
142
100
AcDbEntity
  8
M0
 62
     4
100
AcDbCircle
 10
222.898528
 20
291.576994
 40
1.0
100
AcDbArc
 50
270.0
 51
359.999545
  0
CIRCLE
  5
143
100
AcDbEntity
  8
M0
 62
     6
100
AcDbCircle
 10
125.100838
 20
306.076493
 40
2.999997
  0
LINE
  5
144
100
AcDbEntity
  8
M0
 62
     6
100
AcDbLine
 10
121.88086
 20
309.177278
 11
121.325691
 21
307.376541
  0
LINE
  5
145
100
AcDbEntity
  8
M0
 62
     6
100
AcDbLine
 10
122.141854
 20
302.129242
 11
121.325691
 21
304.776566
  0
LINE
  5
146
100
AcDbEntity
  8
M0
 62
     6
100
AcDbLine
 10
128.691114
 20
307.975216
 11
128.87574
 21
307.376541
  0
LINE
  5
147
100
AcDbEntity
  8
M0
 62
     6
100
AcDbLine
 10
128.059334
 20
302.129227
 11
128.87574
 21
304.776566
  0
LINE
  5
148
100
AcDbEntity
  8
M0
 62
     6
100
AcDbLine
 10
122.619881
 20
301.776566
 11
127.581551
 21
301.776566
  0
LINE
  5
149
100
AcDbEntity
  8
M0
 62
     6
100
AcDbLine
 10
128.87574
 20
304.776566
 11
128.87574
 21
307.376541
  0
LINE
  5
14A
100
AcDbEntity
  8
M0
 62
     6
100
AcDbLine
 10
121.325691
 20
307.376541
 11
121.325691
 21
304.776566
  0
LINE
  5
14B
100
AcDbEntity
  8
M0
 62
     6
100
AcDbLine
 10
126.691414
 20
304.485672
 11
123.509773
 21
307.667435
  0
LINE
  5
14C
100
AcDbEntity
  8
M0
 62
     6
100
AcDbLine
 10
125.454109
 20
307.490677
 11
123.686531
 21
305.722977
  0
LINE
  5
14D
100
AcDbEntity
  8
M0
 62
     6
100
AcDbLine
 10
126.514656
 20
306.430008
 11
124.747078
 21
304.66243
  0
ARC
  5
14E
100
AcDbEntity
  8
M0
 62
     6
100
AcDbCircle
 10
122.619881
 20
302.276566
 40
0.5
100
AcDbArc
 50
197.128732
 51
270.0
  0
ARC
  5
14F
100
AcDbEntity
  8
M0
 62
     6
100
AcDbCircle
 10
127.581551
 20
302.276566
 40
0.5
100
AcDbArc
 50
270.0
 51
342.861308
  0
LINE
  5
150
100
AcDbEntity
  8
M0
  6
DASHDOT
 62
     6
100
AcDbLine
 10
128.600838
 20
306.076493
 11
121.600838
 21
306.076493
  0
LINE
  5
151
100
AcDbEntity
  8
M0
  6
DASHDOT
 62
     6
100
AcDbLine
 10
125.100823
 20
309.576493
 11
125.100838
 21
302.576493
  0
CIRCLE
  5
152
100
AcDbEntity
  8
M0
 62
     6
100
AcDbCircle
 10
136.100838
 20
306.076493
 40
2.999997
  0
LINE
  5
153
100
AcDbEntity
  8
M0
 62
     6
100
AcDbLine
 10
132.480069
 20
307.877279
 11
132.325691
 21
307.376541
  0
LINE
  5
154
100
AcDbEntity
  8
M0
 62
     6
100
AcDbLine
 10
133.141854
 20
302.129242
 11
132.325691
 21
304.776566
  0
LINE
  5
155
100
AcDbEntity
  8
M0
 62
     6
100
AcDbLine
 10
139.320409
 20
309.177278
 11
139.87574
 21
307.376541
  0
LINE
  5
156
100
AcDbEntity
  8
M0
 62
     6
100
AcDbLine
 10
139.059334
 20
302.129227
 11
139.87574
 21
304.776566
  0
LINE
  5
157
100
AcDbEntity
  8
M0
 62
     6
100
AcDbLine
 10
133.619881
 20
301.776566
 11
138.581551
 21
301.776566
  0
LINE
  5
158
100
AcDbEntity
  8
M0
 62
     6
100
AcDbLine
 10
139.87574
 20
304.776566
 11
139.87574
 21
307.376541
  0
LINE
  5
159
100
AcDbEntity
  8
M0
 62
     6
100
AcDbLine
 10
132.325691
 20
307.376541
 11
132.325691
 21
304.776566
  0
LINE
  5
15A
100
AcDbEntity
  8
M0
 62
     6
100
AcDbLine
 10
137.691414
 20
304.485672
 11
134.509773
 21
307.667435
  0
LINE
  5
15B
100
AcDbEntity
  8
M0
 62
     6
100
AcDbLine
 10
136.454109
 20
307.490677
 11
134.686531
 21
305.722977
  0
LINE
  5
15C
100
AcDbEntity
  8
M0
 62
     6
100
AcDbLine
 10
137.514656
 20
306.430008
 11
135.747078
 21
304.66243
  0
ARC
  5
15D
100
AcDbEntity
  8
M0
 62
     6
100
AcDbCircle
 10
133.619881
 20
302.276566
 40
0.5
100
AcDbArc
 50
197.128732
 51
270.0
  0
ARC
  5
15E
100
AcDbEntity
  8
M0
 62
     6
100
AcDbCircle
 10
138.581551
 20
302.276566
 40
0.5
100
AcDbArc
 50
270.0
 51
342.861308
  0
LINE
  5
15F
100
AcDbEntity
  8
M0
  6
DASHDOT
 62
     6
100
AcDbLine
 10
139.600838
 20
306.076493
 11
132.600838
 21
306.076493
  0
LINE
  5
160
100
AcDbEntity
  8
M0
  6
DASHDOT
 62
     6
100
AcDbLine
 10
136.100823
 20
309.576493
 11
136.100838
 21
302.576493
  0
LINE
  5
161
100
AcDbEntity
  8
M0
 62
     5
100
AcDbLine
 10
115.915535
 20
299.076493
 11
118.600823
 21
299.076737
  0
LINE
  5
162
100
AcDbEntity
  8
M0
  6
DASHED
100
AcDbLine
 10
131.450936
 20
327.926737
 11
135.450936
 21
327.926737
  0
LINE
  5
163
100
AcDbEntity
  8
M0
  6
DASHED
100
AcDbLine
 10
135.450936
 20
327.926737
 11
135.450936
 21
330.726736
  0
LINE
  5
164
100
AcDbEntity
  8
M0
  6
DASHED
100
AcDbLine
 10
135.450936
 20
330.726736
 11
131.450936
 21
330.726736
  0
LINE
  5
165
100
AcDbEntity
  8
M0
  6
DASHED
100
AcDbLine
 10
131.450936
 20
330.726736
 11
131.450936
 21
327.926737
  0
LINE
  5
166
100
AcDbEntity
  8
M0
100
AcDbLine
 10
261.898995
 20
341.577225
 11
262.082833
 21
341.761063
  0
LINE
  5
167
100
AcDbEntity
  8
M0
100
AcDbLine
 10
131.859834
 20
317.992263
 11
131.859834
 21
320.381423
  0
LINE
  5
168
100
AcDbEntity
  8
M0
100
AcDbLine
 10
131.859849
 20
320.381667
 11
130.157106
 21
320.381667
  0
LINE
  5
169
100
AcDbEntity
  8
M0
100
AcDbLine
 10
130.157106
 20
320.381423
 11
130.157106
 21
317.992751
  0
LINE
  5
16A
100
AcDbEntity
  8
M0
100
AcDbLine
 10
131.00847
 20
315.603103
 11
129.354219
 21
317.99324
  0
LINE
  5
16B
100
AcDbEntity
  8
M0
100
AcDbLine
 10
131.00847
 20
315.603103
 11
132.662736
 21
317.992507
  0
LINE
  5
16C
100
AcDbEntity
  8
M0
100
AcDbLine
 10
129.354219
 20
317.99324
 11
130.15709
 21
317.992996
  0
LINE
  5
16D
100
AcDbEntity
  8
M0
100
AcDbLine
 10
132.662736
 20
317.992507
 11
131.859834
 21
317.992507
  0
LINE
  5
16E
100
AcDbEntity
  8
M0
 62
     4
100
AcDbLine
 10
260.898759
 20
293.476387
 11
260.89878
 21
296.576241
  0
LINE
  5
16F
100
AcDbEntity
  8
M0
 62
     4
100
AcDbLine
 10
260.899808
 20
331.576229
 11
259.399378
 21
331.575748
  0
LINE
  5
170
100
AcDbEntity
  8
M0
 62
     4
100
AcDbLine
 10
205.318455
 20
297.077992
 11
228.935078
 21
297.077399
  0
LINE
  5
171
100
AcDbEntity
  8
M0
 62
     4
100
AcDbLine
 10
212.20018
 20
334.57762
 11
181.900253
 21
334.577877
  0
LINE
  5
172
100
AcDbEntity
  8
M0
 62
     4
100
AcDbLine
 10
198.399513
 20
310.578051
 11
199.399544
 21
310.578043
  0
LINE
  5
173
100
AcDbEntity
  8
M0
 62
     4
100
AcDbLine
 10
198.399513
 20
310.578165
 11
198.40004
 21
331.578165
  0
LINE
  5
174
100
AcDbEntity
  8
M0
 62
     4
100
AcDbLine
 10
199.399528
 20
310.578125
 11
199.721626
 21
309.375916
  0
ARC
  5
175
100
AcDbEntity
  8
M0
 62
     4
100
AcDbCircle
 10
205.31853
 20
300.077992
 40
3.0
100
AcDbArc
 50
194.998612
 51
269.998561
  0
LINE
  5
176
100
AcDbEntity
  8
M0
 62
     4
100
AcDbLine
 10
204.246778
 20
301.078019
 11
213.89929
 21
301.077777
  0
ARC
  5
177
100
AcDbEntity
  8
M0
 62
     4
100
AcDbCircle
 10
204.246854
 20
304.078018
 40
3.0
100
AcDbArc
 50
194.998623
 51
269.998561
  0
LINE
  5
178
100
AcDbEntity
  8
M0
 62
     4
100
AcDbLine
 10
216.899255
 20
299.077701
 11
228.399224
 21
299.077413
  0
LINE
  5
179
100
AcDbEntity
  8
M0
 62
     4
100
AcDbLine
 10
231.273504
 20
294.07734
 11
235.099096
 21
294.077244
  0
LINE
  5
17A
100
AcDbEntity
  8
M0
 62
     4
100
AcDbLine
 10
232.17535
 20
290.077318
 11
248.492859
 21
290.076908
  0
ARC
  5
17B
100
AcDbEntity
  8
M0
 62
     4
100
AcDbCircle
 10
212.200114
 20
332.577605
 40
2.0
100
AcDbArc
 50
14.40471
 51
89.998561
  0
LINE
  5
17C
100
AcDbEntity
  8
M0
 62
     4
100
AcDbLine
 10
250.224916
 20
291.076865
 11
253.4005
 21
296.576786
  0
ARC
  5
17D
100
AcDbEntity
  8
M0
 62
     4
100
AcDbCircle
 10
248.492901
 20
292.076909
 40
2.0
100
AcDbArc
 50
269.998534
 51
329.998441
  0
ARC
  5
17E
100
AcDbEntity
  8
M0
 62
     4
100
AcDbCircle
 10
231.273554
 20
296.07734
 40
2.0
100
AcDbArc
 50
194.999002
 51
269.998561
  0
LINE
  5
17F
100
AcDbEntity
  8
M0
 62
     4
100
AcDbLine
 10
238.099045
 20
292.077169
 11
249.647618
 21
292.076879
  0
ARC
  5
180
100
AcDbEntity
  8
M0
 62
     4
100
AcDbCircle
 10
249.64766
 20
294.07688
 40
2.0
100
AcDbArc
 50
269.998534
 51
329.998441
  0
LINE
  5
181
100
AcDbEntity
  8
M0
 62
     4
100
AcDbLine
 10
228.899207
 20
296.5774
 11
216.899177
 21
296.577701
  0
LINE
  5
182
100
AcDbEntity
  8
M0
 62
     4
100
AcDbLine
 10
216.149189
 20
297.07772
 11
216.899177
 21
296.577701
  0
LINE
  5
183
100
AcDbEntity
  8
M0
 62
     4
100
AcDbLine
 10
213.89929
 20
301.077777
 11
216.899255
 21
299.077701
  0
LINE
  5
184
100
AcDbEntity
  8
M0
 62
     4
100
AcDbLine
 10
253.400508
 20
296.576785
 11
260.899149
 21
296.576597
  0
LINE
  5
185
100
AcDbEntity
  8
M0
 62
     4
100
AcDbLine
 10
250.22494
 20
291.076865
 11
255.899012
 21
291.076722
  0
LINE
  5
186
100
AcDbEntity
  8
M0
 62
     4
100
AcDbLine
 10
257.899062
 20
293.076672
 11
257.89915
 21
296.576672
  0
ARC
  5
187
100
AcDbEntity
  8
M0
 62
     4
100
AcDbCircle
 10
255.899062
 20
293.076722
 40
2.0
100
AcDbArc
 50
269.998534
 51
359.998534
  0
LINE
  5
188
100
AcDbEntity
  8
M0
 62
     4
100
AcDbLine
 10
235.099096
 20
294.077244
 11
238.099045
 21
292.077169
  0
LINE
  5
189
100
AcDbEntity
  8
M0
 62
     4
100
AcDbLine
 10
228.899177
 20
296.577461
 11
230.243533
 21
291.559727
  0
LINE
  5
18A
100
AcDbEntity
  8
M0
 62
     4
100
AcDbLine
 10
228.39924
 20
299.077413
 11
229.341702
 21
295.55975
  0
ARC
  5
18B
100
AcDbEntity
  8
M0
 62
     4
100
AcDbCircle
 10
232.1754
 20
292.077318
 40
2.0
100
AcDbArc
 50
194.998658
 51
269.998561
  0
LINE
  5
18C
100
AcDbEntity
  8
M0
 62
     4
100
AcDbLine
 10
260.898737
 20
296.576459
 11
260.899691
 21
334.576214
  0
LINE
  5
18D
100
AcDbEntity
  8
M0
 62
     4
100
AcDbLine
 10
260.899589
 20
334.575985
 11
260.899653
 21
341.97662
  0
LINE
  5
18E
100
AcDbEntity
  8
M0
 62
     4
100
AcDbLine
 10
217.621885
 20
290.761669
 11
217.402184
 21
289.941846
  0
LINE
  5
18F
100
AcDbEntity
  8
M0
 62
     4
100
AcDbLine
 10
184.89875
 20
310.577621
 11
188.927212
 21
295.542432
  0
ARC
  5
190
100
AcDbEntity
  8
M0
 62
     4
100
AcDbCircle
 10
192.79087
 20
296.577799
 40
4.0
100
AcDbArc
 50
195.001371
 51
269.998561
  0
LINE
  5
191
100
AcDbEntity
  8
M0
 62
     4
100
AcDbLine
 10
213.898579
 20
297.077374
 11
213.898527
 21
292.577374
  0
LINE
  5
192
100
AcDbEntity
  8
M0
 62
     4
100
AcDbLine
 10
213.898542
 20
292.577374
 11
216.898538
 21
290.577348
  0
LINE
  5
193
100
AcDbEntity
  8
M0
 62
     4
100
AcDbLine
 10
223.898573
 20
292.577288
 11
223.898563
 21
291.577288
  0
LINE
  5
194
100
AcDbEntity
  8
M0
 62
     4
100
AcDbLine
 10
261.898016
 20
293.47638
 11
261.898432
 21
341.976854
  0
LINE
  5
195
100
AcDbEntity
  8
M0
 62
     4
100
AcDbLine
 10
260.899653
 20
341.97662
 11
261.898188
 21
341.97661
  0
LINE
  5
196
100
AcDbEntity
  8
M0
 62
     4
100
AcDbLine
 10
260.898271
 20
293.476387
 11
261.897783
 21
293.47638
  0
LINE
  5
197
100
AcDbEntity
  8
M0
 62
     4
100
AcDbLine
 10
260.898551
 20
333.075024
 11
203.899468
 21
333.075265
  0
LINE
  5
198
100
AcDbEntity
  8
M0
 62
     4
100
AcDbLine
 10
259.399448
 20
333.075748
 11
259.39944
 21
331.575748
  0
LINE
  5
199
100
AcDbEntity
  8
M0
 62
     4
100
AcDbLine
 10
203.899452
 20
333.075662
 11
203.39946
 21
331.57543
  0
LINE
  5
19A
100
AcDbEntity
  8
M0
 62
     4
100
AcDbLine
 10
203.399796
 20
331.575918
 11
181.900208
 21
331.576901
  0
LINE
  5
19B
100
AcDbEntity
  8
M0
 62
     4
100
AcDbLine
 10
260.899528
 20
334.074536
 11
229.63959
 21
334.074527
  0
LINE
  5
19C
100
AcDbEntity
  8
M0
 62
     4
100
AcDbLine
 10
229.639559
 20
334.075015
 11
229.639549
 21
333.07526
  0
LINE
  5
19D
100
AcDbEntity
  8
M0
 62
     4
100
AcDbLine
 10
200.043129
 20
308.175915
 11
202.42073
 21
299.301606
  0
ARC
  5
19E
100
AcDbEntity
  8
M0
 62
     6
100
AcDbCircle
 10
136.102059
 20
299.076493
 40
2.999997
100
AcDbArc
 50
115.844059
 51
424.156202
  0
LINE
  5
19F
100
AcDbEntity
  8
M0
 62
     6
100
AcDbLine
 10
133.00457
 20
302.574295
 11
132.326912
 21
300.376541
  0
LINE
  5
1A0
100
AcDbEntity
  8
M0
 62
     6
100
AcDbLine
 10
133.143074
 20
295.129242
 11
132.326912
 21
297.776566
  0
LINE
  5
1A1
100
AcDbEntity
  8
M0
 62
     6
100
AcDbLine
 10
139.197884
 20
302.578446
 11
139.876961
 21
300.376541
  0
LINE
  5
1A2
100
AcDbEntity
  8
M0
 62
     6
100
AcDbLine
 10
139.060555
 20
295.129227
 11
139.876961
 21
297.776566
  0
LINE
  5
1A3
100
AcDbEntity
  8
M0
 62
     6
100
AcDbLine
 10
133.621102
 20
294.776566
 11
138.582772
 21
294.776566
  0
LINE
  5
1A4
100
AcDbEntity
  8
M0
 62
     6
100
AcDbLine
 10
139.876961
 20
297.776566
 11
139.876961
 21
300.376541
  0
LINE
  5
1A5
100
AcDbEntity
  8
M0
 62
     6
100
AcDbLine
 10
132.326912
 20
300.376541
 11
132.326912
 21
297.776566
  0
LINE
  5
1A6
100
AcDbEntity
  8
M0
  6
DASHDOT
 62
     6
100
AcDbLine
 10
129.826912
 20
299.076493
 11
142.376961
 21
299.076493
  0
LINE
  5
1A7
100
AcDbEntity
  8
M0
  6
DASHDOT
 62
     6
100
AcDbLine
 10
136.102059
 20
292.276581
 11
136.102059
 21
301.552529
  0
LINE
  5
1A8
100
AcDbEntity
  8
M0
 62
     6
100
AcDbLine
 10
137.692635
 20
297.485672
 11
134.510994
 21
300.667435
  0
LINE
  5
1A9
100
AcDbEntity
  8
M0
 62
     6
100
AcDbLine
 10
136.45533
 20
300.490677
 11
134.687752
 21
298.722977
  0
LINE
  5
1AA
100
AcDbEntity
  8
M0
 62
     6
100
AcDbLine
 10
137.515877
 20
299.430008
 11
135.748299
 21
297.66243
  0
ARC
  5
1AB
100
AcDbEntity
  8
M0
 62
     6
100
AcDbCircle
 10
133.621102
 20
295.276566
 40
0.5
100
AcDbArc
 50
197.128732
 51
270.0
  0
ARC
  5
1AC
100
AcDbEntity
  8
M0
 62
     6
100
AcDbCircle
 10
138.582772
 20
295.276566
 40
0.5
100
AcDbArc
 50
270.0
 51
342.861308
  0
ARC
  5
1AD
100
AcDbEntity
  8
M0
 62
     6
100
AcDbCircle
 10
126.102059
 20
299.076493
 40
2.999997
100
AcDbArc
 50
115.844059
 51
424.156202
  0
LINE
  5
1AE
100
AcDbEntity
  8
M0
 62
     6
100
AcDbLine
 10
122.758538
 20
301.776444
 11
122.326912
 21
300.376541
  0
LINE
  5
1AF
100
AcDbEntity
  8
M0
 62
     6
100
AcDbLine
 10
123.143074
 20
295.129242
 11
122.326912
 21
297.776566
  0
LINE
  5
1B0
100
AcDbEntity
  8
M0
 62
     6
100
AcDbLine
 10
129.060555
 20
295.129227
 11
129.688729
 21
297.166092
  0
LINE
  5
1B1
100
AcDbEntity
  8
M0
 62
     6
100
AcDbLine
 10
123.621102
 20
294.776566
 11
128.582772
 21
294.776566
  0
LINE
  5
1B2
100
AcDbEntity
  8
M0
 62
     6
100
AcDbLine
 10
122.326912
 20
300.376541
 11
122.326912
 21
297.776566
  0
LINE
  5
1B3
100
AcDbEntity
  8
M0
  6
DASHDOT
 62
     6
100
AcDbLine
 10
119.826912
 20
299.076493
 11
132.376961
 21
299.076493
  0
LINE
  5
1B4
100
AcDbEntity
  8
M0
  6
DASHDOT
 62
     6
100
AcDbLine
 10
126.102059
 20
292.276581
 11
126.102059
 21
305.876541
  0
LINE
  5
1B5
100
AcDbEntity
  8
M0
 62
     6
100
AcDbLine
 10
127.692635
 20
297.485672
 11
124.510994
 21
300.667435
  0
LINE
  5
1B6
100
AcDbEntity
  8
M0
 62
     6
100
AcDbLine
 10
126.45533
 20
300.490677
 11
124.687752
 21
298.722977
  0
LINE
  5
1B7
100
AcDbEntity
  8
M0
 62
     6
100
AcDbLine
 10
127.515877
 20
299.430008
 11
125.748299
 21
297.66243
  0
ARC
  5
1B8
100
AcDbEntity
  8
M0
 62
     6
100
AcDbCircle
 10
123.621102
 20
295.276566
 40
0.5
100
AcDbArc
 50
197.128732
 51
270.0
  0
ARC
  5
1B9
100
AcDbEntity
  8
M0
 62
     6
100
AcDbCircle
 10
128.582772
 20
295.276566
 40
0.5
100
AcDbArc
 50
270.0
 51
342.861308
  0
ARC
  5
1BA
100
AcDbEntity
  8
M0
 62
     4
100
AcDbCircle
 10
131.101982
 20
291.076507
 40
1.0
100
AcDbArc
 50
179.999909
 51
270.0
  0
ARC
  5
1BB
100
AcDbEntity
  8
M0
 62
     4
100
AcDbCircle
 10
131.101982
 20
291.076507
 40
1.0
100
AcDbArc
 50
270.0
 51
359.999909
  0
LINE
  5
1BC
100
AcDbEntity
  8
M0
 62
     4
100
AcDbLine
 10
122.102012
 20
291.076521
 11
119.102012
 21
291.076526
  0
LINE
  5
1BD
100
AcDbEntity
  8
M0
 62
     4
100
AcDbLine
 10
143.102035
 20
331.576488
 11
117.096492
 21
331.576244
  0
LINE
  5
1BE
100
AcDbEntity
  8
M0
 62
     4
100
AcDbLine
 10
122.102004
 20
295.076521
 11
123.1593
 21
295.076519
  0
LINE
  5
1BF
100
AcDbEntity
  8
M0
 62
     4
100
AcDbLine
 10
143.101984
 20
292.576488
 11
143.102051
 21
334.576488
  0
LINE
  5
1C0
100
AcDbEntity
  8
M0
 62
     4
100
AcDbLine
 10
118.60206
 20
292.274006
 11
118.602072
 21
309.17728
  0
LINE
  5
1C1
100
AcDbEntity
  8
M0
 62
     4
100
AcDbLine
 10
140.101985
 20
293.076493
 11
140.102011
 21
309.177292
  0
LINE
  5
1C2
100
AcDbEntity
  8
M0
 62
     4
100
AcDbLine
 10
142.601982
 20
301.076489
 11
141.101982
 21
301.076491
  0
ARC
  5
1C3
100
AcDbEntity
  8
M0
 62
     4
100
AcDbCircle
 10
142.601983
 20
301.576489
 40
0.5
100
AcDbArc
 50
270.0
 51
359.999909
  0
ARC
  5
1C4
100
AcDbEntity
  8
M0
 62
     4
100
AcDbCircle
 10
141.101984
 20
302.076491
 40
1.0
100
AcDbArc
 50
179.999909
 51
270.0
  0
LINE
  5
1C5
100
AcDbEntity
  8
M0
 62
     4
100
AcDbLine
 10
142.601987
 20
294.076489
 11
141.101987
 21
294.076491
  0
LINE
  5
1C6
100
AcDbEntity
  8
M0
 62
     4
100
AcDbLine
 10
142.601983
 20
292.076489
 11
141.101983
 21
292.076491
  0
ARC
  5
1C7
100
AcDbEntity
  8
M0
 62
     4
100
AcDbCircle
 10
142.601984
 20
292.576489
 40
0.5
100
AcDbArc
 50
270.0
 51
359.999909
  0
ARC
  5
1C8
100
AcDbEntity
  8
M0
 62
     4
100
AcDbCircle
 10
141.101985
 20
293.076491
 40
1.0
100
AcDbArc
 50
179.999909
 51
270.0
  0
ARC
  5
1C9
100
AcDbEntity
  8
M0
 62
     4
100
AcDbCircle
 10
142.601987
 20
294.576489
 40
0.5
100
AcDbArc
 50
270.0
 51
359.999909
  0
ARC
  5
1CA
100
AcDbEntity
  8
M0
 62
     4
100
AcDbCircle
 10
141.101988
 20
295.076491
 40
1.0
100
AcDbArc
 50
179.999909
 51
270.0
  0
LINE
  5
1CB
100
AcDbEntity
  8
M0
 62
     4
100
AcDbLine
 10
142.601995
 20
299.076489
 11
141.101995
 21
299.076491
  0
ARC
  5
1CC
100
AcDbEntity
  8
M0
 62
     4
100
AcDbCircle
 10
141.101996
 20
300.076491
 40
1.0
100
AcDbArc
 50
179.999909
 51
270.0
  0
ARC
  5
1CD
100
AcDbEntity
  8
M0
 62
     4
100
AcDbCircle
 10
142.601995
 20
299.576489
 40
0.5
100
AcDbArc
 50
270.0
 51
359.999909
  0
LINE
  5
1CE
100
AcDbEntity
  8
M0
 62
     4
100
AcDbLine
 10
132.101982
 20
291.076505
 11
132.102008
 21
307.877287
  0
LINE
  5
1CF
100
AcDbEntity
  8
M0
 62
     4
100
AcDbLine
 10
139.044249
 20
295.076494
 11
140.101958
 21
295.076493
  0
LINE
  5
1D0
100
AcDbEntity
  8
M0
 62
     4
100
AcDbLine
 10
140.101969
 20
302.076493
 11
139.352655
 21
302.07625
  0
LINE
  5
1D1
100
AcDbEntity
  8
M0
 62
     4
100
AcDbLine
 10
132.851038
 20
302.07626
 11
132.101969
 21
302.076505
  0
LINE
  5
1D2
100
AcDbEntity
  8
M0
 62
     4
100
AcDbLine
 10
129.101962
 20
298.07651
 11
129.101992
 21
307.877291
  0
LINE
  5
1D3
100
AcDbEntity
  8
M0
 62
     4
100
AcDbLine
 10
131.101991
 20
297.076507
 11
130.101991
 21
297.076508
  0
ARC
  5
1D4
100
AcDbEntity
  8
M0
 62
     4
100
AcDbCircle
 10
131.101993
 20
298.076507
 40
1.0
100
AcDbArc
 50
270.0
 51
359.999909
  0
ARC
  5
1D5
100
AcDbEntity
  8
M0
 62
     4
100
AcDbCircle
 10
130.101993
 20
298.076508
 40
1.0
100
AcDbArc
 50
179.999909
 51
270.0
  0
LINE
  5
1D6
100
AcDbEntity
  8
M0
 62
     4
100
AcDbLine
 10
121.102026
 20
299.576538
 11
121.102041
 21
309.177292
  0
LINE
  5
1D7
100
AcDbEntity
  8
M0
 62
     4
100
AcDbLine
 10
128.043055
 20
302.076512
 11
129.101999
 21
302.07651
  0
LINE
  5
1D8
100
AcDbEntity
  8
M0
 62
     4
100
AcDbLine
 10
123.102004
 20
295.076519
 11
123.102004
 21
295.262311
  0
LINE
  5
1D9
100
AcDbEntity
  8
M0
 62
     4
100
AcDbLine
 10
122.102012
 20
291.076521
 11
122.102015
 21
302.258406
  0
LINE
  5
1DA
100
AcDbEntity
  8
M0
 62
     4
100
AcDbLine
 10
130.101982
 20
291.076508
 11
130.101991
 21
297.076508
  0
LINE
  5
1DB
100
AcDbEntity
  8
M0
 62
     4
100
AcDbLine
 10
132.101958
 20
295.076505
 11
133.159285
 21
295.076504
  0
LINE
  5
1DC
100
AcDbEntity
  8
M0
 62
     4
100
AcDbLine
 10
122.102021
 20
296.576521
 11
118.602021
 21
296.576527
  0
LINE
  5
1DD
100
AcDbEntity
  8
M0
 62
     4
100
AcDbLine
 10
122.102024
 20
298.576521
 11
118.602024
 21
298.576527
  0
LINE
  5
1DE
100
AcDbEntity
  8
M0
 62
     4
100
AcDbLine
 10
121.102027
 20
300.076523
 11
121.102041
 21
309.177292
  0
ARC
  5
1DF
100
AcDbEntity
  8
M0
 62
     4
100
AcDbCircle
 10
119.602026
 20
299.576525
 40
1.0
100
AcDbArc
 50
179.999909
 51
270.0
  0
ARC
  5
1E0
100
AcDbEntity
  8
M0
 62
     4
100
AcDbCircle
 10
120.102026
 20
299.576524
 40
1.0
100
AcDbArc
 50
270.0
 51
359.999909
  0
LINE
  5
1E1
100
AcDbEntity
  8
M0
 62
     4
100
AcDbLine
 10
119.102012
 20
291.076526
 11
119.102021
 21
296.576526
  0
ARC
  5
1E2
100
AcDbEntity
  8
M0
 62
     4
100
AcDbCircle
 10
122.602041
 20
309.07652
 40
1.499996
100
AcDbArc
 50
89.999327
 51
119.866966
  0
LINE
  5
1E3
100
AcDbEntity
  8
M0
 62
     4
100
AcDbLine
 10
120.952031
 20
318.076523
 11
119.452028
 21
316.576541
  0
LINE
  5
1E4
100
AcDbEntity
  8
M0
 62
     4
100
AcDbLine
 10
120.952031
 20
318.076523
 11
119.452033
 21
319.576525
  0
LINE
  5
1E5
100
AcDbEntity
  8
M0
 62
     4
100
AcDbLine
 10
118.602068
 20
316.576496
 11
118.602073
 21
319.576252
  0
LINE
  5
1E6
100
AcDbEntity
  8
M0
 62
     4
100
AcDbLine
 10
120.952052
 20
331.576523
 11
120.952056
 21
324.326244
  0
LINE
  5
1E7
100
AcDbEntity
  8
M0
 62
     4
100
AcDbLine
 10
119.452028
 20
316.576251
 11
118.602068
 21
316.576496
  0
LINE
  5
1E8
100
AcDbEntity
  8
M0
 62
     4
100
AcDbLine
 10
119.452048
 20
319.576251
 11
118.602073
 21
319.576496
  0
LINE
  5
1E9
100
AcDbEntity
  8
M0
 62
     4
100
AcDbLine
 10
129.044264
 20
295.07651
 11
130.101958
 21
295.076508
  0
LINE
  5
1EA
100
AcDbEntity
  8
M0
 62
     4
100
AcDbLine
 10
143.102051
 20
334.576488
 11
134.602051
 21
334.576501
  0
LINE
  5
1EB
100
AcDbEntity
  8
M0
 62
     4
100
AcDbLine
 10
133.602048
 20
332.776515
 11
133.602049
 21
333.576503
  0
ARC
  5
1EC
100
AcDbEntity
  8
M0
 62
     4
100
AcDbCircle
 10
134.602049
 20
333.576501
 40
1.0
100
AcDbArc
 50
90.0
 51
179.999909
  0
LINE
  5
1ED
100
AcDbEntity
  8
M0
 62
     4
100
AcDbLine
 10
121.402052
 20
323.59024
 11
120.95204
 21
323.850052
  0
LINE
  5
1EE
100
AcDbEntity
  8
M0
 62
     4
100
AcDbLine
 10
120.102017
 20
294.076524
 11
120.102021
 21
296.576524
  0
LINE
  5
1EF
100
AcDbEntity
  8
M0
 62
     4
100
AcDbLine
 10
122.102031
 20
293.076521
 11
119.102016
 21
293.076526
  0
ARC
  5
1F0
100
AcDbEntity
  8
M0
 62
     4
100
AcDbCircle
 10
121.102017
 20
294.076523
 40
1.0
100
AcDbArc
 50
179.999909
 51
270.0
  0
ARC
  5
1F1
100
AcDbEntity
  8
M0
 62
     4
100
AcDbCircle
 10
121.102017
 20
294.076523
 40
1.0
100
AcDbArc
 50
270.0
 51
359.999909
  0
LINE
  5
1F2
100
AcDbEntity
  8
M0
 62
     4
100
AcDbLine
 10
122.102073
 20
310.377287
 11
122.102074
 21
310.576536
  0
LINE
  5
1F3
100
AcDbEntity
  8
M0
 62
     4
100
AcDbLine
 10
120.952067
 20
311.826981
 11
120.952019
 21
310.576523
  0
LINE
  5
1F4
100
AcDbEntity
  8
M0
 62
     4
100
AcDbLine
 10
121.102043
 20
310.377289
 11
121.102043
 21
310.576523
  0
LINE
  5
1F5
100
AcDbEntity
  8
M0
100
AcDbLine
 10
188.902931
 20
314.826737
 11
189.699693
 21
314.826737
  0
LINE
  5
1F6
100
AcDbEntity
  8
M0
100
AcDbLine
 10
189.699693
 20
321.326737
 11
188.902931
 21
321.326737
  0
ARC
  5
1F7
100
AcDbEntity
  8
M0
100
AcDbCircle
 10
188.902946
 20
320.826492
 40
0.5
100
AcDbArc
 50
90.0
 51
179.999891
  0
ARC
  5
1F8
100
AcDbEntity
  8
M0
100
AcDbCircle
 10
188.902946
 20
315.326737
 40
0.5
100
AcDbArc
 50
179.999891
 51
270.0
  0
LINE
  5
1F9
100
AcDbEntity
  8
M0
  6
DASHDOT
100
AcDbLine
 10
180.589897
 20
318.076493
 11
199.296929
 21
318.076493
  0
LINE
  5
1FA
100
AcDbEntity
  8
M0
100
AcDbLine
 10
188.402962
 20
320.826248
 11
188.402962
 21
315.326737
  0
LINE
  5
1FB
100
AcDbEntity
  8
M0
  6
DASHDOT
100
AcDbLine
 10
121.689625
 20
318.076737
 11
142.802342
 21
318.076737
  0
LINE
  5
1FC
100
AcDbEntity
  8
M0
  6
DASHDOT
100
AcDbLine
 10
130.950936
 20
302.269242
 11
130.950936
 21
333.884243
  0
LINE
  5
1FD
100
AcDbEntity
  8
M0
100
AcDbLine
 10
140.602059
 20
342.077713
 11
129.102059
 21
342.077713
  0
ARC
  5
1FE
100
AcDbEntity
  8
M0
100
AcDbCircle
 10
129.102074
 20
337.077469
 40
4.999997
100
AcDbArc
 50
90.0
 51
179.999964
  0
LINE
  5
1FF
100
AcDbEntity
  8
M0
100
AcDbLine
 10
143.102074
 20
332.576248
 11
124.102074
 21
332.576004
  0
LINE
  5
200
100
AcDbEntity
  8
M0
100
AcDbLine
 10
124.102074
 20
337.077469
 11
124.102074
 21
332.576004
  0
ARC
  5
201
100
AcDbEntity
  8
M0
100
AcDbCircle
 10
140.602074
 20
339.577469
 40
2.499997
100
AcDbArc
 50
0.0
 51
90.0
  0
LINE
  5
202
100
AcDbEntity
  8
M0
100
AcDbLine
 10
143.102028
 20
332.576004
 11
143.102074
 21
339.577469
  0
CIRCLE
  5
203
100
AcDbEntity
  8
M0
100
AcDbCircle
 10
129.102074
 20
337.077469
 40
2.249993
  0
LINE
  5
204
100
AcDbEntity
  8
M0
  6
DASHDOT
100
AcDbLine
 10
134.375542
 20
337.077469
 11
123.828591
 21
337.077469
  0
LINE
  5
205
100
AcDbEntity
  8
M0
  6
DASHDOT
100
AcDbLine
 10
129.102059
 20
342.350907
 11
129.102074
 21
331.803788
  0
LINE
  5
206
100
AcDbEntity
  8
M0
 62
     7
100
AcDbLine
 10
40.098229
 20
332.578446
 11
46.098229
 21
332.578446
  0
LINE
  5
207
100
AcDbEntity
  8
M0
 62
     7
100
AcDbLine
 10
46.098229
 20
332.578446
 11
46.098229
 21
333.578415
  0
LINE
  5
208
100
AcDbEntity
  8
M0
 62
     7
100
AcDbLine
 10
45.098229
 20
334.578446
 11
41.098229
 21
334.57843
  0
LINE
  5
209
100
AcDbEntity
  8
M0
 62
     7
100
AcDbLine
 10
40.098229
 20
333.57843
 11
40.098229
 21
332.578446
  0
ARC
  5
20A
100
AcDbEntity
  8
M0
 62
     7
100
AcDbCircle
 10
45.098229
 20
333.57843
 40
1.0
100
AcDbArc
 50
0.0
 51
90.0
  0
ARC
  5
20B
100
AcDbEntity
  8
M0
 62
     7
100
AcDbCircle
 10
41.098229
 20
333.57843
 40
1.0
100
AcDbArc
 50
90.0
 51
179.999945
  0
LINE
  5
20C
100
AcDbEntity
  8
M0
 62
     7
100
AcDbLine
 10
115.296471
 20
332.577225
 11
121.296471
 21
332.577225
  0
LINE
  5
20D
100
AcDbEntity
  8
M0
 62
     7
100
AcDbLine
 10
121.296471
 20
332.577225
 11
121.296471
 21
333.577195
  0
LINE
  5
20E
100
AcDbEntity
  8
M0
 62
     7
100
AcDbLine
 10
120.296471
 20
334.577225
 11
116.296471
 21
334.57721
  0
LINE
  5
20F
100
AcDbEntity
  8
M0
 62
     7
100
AcDbLine
 10
115.296471
 20
333.57721
 11
115.296471
 21
332.577225
  0
ARC
  5
210
100
AcDbEntity
  8
M0
 62
     7
100
AcDbCircle
 10
120.296471
 20
333.57721
 40
1.0
100
AcDbArc
 50
0.0
 51
90.0
  0
ARC
  5
211
100
AcDbEntity
  8
M0
 62
     7
100
AcDbCircle
 10
116.296471
 20
333.57721
 40
1.0
100
AcDbArc
 50
90.0
 51
179.999945
  0
LINE
  5
212
100
AcDbEntity
  8
M0
 62
     7
100
AcDbLine
 10
45.098366
 20
277.478348
 11
45.098366
 21
255.978348
  0
LINE
  5
213
100
AcDbEntity
  8
M0
 62
     7
100
AcDbLine
 10
45.098366
 20
255.978348
 11
65.098366
 21
255.978348
  0
LINE
  5
214
100
AcDbEntity
  8
M0
 62
     7
100
AcDbLine
 10
65.098366
 20
255.978348
 11
65.098366
 21
277.478348
  0
LINE
  5
215
100
AcDbEntity
  8
M0
 62
     7
100
AcDbLine
 10
47.598366
 20
279.978348
 11
47.598366
 21
293.066755
  0
LINE
  5
216
100
AcDbEntity
  8
M0
 62
     7
100
AcDbLine
 10
45.098366
 20
277.478348
 11
47.598366
 21
279.978348
  0
LINE
  5
217
100
AcDbEntity
  8
M0
 62
     7
100
AcDbLine
 10
62.598366
 20
289.278397
 11
47.598366
 21
289.278397
  0
LINE
  5
218
100
AcDbEntity
  8
M0
 62
     7
100
AcDbLine
 10
65.098366
 20
277.478348
 11
62.598366
 21
279.978348
  0
LINE
  5
219
100
AcDbEntity
  8
M0
 62
     7
100
AcDbLine
 10
71.102883
 20
277.478348
 11
71.102883
 21
255.978348
  0
LINE
  5
21A
100
AcDbEntity
  8
M0
 62
     7
100
AcDbLine
 10
71.102883
 20
255.978348
 11
91.10273
 21
255.978348
  0
LINE
  5
21B
100
AcDbEntity
  8
M0
 62
     7
100
AcDbLine
 10
91.10273
 20
255.978348
 11
91.10273
 21
277.478348
  0
LINE
  5
21C
100
AcDbEntity
  8
M0
 62
     7
100
AcDbLine
 10
73.602883
 20
287.978348
 11
73.602883
 21
293.061636
  0
LINE
  5
21D
100
AcDbEntity
  8
M0
 62
     7
100
AcDbLine
 10
88.60273
 20
287.978348
 11
88.60273
 21
293.072085
  0
LINE
  5
21E
100
AcDbEntity
  8
M0
  6
DASHED
 62
     7
100
AcDbLine
 10
88.60273
 20
284.478348
 11
73.602883
 21
284.478348
  0
LINE
  5
21F
100
AcDbEntity
  8
M0
 62
     7
100
AcDbLine
 10
71.102883
 20
277.478348
 11
73.102837
 21
279.478348
  0
LINE
  5
220
100
AcDbEntity
  8
M0
 62
     7
100
AcDbLine
 10
88.60273
 20
289.278397
 11
73.602883
 21
289.278397
  0
LINE
  5
221
100
AcDbEntity
  8
M0
 62
     7
100
AcDbLine
 10
91.10273
 20
277.478348
 11
89.10273
 21
279.478348
  0
LINE
  5
222
100
AcDbEntity
  8
M0
 62
     7
100
AcDbLine
 10
97.105538
 20
277.478348
 11
97.105538
 21
255.978348
  0
LINE
  5
223
100
AcDbEntity
  8
M0
 62
     7
100
AcDbLine
 10
97.105538
 20
255.978348
 11
117.105538
 21
255.978348
  0
LINE
  5
224
100
AcDbEntity
  8
M0
 62
     7
100
AcDbLine
 10
117.105538
 20
255.978348
 11
117.105538
 21
277.478348
  0
LINE
  5
225
100
AcDbEntity
  8
M0
 62
     7
100
AcDbLine
 10
99.605538
 20
279.978348
 11
99.605538
 21
293.058511
  0
LINE
  5
226
100
AcDbEntity
  8
M0
 62
     7
100
AcDbLine
 10
114.605538
 20
279.978348
 11
114.605538
 21
293.075505
  0
LINE
  5
227
100
AcDbEntity
  8
M0
 62
     7
100
AcDbLine
 10
97.105538
 20
277.478348
 11
99.605538
 21
279.978348
  0
LINE
  5
228
100
AcDbEntity
  8
M0
 62
     7
100
AcDbLine
 10
114.605538
 20
289.278397
 11
99.605538
 21
289.278397
  0
LINE
  5
229
100
AcDbEntity
  8
M0
 62
     7
100
AcDbLine
 10
117.105538
 20
277.478348
 11
114.605538
 21
279.978348
  0
LINE
  5
22A
100
AcDbEntity
  8
M0
 62
     7
100
AcDbLine
 10
65.102883
 20
287.978348
 11
65.102883
 21
284.478348
  0
LINE
  5
22B
100
AcDbEntity
  8
M0
 62
     7
100
AcDbLine
 10
97.102608
 20
287.978348
 11
97.102608
 21
284.478348
  0
LINE
  5
22C
100
AcDbEntity
  8
M0
 62
     7
100
AcDbLine
 10
115.102608
 20
279.481278
 11
115.102608
 21
287.978348
  0
LINE
  5
22D
100
AcDbEntity
  8
M0
 62
     7
100
AcDbLine
 10
115.102608
 20
287.978348
 11
114.605538
 21
287.978348
  0
LINE
  5
22E
100
AcDbEntity
  8
M0
 62
     7
100
AcDbLine
 10
47.102867
 20
287.978348
 11
47.102867
 21
279.482987
  0
LINE
  5
22F
100
AcDbEntity
  8
M0
 62
     7
100
AcDbLine
 10
97.102608
 20
279.478348
 11
97.102608
 21
274.478348
  0
LINE
  5
230
100
AcDbEntity
  8
M0
 62
     7
100
AcDbLine
 10
65.102867
 20
279.478348
 11
65.102867
 21
274.478348
  0
LINE
  5
231
100
AcDbEntity
  8
M0
 62
     7
100
AcDbLine
 10
47.102867
 20
284.478348
 11
47.598366
 21
284.478348
  0
LINE
  5
232
100
AcDbEntity
  8
M0
 62
     7
100
AcDbLine
 10
65.102867
 20
279.478348
 11
97.102608
 21
279.478348
  0
LINE
  5
233
100
AcDbEntity
  8
M0
 62
     7
100
AcDbLine
 10
62.598366
 20
284.478348
 11
99.605538
 21
284.478348
  0
LINE
  5
234
100
AcDbEntity
  8
M0
 62
     7
100
AcDbLine
 10
114.605538
 20
284.478348
 11
115.102608
 21
284.478348
  0
LINE
  5
235
100
AcDbEntity
  8
M0
 62
     7
100
AcDbLine
 10
99.605538
 20
287.978348
 11
62.598366
 21
287.978348
  0
LINE
  5
236
100
AcDbEntity
  8
M0
 62
     7
100
AcDbLine
 10
47.598366
 20
287.978348
 11
47.102867
 21
287.978348
  0
CIRCLE
  5
237
100
AcDbEntity
  8
M0
 62
     7
100
AcDbCircle
 10
55.098229
 20
265.978348
 40
7.499989
  0
LINE
  5
238
100
AcDbEntity
  8
M0
 62
     7
100
AcDbLine
 10
55.098229
 20
273.483719
 11
61.599678
 21
269.731034
  0
LINE
  5
239
100
AcDbEntity
  8
M0
 62
     7
100
AcDbLine
 10
61.599678
 20
269.731034
 11
61.599678
 21
262.225418
  0
LINE
  5
23A
100
AcDbEntity
  8
M0
 62
     7
100
AcDbLine
 10
61.599678
 20
262.225418
 11
55.098229
 21
258.472733
  0
LINE
  5
23B
100
AcDbEntity
  8
M0
 62
     7
100
AcDbLine
 10
55.098229
 20
258.472733
 11
48.599205
 21
262.225418
  0
LINE
  5
23C
100
AcDbEntity
  8
M0
 62
     7
100
AcDbLine
 10
48.599205
 20
262.225418
 11
48.599205
 21
269.731034
  0
LINE
  5
23D
100
AcDbEntity
  8
M0
 62
     7
100
AcDbLine
 10
48.599205
 20
269.731034
 11
55.098229
 21
273.483719
  0
CIRCLE
  5
23E
100
AcDbEntity
  8
M0
 62
     7
100
AcDbCircle
 10
81.102852
 20
265.978348
 40
7.499989
  0
LINE
  5
23F
100
AcDbEntity
  8
M0
 62
     7
100
AcDbLine
 10
81.102852
 20
273.483719
 11
87.604195
 21
269.731034
  0
LINE
  5
240
100
AcDbEntity
  8
M0
 62
     7
100
AcDbLine
 10
87.604195
 20
269.731034
 11
87.604195
 21
262.225418
  0
LINE
  5
241
100
AcDbEntity
  8
M0
 62
     7
100
AcDbLine
 10
87.604195
 20
262.225418
 11
81.102852
 21
258.472733
  0
LINE
  5
242
100
AcDbEntity
  8
M0
 62
     7
100
AcDbLine
 10
81.102852
 20
258.472733
 11
74.603829
 21
262.225418
  0
LINE
  5
243
100
AcDbEntity
  8
M0
 62
     7
100
AcDbLine
 10
74.603829
 20
262.225418
 11
74.603829
 21
269.731034
  0
LINE
  5
244
100
AcDbEntity
  8
M0
 62
     7
100
AcDbLine
 10
74.603829
 20
269.731034
 11
81.102852
 21
273.483719
  0
CIRCLE
  5
245
100
AcDbEntity
  8
M0
 62
     7
100
AcDbCircle
 10
107.105538
 20
265.978348
 40
7.499989
  0
LINE
  5
246
100
AcDbEntity
  8
M0
 62
     7
100
AcDbLine
 10
107.105538
 20
273.483719
 11
113.607002
 21
269.731034
  0
LINE
  5
247
100
AcDbEntity
  8
M0
 62
     7
100
AcDbLine
 10
113.607002
 20
269.731034
 11
113.607002
 21
262.225418
  0
LINE
  5
248
100
AcDbEntity
  8
M0
 62
     7
100
AcDbLine
 10
113.607002
 20
262.225418
 11
107.105538
 21
258.472733
  0
LINE
  5
249
100
AcDbEntity
  8
M0
 62
     7
100
AcDbLine
 10
107.105538
 20
258.472733
 11
100.606514
 21
262.225418
  0
LINE
  5
24A
100
AcDbEntity
  8
M0
 62
     7
100
AcDbLine
 10
100.606514
 20
262.225418
 11
100.606514
 21
269.731034
  0
LINE
  5
24B
100
AcDbEntity
  8
M0
 62
     7
100
AcDbLine
 10
100.606514
 20
269.731034
 11
107.105538
 21
273.483719
  0
CIRCLE
  5
24C
100
AcDbEntity
  8
M0
 62
     7
100
AcDbCircle
 10
55.098229
 20
265.978348
 40
8.999998
  0
CIRCLE
  5
24D
100
AcDbEntity
  8
M0
 62
     7
100
AcDbCircle
 10
81.102852
 20
265.978348
 40
8.999998
  0
CIRCLE
  5
24E
100
AcDbEntity
  8
M0
 62
     7
100
AcDbCircle
 10
107.105538
 20
265.978348
 40
8.999998
  0
LINE
  5
24F
100
AcDbEntity
  8
M0
  6
DASHDOT
 62
     7
100
AcDbLine
 10
118.605232
 20
265.978348
 11
95.605477
 21
265.978348
  0
LINE
  5
250
100
AcDbEntity
  8
M0
  6
DASHDOT
 62
     7
100
AcDbLine
 10
107.105477
 20
277.478104
 11
107.105477
 21
253.252899
  0
LINE
  5
251
100
AcDbEntity
  8
M0
  6
DASHDOT
 62
     7
100
AcDbLine
 10
92.602547
 20
265.978348
 11
69.602791
 21
265.978348
  0
LINE
  5
252
100
AcDbEntity
  8
M0
  6
DASHDOT
 62
     7
100
AcDbLine
 10
81.102791
 20
277.478104
 11
81.102791
 21
254.150147
  0
LINE
  5
253
100
AcDbEntity
  8
M0
  6
DASHDOT
 62
     7
100
AcDbLine
 10
66.597908
 20
265.978348
 11
43.598152
 21
265.978348
  0
LINE
  5
254
100
AcDbEntity
  8
M0
  6
DASHDOT
 62
     7
100
AcDbLine
 10
55.098152
 20
277.478104
 11
55.098152
 21
253.432358
  0
CIRCLE
  5
255
100
AcDbEntity
  8
M0
 62
     7
100
AcDbCircle
 10
55.098152
 20
265.978104
 40
4.0
  0
CIRCLE
  5
256
100
AcDbEntity
  8
M0
 62
     7
100
AcDbCircle
 10
81.102791
 20
265.978104
 40
4.0
  0
CIRCLE
  5
257
100
AcDbEntity
  8
M0
 62
     7
100
AcDbCircle
 10
107.105477
 20
265.978104
 40
4.0
  0
LINE
  5
258
100
AcDbEntity
  8
M0
 62
     7
100
AcDbLine
 10
62.600014
 20
279.978348
 11
62.600028
 21
293.068957
  0
CIRCLE
  5
259
100
AcDbEntity
  8
M0
 62
     7
100
AcDbCircle
 10
107.105477
 20
265.978104
 40
3.0
  0
CIRCLE
  5
25A
100
AcDbEntity
  8
M0
 62
     7
100
AcDbCircle
 10
81.102791
 20
265.978104
 40
3.0
  0
CIRCLE
  5
25B
100
AcDbEntity
  8
M0
 62
     7
100
AcDbCircle
 10
55.098152
 20
265.978104
 40
3.0
  0
LINE
  5
25C
100
AcDbEntity
  8
M0
 62
     7
100
AcDbLine
 10
175.297692
 20
259.47786
 11
175.297692
 21
272.47786
  0
LINE
  5
25D
100
AcDbEntity
  8
M0
 62
     7
100
AcDbLine
 10
188.197594
 20
258.478104
 11
183.697594
 21
258.47786
  0
LINE
  5
25E
100
AcDbEntity
  8
M0
 62
     7
100
AcDbLine
 10
183.697594
 20
273.478104
 11
188.197594
 21
273.478104
  0
LINE
  5
25F
100
AcDbEntity
  8
M0
 62
     7
100
AcDbLine
 10
188.197594
 20
273.478104
 11
188.197594
 21
258.478104
  0
LINE
  5
260
100
AcDbEntity
  8
M0
 62
     7
100
AcDbLine
 10
162.697838
 20
261.978104
 11
162.697838
 21
269.978104
  0
LINE
  5
261
100
AcDbEntity
  8
M0
 62
     7
100
AcDbLine
 10
183.697594
 20
269.728104
 11
188.197594
 21
269.728104
  0
LINE
  5
262
100
AcDbEntity
  8
M0
 62
     7
100
AcDbLine
 10
188.197594
 20
262.228104
 11
183.697594
 21
262.22786
  0
LINE
  5
263
100
AcDbEntity
  8
M0
 62
     7
100
AcDbLine
 10
188.197594
 20
265.978104
 11
183.697594
 21
265.97786
  0
LINE
  5
264
100
AcDbEntity
  8
M0
 62
     7
100
AcDbLine
 10
177.297692
 20
257.478104
 11
178.897789
 21
257.478104
  0
LINE
  5
265
100
AcDbEntity
  8
M0
 62
     7
100
AcDbLine
 10
177.297692
 20
274.478104
 11
178.897789
 21
274.478104
  0
LINE
  5
266
100
AcDbEntity
  8
M0
 62
     7
100
AcDbLine
 10
175.297692
 20
258.478104
 11
177.297692
 21
258.478104
  0
LINE
  5
267
100
AcDbEntity
  8
M0
 62
     7
100
AcDbLine
 10
175.297692
 20
273.478104
 11
177.297692
 21
273.478104
  0
LINE
  5
268
100
AcDbEntity
  8
M0
 62
     7
100
AcDbLine
 10
183.697594
 20
255.978348
 11
178.897789
 21
255.978348
  0
LINE
  5
269
100
AcDbEntity
  8
M0
 62
     7
100
AcDbLine
 10
178.897789
 20
255.978348
 11
178.897789
 21
257.478104
  0
LINE
  5
26A
100
AcDbEntity
  8
M0
 62
     7
100
AcDbLine
 10
185.697594
 20
284.478348
 11
205.29818
 21
284.478348
  0
LINE
  5
26B
100
AcDbEntity
  8
M0
 62
     7
100
AcDbLine
 10
183.697594
 20
255.978348
 11
183.697594
 21
273.478104
  0
LINE
  5
26C
100
AcDbEntity
  8
M0
 62
     7
100
AcDbLine
 10
183.697594
 20
289.278397
 11
184.670939
 21
289.278397
  0
ARC
  5
26D
100
AcDbEntity
  8
M0
 62
     7
100
AcDbCircle
 10
185.697594
 20
282.478348
 40
1.999995
100
AcDbArc
 50
89.999563
 51
179.999563
  0
ARC
  5
26E
100
AcDbEntity
  8
M0
 62
     7
100
AcDbCircle
 10
183.697594
 20
284.478348
 40
4.799994
100
AcDbArc
 50
89.999818
 51
179.999818
  0
ARC
  5
26F
100
AcDbEntity
  8
M0
 62
     7
100
AcDbCircle
 10
198.59774
 20
289.278397
 40
4.799994
100
AcDbArc
 50
270.0
 51
331.34855
  0
LINE
  5
270
100
AcDbEntity
  8
M0
  6
DASHDOT
 62
     7
100
AcDbLine
 10
190.782067
 20
265.978348
 11
160.411949
 21
265.978348
  0
LINE
  5
271
100
AcDbEntity
  8
M0
 62
     7
100
AcDbLine
 10
183.697594
 20
273.478104
 11
183.697594
 21
282.478348
  0
LINE
  5
272
100
AcDbEntity
  8
M0
 62
     7
100
AcDbLine
 10
178.897789
 20
257.478104
 11
178.897789
 21
284.478348
  0
LINE
  5
273
100
AcDbEntity
  8
M0
 62
     7
100
AcDbLine
 10
177.297692
 20
257.478104
 11
177.297692
 21
274.478104
  0
LINE
  5
274
100
AcDbEntity
  8
M0
 62
     7
100
AcDbLine
 10
175.297692
 20
258.478104
 11
175.297692
 21
273.478104
  0
LINE
  5
275
100
AcDbEntity
  8
M0
 62
     7
100
AcDbLine
 10
218.297692
 20
255.978348
 11
223.09774
 21
255.978348
  0
LINE
  5
276
100
AcDbEntity
  8
M0
 62
     7
100
AcDbLine
 10
223.09774
 20
255.978348
 11
223.09774
 21
284.478348
  0
LINE
  5
277
100
AcDbEntity
  8
M0
 62
     7
100
AcDbLine
 10
216.297692
 20
284.478348
 11
215.997643
 21
284.478104
  0
LINE
  5
278
100
AcDbEntity
  8
M0
 62
     7
100
AcDbLine
 10
218.297692
 20
255.978348
 11
218.297692
 21
282.478348
  0
LINE
  5
279
100
AcDbEntity
  8
M0
 62
     7
100
AcDbLine
 10
218.297692
 20
289.278397
 11
217.159884
 21
289.278397
  0
ARC
  5
27A
100
AcDbEntity
  8
M0
 62
     7
100
AcDbCircle
 10
216.297692
 20
282.478348
 40
1.999995
100
AcDbArc
 50
0.0
 51
90.0
  0
ARC
  5
27B
100
AcDbEntity
  8
M0
 62
     7
100
AcDbCircle
 10
218.297692
 20
284.478348
 40
4.799994
100
AcDbArc
 50
0.0
 51
90.0
  0
ARC
  5
27C
100
AcDbEntity
  8
M0
 62
     7
100
AcDbCircle
 10
203.397789
 20
289.278397
 40
4.799994
100
AcDbArc
 50
239.998779
 51
270.0
  0
LINE
  5
27D
100
AcDbEntity
  8
M0
 62
     7
100
AcDbLine
 10
205.29818
 20
284.478104
 11
203.397789
 21
284.478348
  0
LINE
  5
27E
100
AcDbEntity
  8
M0
 62
     7
100
AcDbLine
 10
216.697838
 20
257.478104
 11
216.697838
 21
274.478104
  0
LINE
  5
27F
100
AcDbEntity
  8
M0
 62
     7
100
AcDbLine
 10
214.697838
 20
258.478104
 11
214.697838
 21
273.478104
  0
LINE
  5
280
100
AcDbEntity
  8
M0
 62
     7
100
AcDbLine
 10
227.59774
 20
258.478104
 11
223.09774
 21
258.47786
  0
LINE
  5
281
100
AcDbEntity
  8
M0
 62
     7
100
AcDbLine
 10
223.09774
 20
273.478104
 11
227.59774
 21
273.478104
  0
LINE
  5
282
100
AcDbEntity
  8
M0
 62
     7
100
AcDbLine
 10
227.59774
 20
273.478104
 11
227.59774
 21
258.478104
  0
LINE
  5
283
100
AcDbEntity
  8
M0
  6
DASHDOT
 62
     7
100
AcDbLine
 10
230.197594
 20
265.978104
 11
199.831383
 21
265.978104
  0
LINE
  5
284
100
AcDbEntity
  8
M0
 62
     7
100
AcDbLine
 10
202.09774
 20
261.978104
 11
202.09774
 21
269.978104
  0
LINE
  5
285
100
AcDbEntity
  8
M0
 62
     7
100
AcDbLine
 10
208.196373
 20
269.977372
 11
202.09774
 21
269.978104
  0
LINE
  5
286
100
AcDbEntity
  8
M0
 62
     7
100
AcDbLine
 10
208.196373
 20
261.977372
 11
202.09774
 21
261.978104
  0
LINE
  5
287
100
AcDbEntity
  8
M0
 62
     7
100
AcDbLine
 10
223.09774
 20
269.728104
 11
227.59774
 21
269.728104
  0
LINE
  5
288
100
AcDbEntity
  8
M0
 62
     7
100
AcDbLine
 10
227.59774
 20
262.228104
 11
223.09774
 21
262.22786
  0
LINE
  5
289
100
AcDbEntity
  8
M0
 62
     7
100
AcDbLine
 10
227.59774
 20
265.978104
 11
223.09774
 21
265.97786
  0
LINE
  5
28A
100
AcDbEntity
  8
M0
 62
     7
100
AcDbLine
 10
216.697838
 20
274.478104
 11
218.297692
 21
274.478104
  0
LINE
  5
28B
100
AcDbEntity
  8
M0
 62
     7
100
AcDbLine
 10
216.697838
 20
257.478104
 11
218.297692
 21
257.478104
  0
LINE
  5
28C
100
AcDbEntity
  8
M0
 62
     7
100
AcDbLine
 10
214.697838
 20
273.478104
 11
216.697838
 21
273.478104
  0
LINE
  5
28D
100
AcDbEntity
  8
M0
 62
     7
100
AcDbLine
 10
214.697838
 20
258.478104
 11
216.697838
 21
258.478104
  0
LINE
  5
28E
100
AcDbEntity
  8
M0
 62
     7
100
AcDbLine
 10
185.997887
 20
284.478104
 11
185.997887
 21
276.478104
  0
LINE
  5
28F
100
AcDbEntity
  8
M0
 62
     7
100
AcDbLine
 10
185.997887
 20
276.478104
 11
205.997643
 21
276.478104
  0
LINE
  5
290
100
AcDbEntity
  8
M0
 62
     7
100
AcDbLine
 10
215.997643
 20
279.978348
 11
215.997643
 21
287.822191
  0
LINE
  5
291
100
AcDbEntity
  8
M0
 62
     7
100
AcDbLine
 10
205.997643
 20
279.978348
 11
215.997643
 21
279.978104
  0
LINE
  5
292
100
AcDbEntity
  8
M0
 62
     7
100
AcDbLine
 10
205.29818
 20
286.976895
 11
205.29818
 21
284.477616
  0
LINE
  5
293
100
AcDbEntity
  8
M0
 62
     7
100
AcDbLine
 10
205.997643
 20
276.478104
 11
205.997643
 21
279.978348
  0
LINE
  5
294
100
AcDbEntity
  8
M0
 62
     7
100
AcDbLine
 10
199.29818
 20
284.478104
 11
185.997887
 21
284.478104
  0
LINE
  5
295
100
AcDbEntity
  8
M0
 62
     7
100
AcDbLine
 10
168.796227
 20
269.977616
 11
162.697838
 21
269.978104
  0
LINE
  5
296
100
AcDbEntity
  8
M0
 62
     7
100
AcDbLine
 10
168.796227
 20
261.977616
 11
162.697838
 21
261.978104
  0
LINE
  5
297
100
AcDbEntity
  8
M0
 62
     7
100
AcDbLine
 10
208.98983
 20
259.477616
 11
214.697838
 21
259.477616
  0
LINE
  5
298
100
AcDbEntity
  8
M0
 62
     7
100
AcDbLine
 10
214.697838
 20
272.477616
 11
208.98983
 21
272.477372
  0
LINE
  5
299
100
AcDbEntity
  8
M0
 62
     7
100
AcDbLine
 10
208.196373
 20
271.102372
 11
208.196373
 21
260.852616
  0
LINE
  5
29A
100
AcDbEntity
  8
M0
 62
     7
100
AcDbLine
 10
209.011803
 20
269.730789
 11
214.697838
 21
269.730789
  0
LINE
  5
29B
100
AcDbEntity
  8
M0
 62
     7
100
AcDbLine
 10
209.011803
 20
262.22493
 11
214.697838
 21
262.22493
  0
LINE
  5
29C
100
AcDbEntity
  8
M0
 62
     7
100
AcDbLine
 10
208.196373
 20
271.102372
 11
208.98983
 21
272.477372
  0
LINE
  5
29D
100
AcDbEntity
  8
M0
 62
     7
100
AcDbLine
 10
208.196373
 20
260.852616
 11
208.98983
 21
259.477616
  0
ARC
  5
29E
100
AcDbEntity
  8
M0
 62
     7
100
AcDbCircle
 10
216.196861
 20
265.97786
 40
7.999994
100
AcDbArc
 50
152.024155
 51
207.975733
  0
ARC
  5
29F
100
AcDbEntity
  8
M0
 62
     7
100
AcDbCircle
 10
209.670983
 20
271.104813
 40
1.557285
100
AcDbArc
 50
198.76395
 51
244.069348
  0
ARC
  5
2A0
100
AcDbEntity
  8
M0
 62
     7
100
AcDbCircle
 10
209.663658
 20
260.850418
 40
1.553598
100
AcDbArc
 50
115.691409
 51
160.637358
  0
LINE
  5
2A1
100
AcDbEntity
  8
M0
 62
     7
100
AcDbLine
 10
208.196373
 20
268.977372
 11
202.097985
 21
268.977372
  0
LINE
  5
2A2
100
AcDbEntity
  8
M0
 62
     7
100
AcDbLine
 10
208.196373
 20
262.977372
 11
202.097985
 21
262.977372
  0
LINE
  5
2A3
100
AcDbEntity
  8
M0
 62
     7
100
AcDbLine
 10
169.589684
 20
259.47786
 11
175.297692
 21
259.47786
  0
LINE
  5
2A4
100
AcDbEntity
  8
M0
 62
     7
100
AcDbLine
 10
175.297692
 20
272.47786
 11
169.589684
 21
272.477616
  0
LINE
  5
2A5
100
AcDbEntity
  8
M0
 62
     7
100
AcDbLine
 10
168.796227
 20
271.102616
 11
168.796227
 21
260.85286
  0
LINE
  5
2A6
100
AcDbEntity
  8
M0
 62
     7
100
AcDbLine
 10
169.611656
 20
269.731034
 11
175.297692
 21
269.731034
  0
LINE
  5
2A7
100
AcDbEntity
  8
M0
 62
     7
100
AcDbLine
 10
169.611656
 20
262.225174
 11
175.297692
 21
262.225174
  0
LINE
  5
2A8
100
AcDbEntity
  8
M0
 62
     7
100
AcDbLine
 10
168.796227
 20
271.102616
 11
169.589684
 21
272.477616
  0
LINE
  5
2A9
100
AcDbEntity
  8
M0
 62
     7
100
AcDbLine
 10
168.796227
 20
260.85286
 11
169.589684
 21
259.47786
  0
ARC
  5
2AA
100
AcDbEntity
  8
M0
 62
     7
100
AcDbCircle
 10
176.796715
 20
265.978104
 40
7.999994
100
AcDbArc
 50
152.024139
 51
207.975765
  0
ARC
  5
2AB
100
AcDbEntity
  8
M0
 62
     7
100
AcDbCircle
 10
170.270836
 20
271.105057
 40
1.557285
100
AcDbArc
 50
198.764097
 51
244.069411
  0
ARC
  5
2AC
100
AcDbEntity
  8
M0
 62
     7
100
AcDbCircle
 10
170.263512
 20
260.850663
 40
1.553598
100
AcDbArc
 50
115.69125
 51
160.637347
  0
LINE
  5
2AD
100
AcDbEntity
  8
M0
 62
     7
100
AcDbLine
 10
168.796227
 20
268.977616
 11
162.697838
 21
268.977616
  0
LINE
  5
2AE
100
AcDbEntity
  8
M0
 62
     7
100
AcDbLine
 10
168.796227
 20
262.977616
 11
162.697838
 21
262.977616
  0
LINE
  5
2AF
100
AcDbEntity
  8
M0
 62
    34
100
AcDbLine
 10
121.402062
 20
313.077227
 11
121.402052
 21
328.677212
  0
LINE
  5
2B0
100
AcDbEntity
  8
M0
 62
    34
100
AcDbLine
 10
118.102047
 20
332.577211
 11
118.102047
 21
331.37721
  0
LINE
  5
2B1
100
AcDbEntity
  8
M0
 62
    34
100
AcDbLine
 10
118.10206
 20
310.377213
 11
118.102061
 21
309.177216
  0
LINE
  5
2B2
100
AcDbEntity
  8
M0
 62
    34
100
AcDbLine
 10
118.10206
 20
310.377213
 11
123.60206
 21
310.377216
  0
LINE
  5
2B3
100
AcDbEntity
  8
M0
 62
    34
100
AcDbLine
 10
118.102047
 20
331.37721
 11
123.602047
 21
331.377213
  0
LINE
  5
2B4
100
AcDbEntity
  8
M0
 62
    34
100
AcDbLine
 10
128.902062
 20
307.877219
 11
132.902062
 21
307.877222
  0
LINE
  5
2B5
100
AcDbEntity
  8
M0
 62
    34
100
AcDbLine
 10
135.102061
 20
309.177226
 11
132.902062
 21
307.877222
  0
LINE
  5
2B6
100
AcDbEntity
  8
M0
 62
    34
100
AcDbLine
 10
128.902062
 20
307.877219
 11
126.102061
 21
309.177221
  0
LINE
  5
2B7
100
AcDbEntity
  8
M0
 62
    34
100
AcDbLine
 10
126.102061
 20
309.177221
 11
118.102061
 21
309.177216
  0
LINE
  5
2B8
100
AcDbEntity
  8
M0
 62
    34
100
AcDbLine
 10
142.602061
 20
309.177231
 11
135.102061
 21
309.177226
  0
ARC
  5
2B9
100
AcDbEntity
  8
M0
 62
    34
100
AcDbCircle
 10
142.602061
 20
309.677231
 40
0.5
100
AcDbArc
 50
270.0
 51
360.000036
  0
LINE
  5
2BA
100
AcDbEntity
  8
M0
 62
    34
100
AcDbLine
 10
143.102061
 20
309.677231
 11
143.102047
 21
332.077226
  0
LINE
  5
2BB
100
AcDbEntity
  8
M0
 62
    34
100
AcDbLine
 10
142.602047
 20
332.577226
 11
118.102047
 21
332.577211
  0
ARC
  5
2BC
100
AcDbEntity
  8
M0
 62
    34
100
AcDbCircle
 10
142.602047
 20
332.077226
 40
0.5
100
AcDbArc
 50
3.597218E-005
 51
90.0
  0
LINE
  5
2BD
100
AcDbEntity
  8
M0
 62
    34
100
AcDbLine
 10
123.60206
 20
310.377216
 11
123.602059
 21
312.077228
  0
LINE
  5
2BE
100
AcDbEntity
  8
M0
 62
    34
100
AcDbLine
 10
121.402062
 20
313.077227
 11
122.602059
 21
313.077228
  0
ARC
  5
2BF
100
AcDbEntity
  8
M0
 62
    34
100
AcDbCircle
 10
122.602059
 20
312.077228
 40
1.0
100
AcDbArc
 50
3.597218E-005
 51
89.999162
  0
LINE
  5
2C0
100
AcDbEntity
  8
M0
 62
    34
100
AcDbLine
 10
121.402052
 20
328.677212
 11
122.602049
 21
328.677213
  0
LINE
  5
2C1
100
AcDbEntity
  8
M0
 62
    34
100
AcDbLine
 10
123.602048
 20
329.677213
 11
123.602047
 21
331.377213
  0
ARC
  5
2C2
100
AcDbEntity
  8
M0
 62
    34
100
AcDbCircle
 10
122.602048
 20
329.677213
 40
1.0
100
AcDbArc
 50
270.0
 51
360.000036
  0
CIRCLE
  5
2C3
100
AcDbEntity
  8
M0
 62
    34
100
AcDbCircle
 10
130.902056
 20
317.877221
 40
4.25
  0
LINE
  5
2C4
100
AcDbEntity
  8
M0
 62
     4
100
AcDbLine
 10
127.452065
 20
327.576487
 11
127.452069
 21
330.576486
  0
LINE
  5
2C5
100
AcDbEntity
  8
M0
 62
     4
100
AcDbLine
 10
125.45207
 20
330.57649
 11
127.452069
 21
330.576486
  0
LINE
  5
2C6
100
AcDbEntity
  8
M0
 62
     4
100
AcDbLine
 10
127.452067
 20
327.57649
 11
125.452049
 21
327.576494
  0
LINE
  5
2C7
100
AcDbEntity
  8
M0
 62
     4
100
AcDbLine
 10
125.452049
 20
327.576494
 11
125.452054
 21
330.57649
  0
LINE
  5
2C8
100
AcDbEntity
  8
M0
 62
    34
100
AcDbLine
 10
186.6997
 20
308.175759
 11
186.6997
 21
309.375758
  0
LINE
  5
2C9
100
AcDbEntity
  8
M0
 62
    34
100
AcDbLine
 10
186.6997
 20
330.375748
 11
186.6997
 21
331.575745
  0
LINE
  5
2CA
100
AcDbEntity
  8
M0
 62
    34
100
AcDbLine
 10
202.199686
 20
308.175759
 11
186.6997
 21
308.175759
  0
LINE
  5
2CB
100
AcDbEntity
  8
M0
 62
    34
100
AcDbLine
 10
202.199686
 20
331.575745
 11
186.6997
 21
331.575745
  0
LINE
  5
2CC
100
AcDbEntity
  8
M0
 62
    34
100
AcDbLine
 10
202.199686
 20
309.375758
 11
198.399686
 21
309.375758
  0
LINE
  5
2CD
100
AcDbEntity
  8
M0
 62
    34
100
AcDbLine
 10
202.199686
 20
309.375758
 11
202.199686
 21
308.175759
  0
LINE
  5
2CE
100
AcDbEntity
  8
M0
 62
    34
100
AcDbLine
 10
189.699686
 20
310.075758
 11
193.849687
 21
310.075758
  0
LINE
  5
2CF
100
AcDbEntity
  8
M0
 62
    34
100
AcDbLine
 10
189.699686
 20
329.675751
 11
193.849687
 21
329.675751
  0
LINE
  5
2D0
100
AcDbEntity
  8
M0
 62
    34
100
AcDbLine
 10
189.699686
 20
329.675751
 11
189.699686
 21
310.075758
  0
LINE
  5
2D1
100
AcDbEntity
  8
M0
 62
    34
100
AcDbLine
 10
198.399686
 20
332.375748
 11
198.399686
 21
308.175759
  0
LINE
  5
2D2
100
AcDbEntity
  8
M0
 62
    34
100
AcDbLine
 10
202.199686
 20
331.575745
 11
202.199686
 21
330.375748
  0
LINE
  5
2D3
100
AcDbEntity
  8
M0
 62
    34
100
AcDbLine
 10
189.399686
 20
331.575745
 11
189.399686
 21
332.875748
  0
LINE
  5
2D4
100
AcDbEntity
  8
M0
 62
    34
100
AcDbLine
 10
189.399686
 20
332.875748
 11
197.899686
 21
332.875748
  0
LINE
  5
2D5
100
AcDbEntity
  8
M0
 62
    34
100
AcDbLine
 10
202.199686
 20
330.375748
 11
198.399686
 21
330.375748
  0
LINE
  5
2D6
100
AcDbEntity
  8
M0
 62
    34
100
AcDbLine
 10
193.849687
 20
309.375758
 11
186.6997
 21
309.375758
  0
LINE
  5
2D7
100
AcDbEntity
  8
M0
 62
    34
100
AcDbLine
 10
193.849687
 20
330.375748
 11
186.6997
 21
330.375748
  0
ARC
  5
2D8
100
AcDbEntity
  8
M0
 62
    34
100
AcDbCircle
 10
193.849687
 20
330.025757
 40
0.35
100
AcDbArc
 50
270.0
 51
360.0
  0
ARC
  5
2D9
100
AcDbEntity
  8
M0
 62
    34
100
AcDbCircle
 10
193.849687
 20
330.025757
 40
0.35
100
AcDbArc
 50
0.0
 51
90.0
  0
ARC
  5
2DA
100
AcDbEntity
  8
M0
 62
    34
100
AcDbCircle
 10
193.849687
 20
309.725759
 40
0.35
100
AcDbArc
 50
270.0
 51
360.0
  0
ARC
  5
2DB
100
AcDbEntity
  8
M0
 62
    34
100
AcDbCircle
 10
193.849687
 20
309.725759
 40
0.35
100
AcDbArc
 50
0.0
 51
90.0
  0
ARC
  5
2DC
100
AcDbEntity
  8
M0
 62
    34
100
AcDbCircle
 10
197.899686
 20
332.375748
 40
0.5
100
AcDbArc
 50
0.0
 51
90.0
  0
LINE
  5
2DD
100
AcDbEntity
  8
M1
 62
     2
100
AcDbLine
 10
14.285715
 20
14.285715
 11
14.285715
 21
407.142864
  0
LINE
  5
2DE
100
AcDbEntity
  8
M1
 62
     2
100
AcDbLine
 10
14.285715
 20
407.142864
 11
285.714291
 21
407.142864
  0
LINE
  5
2DF
100
AcDbEntity
  8
M1
 62
     2
100
AcDbLine
 10
285.714291
 20
407.142864
 11
285.714291
 21
14.285715
  0
LINE
  5
2E0
100
AcDbEntity
  8
M1
 62
     2
100
AcDbLine
 10
285.714291
 20
14.285715
 11
14.285715
 21
14.285715
  0
LINE
  5
2E1
100
AcDbEntity
  8
M1
 62
     2
100
AcDbLine
 10
285.714291
 20
28.571429
 11
142.857145
 21
28.571429
  0
LINE
  5
2E2
100
AcDbEntity
  8
M1
 62
     2
100
AcDbLine
 10
285.714291
 20
42.857144
 11
142.857145
 21
42.857144
  0
LINE
  5
2E3
100
AcDbEntity
  8
M1
 62
     2
100
AcDbLine
 10
285.714291
 20
57.142858
 11
142.857145
 21
57.142858
  0
LINE
  5
2E4
100
AcDbEntity
  8
M1
 62
     2
100
AcDbLine
 10
142.857145
 20
14.285715
 11
142.857145
 21
57.142858
  0
TEXT
  5
2E5
100
AcDbEntity
  8
M1
 62
     2
100
AcDbText
 10
146.428574
 20
17.857143
 40
7.142857
  1
適　用；
 41
1.0
  7
STANDARD
100
AcDbText
  0
TEXT
  5
2E6
100
AcDbEntity
  8
M1
 62
     2
100
AcDbText
 10
146.428574
 20
46.428572
 40
7.142857
  1
登録名：
 41
1.0
  7
STANDARD
100
AcDbText
  0
TEXT
  5
2E7
100
AcDbEntity
  8
M1
 62
     2
100
AcDbText
 10
180.714289
 20
46.428572
 40
7.142857
  1
ＤＭＴＲ１５０Ｂ１ＥＲ００
 41
0.5
  7
STANDARD
100
AcDbText
  0
TEXT
  5
2E8
100
AcDbEntity
  8
M1
 62
     2
100
AcDbText
 10
146.428574
 20
32.142858
 40
7.142857
  1
形　式；
 41
1.0
  7
STANDARD
100
AcDbText
  0
TEXT
  5
2E9
100
AcDbEntity
  8
M1
 62
     2
100
AcDbText
 10
180.714289
 20
32.142858
 40
7.142857
  1
ＴＲ１５０Ｂ－１Ｅ，ＴＲ１５０Ｂ－１ＥＦ，ＴＲ１５０Ｂ－２Ｅ，ＴＲ１５０Ｂ－２ＥＦ
 41
0.25
  7
STANDARD
100
AcDbText
  0
LINE
  5
2EA
100
AcDbEntity
  8
DN0
100
AcDbLine
 10
46.258791
 20
184.923578
 11
118.101645
 21
184.923578
  0
TEXT
  5
2EB
100
AcDbEntity
  8
DN0
100
AcDbText
 10
47.061172
 20
185.637864
 40
7.142857
  1
単独使用できません。
 41
0.833333
  7
STANDARD
100
AcDbText
  0
TEXT
  5
2EC
100
AcDbEntity
  8
DN0
100
AcDbText
 10
47.90235
 20
175.042804
 40
4.5
  1
電磁接触器Ｈ８Ｃ，Ｈ１０Ｃ，
 41
0.833333
  7
STANDARD
100
AcDbText
  0
TEXT
  5
2ED
100
AcDbEntity
  8
DN0
100
AcDbText
 10
47.90235
 20
168.542799
 40
4.5
  1
Ｈ１１，Ｈ１２，Ｈ１０Ｂ－Ｒ
 41
0.833333
  7
STANDARD
100
AcDbText
  0
TEXT
  5
2EE
100
AcDbEntity
  8
DN0
100
AcDbText
 10
47.90235
 20
162.042795
 40
4.5
  1
と組み合わせ専用品です。
 41
0.833333
  7
STANDARD
100
AcDbText
  0
ENDSEC
  0
SECTION
  2
OBJECTS
  0
DICTIONARY
  5
C
100
AcDbDictionary
  3
ACAD_GROUP
350
D
  3
ACAD_MLINESTYLE
350
E
  0
DICTIONARY
  5
D
102
{ACAD_REACTORS
330
C
102
}
100
AcDbDictionary
  0
DICTIONARY
  5
E
102
{ACAD_REACTORS
330
C
102
}
100
AcDbDictionary
  3
STANDARD
350
13
  0
MLINESTYLE
  5
13
102
{ACAD_REACTORS
330
E
102
}
100
AcDbMlineStyle
  2
STANDARD
 70
     0
  3

 62
     0
 51
90.0
 52
90.0
 71
     2
 49
0.5
 62
   256
  6
BYLAYER
 49
-0.5
 62
   256
  6
BYLAYER
  0
ENDSEC
  0
EOF
