  0
SECTION
  2
HEADER
  9
$ACADVER
  1
AC1014
  9
$INSBASE
 10
0.000000
 20
0.000000
 30
0.0
  9
$VIEWCTR
 10
7.531722
 20
4.5
  9
$VIEWSIZE
 40
9.0
  9
$SNAPMODE
 70
     0
  9
$SNAPUNIT
 10
1.0
 20
1.0
  9
$SNAPBASE
 10
0.0
 20
0.0
  9
$SNAPANG
 50
0.0
  9
$SNAPSTYLE
 70
     0
  9
$SNAPISOPAIR
 70
     0
  9
$GRIDMODE
 70
     0
  9
$GRIDUNIT
 10
0.0
 20
0.0
  9
$ORTHOMODE
 70
     0
  9
$REGENMODE
 70
     1
  9
$FILLMODE
 70
     1
  9
$QTEXTMODE
 70
     0
  9
$DRAGMODE
 70
     2
  9
$LTSCALE
  40
     1.000000
  9
$OSMODE
 70
     0
  9
$ATTMODE
 70
     1
  9
$TEXTSIZE
 40
0.2
  9
$TRACEWID
 40
0.05
  9
$TEXTSTYLE
  7
STANDARD
  9
$CELTYPE
  6
BYLAYER
  9
$CECOLOR
 62
   256
  9
$DIMSCALE
 40
1.0
  9
$DIMASZ
 40
0.18
  9
$DIMEXO
 40
0.0625
  9
$DIMDLI
 40
0.38
  9
$DIMRND
 40
0.0
  9
$DIMDLE
 40
0.0
  9
$DIMEXE
 40
0.18
  9
$DIMTP
 40
0.0
  9
$DIMTM
 40
0.0
  9
$DIMTXT
 40
0.18
  9
$DIMCEN
 40
0.09
  9
$DIMTSZ
 40
0.0
  9
$DIMTOL
 70
     0
  9
$DIMLIM
 70
     0
  9
$DIMTIH
 70
     1
  9
$DIMTOH
 70
     1
  9
$DIMSE1
 70
     0
  9
$DIMSE2
 70
     0
  9
$DIMTAD
 70
     0
  9
$DIMZIN
 70
     0
  9
$DIMBLK
  1

  9
$LUNITS
 70
     2
  9
$LUPREC
 70
     4
  9
$AXISMODE
 70
     0
  9
$AXISUNIT
 10
0.0
 20
0.0
  9
$SKETCHINC
 40
0.1
  9
$FILLETRAD
 40
0.0
  9
$AUNITS
 70
     0
  9
$AUPREC
 70
     0
  9
$MENU
  1
ACAD
  9
$ELEVATION
 40
0.0
  9
$THICKNESS
 40
0.0
  9
$VIEWDIR
 10
0.0
 20
0.0
 30
1.0
  9
$LIMCHECK
 70
     0
  9
$BLIPMODE
 70
     1
  9
$CHAMFERA
 40
0.0
  9
$CHAMFERB
 40
0.0
  9
$FASTZOOM
 70
     1
  9
$SKPOLY
 70
     0
  9
$TDCREATE
 40
0000000.0000000000
  9
$TDUPDATE
 40
0000000.0000000000
  9
$TDINDWG
 40
0.0000000000
  9
$TDUSRTIMER
 40
0.0000000000
  9
$USRTIMER
 70
     1
  9
$ANGBASE
 50
0.0
  9
$ANGDIR
 70
     0
  9
$PDMODE
 70
     0
  9
$PDSIZE
 40
0.0
  9
$PLINEWID
 40
0.0
  9
$COORDS
 70
     0
  9
$USERI1
 70
     0
  9
$USERI2
 70
     0
  9
$USERI3
 70
     0
  9
$USERI4
 70
     0
  9
$USERI5
 70
     0
  9
$USERR1
 40
0.0
  9
$USERR2
 40
0.0
  9
$USERR3
 40
0.0
  9
$USERR4
 40
0.0
  9
$USERR5
 40
0.0
  9
$CLAYER
  8
M0
  9
$EXTMIN
 10
10.0
 20
10.0
  9
$EXTMAX
 10
200.0
 20
285.0
  9
$LIMMIN
 10
0.0
 20
0.0
  9
$LIMMAX
 10
210.0
 20
297.0
  9
$HANDSEED
  5
2C5
  0
ENDSEC
  0
SECTION
  2
CLASSES
  0
ENDSEC
  0
SECTION
  2
TABLES
  0
TABLE
  2
VPORT
  5
8
100
AcDbSymbolTable
 70
     2
  0
VPORT
  5
14
100
AcDbSymbolTableRecord
100
AcDbViewportTableRecord
  2
*ACTIVE
 70
     0
 10
0.0
 20
0.0
 11
1.0
 21
1.0
 12
484.0
 22
297.0
 13
0.0
 23
0.0
 14
1.0
 24
1.0
 15
0.0
 25
0.0
 16
0.0
 26
0.0
 36
1.0
 17
0.0
 27
0.0
 37
0.0
 40
594.0
 41
2.0
 42
50.0
 43
0.0
 44
0.0
 50
0.0
 51
0.0
 71
     0
 72
   100
 73
     1
 74
     1
 75
     0
 76
     0
 77
     0
 78
     0
  0
ENDTAB
  0
TABLE
  2
LTYPE
  5
5
100
AcDbSymbolTable
 70
     5
  0
LTYPE
  5
15
100
AcDbSymbolTableRecord
100
AcDbLinetypeTableRecord
  2
BYBLOCK
 70
     0
  3

 72
    65
 73
     0
 40
0.0
  0
LTYPE
  5
16
100
AcDbSymbolTableRecord
100
AcDbLinetypeTableRecord
  2
BYLAYER
 70
     0
  3

 72
    65
 73
     0
 40
0.0
  0
LTYPE
  5
17
100
AcDbSymbolTableRecord
100
AcDbLinetypeTableRecord
  2
CONTINUOUS
 70
    64
  3
Solid line
 72
    65
 73
     0
 40
0.0
  0
LTYPE
  5
18
100
AcDbSymbolTableRecord
100
AcDbLinetypeTableRecord
  2
DASHED
 70
    64
  3
__ __ __ __ __ __ __ __ __ __ __ __ __ __ __ __
 72
    65
 73
     2
 40
0.75
 49
0.5
 74
     0
 49
-0.25
 74
     0
  0
LTYPE
  5
19
100
AcDbSymbolTableRecord
100
AcDbLinetypeTableRecord
  2
DASHDOT
 70
    64
  3
__ . __ . __ . __ . __ . __ . __ . __ . __ . __
 72
    65
 73
     4
 40
1.0
 49
0.5
 74
     0
 49
-0.25
 74
     0
 49
0.0
 74
     0
 49
-0.25
 74
     0
  0
LTYPE
  5
1A
100
AcDbSymbolTableRecord
100
AcDbLinetypeTableRecord
  2
DIVIDE
 70
    64
  3
____ . . ____ . . ____ . . ____ . . ____ . . __
 72
    65
 73
     6
 40
1.25
 49
0.5
 74
     0
 49
-0.25
 74
     0
 49
0.0
 74
     0
 49
-0.25
 74
     0
 49
0.0
 74
     0
 49
-0.25
 74
     0
  0
LTYPE
  5
1B
100
AcDbSymbolTableRecord
100
AcDbLinetypeTableRecord
  2
DOT
 70
    64
  3
. . . . . . . . . . . . . . . . . . . . . . . .
 72
    65
 73
     2
 40
0.25
 49
0.0
 74
     0
 49
-0.25
 74
     0
  0
ENDTAB
  0
TABLE
  2
LAYER
  5
2
100
AcDbSymbolTable
 70
   102
  0
LAYER
  5
F
100
AcDbSymbolTableRecord
100
AcDbLayerTableRecord
  2
0
 70
     0
 62
     7
  6
CONTINUOUS
  0
LAYER
  5
1C
100
AcDbSymbolTableRecord
100
AcDbLayerTableRecord
  2
DEFPOINTS
 70
     0
 62
     7
  6
CONTINUOUS
  0
LAYER
  5
1D
100
AcDbSymbolTableRecord
100
AcDbLayerTableRecord
  2
M0
 70
     0
 62
     3
  6
CONTINUOUS
  0
LAYER
  5
1E
100
AcDbSymbolTableRecord
100
AcDbLayerTableRecord
  2
M1
 70
     0
 62
     3
  6
CONTINUOUS
  0
LAYER
  5
1F
100
AcDbSymbolTableRecord
100
AcDbLayerTableRecord
  2
DD0
 70
     0
 62
     4
  6
CONTINUOUS
  0
LAYER
  5
20
100
AcDbSymbolTableRecord
100
AcDbLayerTableRecord
  2
DN0
 70
     0
 62
     2
  6
CONTINUOUS
  0
ENDTAB
  0
TABLE
  2
STYLE
  5
3
100
AcDbSymbolTable
 70
     2
  0
STYLE
  5
10
100
AcDbSymbolTableRecord
100
AcDbTextStyleTableRecord
  2
STANDARD
 70
     0
 40
0.0
 41
1.0
 50
0.0
 71
     0
 42
0.2
  3
txt
  4
BIGFONT
  0
ENDTAB
  0
TABLE
  2
VIEW
  5
6
100
AcDbSymbolTable
 70
     0
  0
ENDTAB
  0
TABLE
  2
UCS
  5
7
100
AcDbSymbolTable
 70
     0
  0
ENDTAB
  0
TABLE
  2
APPID
  5
9
100
AcDbSymbolTable
 70
     1
  0
APPID
  5
11
100
AcDbSymbolTableRecord
100
AcDbRegAppTableRecord
  2
ACAD
 70
     0
  0
ENDTAB
  0
TABLE
  2
DIMSTYLE
  5
A
100
AcDbSymbolTable
 70
     2
  0
DIMSTYLE
105
27
100
AcDbSymbolTableRecord
100
AcDbDimStyleTableRecord
  2
STANDARD
 70
     0
  3

  4

  5

  6
_OPEN
  7
_OPEN
 40
1.0
 41
3.0
 42
1.0
 43
8.0
 44
1.0
 45
0.0
 46
0.0
 47
0.0
 48
0.0
140
3.15
141
0.09
142
0.0
143
0.03937
144
1.0
145
0.0
146
1.0
147
0.6
 71
     0
 72
     0
 73
     1
 74
     1
 75
     0
 76
     0
 77
     3
 78
     8
170
     0
171
     2
172
     0
173
     1
174
     0
175
     0
176
     0
177
     0
178
     0
270
     2
271
     2
272
     4
273
     2
274
     2
340
10
275
     0
280
     0
281
     0
282
     0
283
     1
284
     0
285
     0
286
     0
287
     3
288
     0
  0
DIMSTYLE
105
28
100
AcDbSymbolTableRecord
100
AcDbDimStyleTableRecord
  2
LEADSTYL
 70
     0
  3

  4

  5

  6
_OPEN
  7
_OPEN
 40
1.0
 41
3.0
 42
0.0625
 43
0.38
 44
0.18
 45
0.0
 46
0.0
 47
0.0
 48
0.0
140
3.15
141
0.09
142
0.0
143
25.4
144
1.0
145
0.0
146
1.0
147
0.6
 71
     0
 72
     0
 73
     1
 74
     1
 75
     0
 76
     0
 77
     0
 78
     0
170
     0
171
     2
172
     0
173
     1
174
     0
175
     0
176
     0
177
     0
178
     0
270
     2
271
     4
272
     4
273
     2
274
     2
340
10
275
     0
280
     0
281
     0
282
     0
283
     1
284
     0
285
     0
286
     0
287
     3
288
     0
  0
ENDTAB
  0
TABLE
  2
BLOCK_RECORD
  5
1
100
AcDbSymbolTable
 70
    15
  0
BLOCK_RECORD
  5
21
100
AcDbSymbolTableRecord
100
AcDbBlockTableRecord
  2
*MODEL_SPACE
  0
BLOCK_RECORD
  5
24
100
AcDbSymbolTableRecord
100
AcDbBlockTableRecord
  2
*PAPER_SPACE
  0
BLOCK_RECORD
  5
29
100
AcDbSymbolTableRecord
100
AcDbBlockTableRecord
  2
_NONE
  0
BLOCK_RECORD
  5
2D
100
AcDbSymbolTableRecord
100
AcDbBlockTableRecord
  2
_OPEN
  0
BLOCK_RECORD
  5
33
100
AcDbSymbolTableRecord
100
AcDbBlockTableRecord
  2
_CLOSED
  0
BLOCK_RECORD
  5
3A
100
AcDbSymbolTableRecord
100
AcDbBlockTableRecord
  2
_ORIGIN
  0
BLOCK_RECORD
  5
3F
100
AcDbSymbolTableRecord
100
AcDbBlockTableRecord
  2
_DOT
  0
BLOCK_RECORD
  5
47
100
AcDbSymbolTableRecord
100
AcDbBlockTableRecord
  2
_OBLIQUE
  0
BLOCK_RECORD
  5
4B
100
AcDbSymbolTableRecord
100
AcDbBlockTableRecord
  2
DIMS0
  0
BLOCK_RECORD
  5
57
100
AcDbSymbolTableRecord
100
AcDbBlockTableRecord
  2
DIMS1
  0
BLOCK_RECORD
  5
63
100
AcDbSymbolTableRecord
100
AcDbBlockTableRecord
  2
DIMS2
  0
BLOCK_RECORD
  5
6C
100
AcDbSymbolTableRecord
100
AcDbBlockTableRecord
  2
DIMS3
  0
BLOCK_RECORD
  5
78
100
AcDbSymbolTableRecord
100
AcDbBlockTableRecord
  2
DIMS4
  0
BLOCK_RECORD
  5
84
100
AcDbSymbolTableRecord
100
AcDbBlockTableRecord
  2
DIMS5
  0
BLOCK_RECORD
  5
90
100
AcDbSymbolTableRecord
100
AcDbBlockTableRecord
  2
DIMS6
  0
BLOCK_RECORD
  5
9C
100
AcDbSymbolTableRecord
100
AcDbBlockTableRecord
  2
DIMS7
  0
BLOCK_RECORD
  5
A8
100
AcDbSymbolTableRecord
100
AcDbBlockTableRecord
  2
DIMS8
  0
ENDTAB
  0
ENDSEC
  0
SECTION
  2
BLOCKS
  0
BLOCK
  5
22
100
AcDbEntity
  8
0
100
AcDbBlockBegin
  2
*MODEL_SPACE
 70
     0
 10
0.0
 20
0.0
 30
0.0
  3
*MODEL_SPACE
  1

  0
ENDBLK
  5
23
100
AcDbEntity
  8
0
100
AcDbBlockEnd
  0
BLOCK
  5
25
100
AcDbEntity
 67
     1
  8
0
100
AcDbBlockBegin
  2
*PAPER_SPACE
 70
     0
 10
0.0
 20
0.0
 30
0.0
  3
*PAPER_SPACE
  1

  0
ENDBLK
  5
26
100
AcDbEntity
 67
     1
  8
0
100
AcDbBlockEnd
  0
BLOCK
  5
2A
100
AcDbEntity
  8
0
100
AcDbBlockBegin
  2
_NONE
 70
     0
 10
0.0
 20
0.0
  0
CIRCLE
  5
2B
100
AcDbEntity
  8
0
 62
     0
100
AcDbCircle
 10
0.0
 20
0.0
 40
0.25
  0
ENDBLK
  5
2C
100
AcDbEntity
  8
0
100
AcDbBlockEnd
  0
BLOCK
  5
2E
100
AcDbEntity
  8
0
100
AcDbBlockBegin
  2
_OPEN
 70
     0
 10
0.0
 20
0.0
  0
LINE
  5
2F
100
AcDbEntity
  8
0
 62
     0
100
AcDbLine
 10
-0.965926
 20
0.258819
 11
0.0
 21
0.0
  0
LINE
  5
30
100
AcDbEntity
  8
0
 62
     0
100
AcDbLine
 10
0.0
 20
0.0
 11
-0.965926
 21
-0.258819
  0
LINE
  5
31
100
AcDbEntity
  8
0
 62
     0
100
AcDbLine
 10
0.0
 20
0.0
 11
-1.0
 21
0.0
  0
ENDBLK
  5
32
100
AcDbEntity
  8
0
100
AcDbBlockEnd
  0
BLOCK
  5
34
100
AcDbEntity
  8
0
100
AcDbBlockBegin
  2
_CLOSED
 70
     0
 10
0.0
 20
0.0
  0
LINE
  5
35
100
AcDbEntity
  8
0
 62
     0
100
AcDbLine
 10
-0.965926
 20
0.258819
 11
0.0
 21
0.0
  0
LINE
  5
36
100
AcDbEntity
  8
0
 62
     0
100
AcDbLine
 10
0.0
 20
0.0
 11
-0.965926
 21
-0.258819
  0
LINE
  5
37
100
AcDbEntity
  8
0
 62
     0
100
AcDbLine
 10
-0.965926
 20
0.258819
 11
-0.965926
 21
-0.258819
  0
LINE
  5
38
100
AcDbEntity
  8
0
 62
     0
100
AcDbLine
 10
0.0
 20
0.0
 11
-1.0
 21
0.0
  0
ENDBLK
  5
39
100
AcDbEntity
  8
0
100
AcDbBlockEnd
  0
BLOCK
  5
3B
100
AcDbEntity
  8
0
100
AcDbBlockBegin
  2
_ORIGIN
 70
     0
 10
0.0
 20
0.0
  0
CIRCLE
  5
3C
100
AcDbEntity
  8
0
 62
     0
100
AcDbCircle
 10
0.0
 20
0.0
 40
0.5
  0
LINE
  5
3D
100
AcDbEntity
  8
0
 62
     0
100
AcDbLine
 10
0.0
 20
0.0
 11
-1.0
 21
0.0
  0
ENDBLK
  5
3E
100
AcDbEntity
  8
0
100
AcDbBlockEnd
  0
BLOCK
  5
40
100
AcDbEntity
  8
0
100
AcDbBlockBegin
  2
_DOT
 70
     0
 10
0.0
 20
0.0
  0
POLYLINE
  5
41
100
AcDbEntity
  8
0
 62
     0
100
AcDb2dPolyline
 66
     1
 70
     1
 40
0.5
 41
0.5
  0
VERTEX
  5
42
100
AcDbEntity
  8
0
 62
     0
100
AcDbVertex
100
AcDb2dVertex
 10
-0.25
 20
0.0
 42
1.0
  0
VERTEX
  5
43
100
AcDbEntity
  8
0
 62
     0
100
AcDbVertex
100
AcDb2dVertex
 10
0.25
 20
0.0
 42
1.0
  0
SEQEND
  5
44
100
AcDbEntity
  8
0
 62
     0
  0
LINE
  5
45
100
AcDbEntity
  8
0
 62
     0
100
AcDbLine
 10
-0.5
 20
0.0
 11
-1.0
 21
0.0
  0
ENDBLK
  5
46
100
AcDbEntity
  8
0
100
AcDbBlockEnd
  0
BLOCK
  5
48
100
AcDbEntity
  8
0
100
AcDbBlockBegin
  2
_OBLIQUE
 70
     0
 10
0.0
 20
0.0
  0
LINE
  5
49
100
AcDbEntity
  8
0
 62
     0
100
AcDbLine
 10
-0.353553
 20
-0.353553
 11
0.353553
 21
0.353553
  0
ENDBLK
  5
4A
100
AcDbEntity
  8
0
100
AcDbBlockEnd
  0
BLOCK
  5
4C
100
AcDbEntity
  8
DD0
100
AcDbBlockBegin
  2
DIMS0
 70
     0
 10
0.0
 20
0.0
  0
LINE
  5
4D
100
AcDbEntity
  8
DD0
100
AcDbLine
 10
44.194489
 20
152.608063
 11
24.03059
 21
152.608063
  0
LINE
  5
4E
100
AcDbEntity
  8
DD0
 60
     1
100
AcDbLine
 10
29.944382
 20
150.608032
 11
24.03059
 21
150.608032
  0
LINE
  5
4F
100
AcDbEntity
  8
DD0
100
AcDbLine
 10
24.254133
 20
155.50584
 11
25.03059
 21
152.608063
  0
LINE
  5
50
100
AcDbEntity
  8
DD0
100
AcDbLine
 10
25.03059
 20
152.608063
 11
25.807047
 21
155.50584
  0
LINE
  5
51
100
AcDbEntity
  8
DD0
100
AcDbLine
 10
25.807047
 20
147.710255
 11
25.03059
 21
150.608032
  0
LINE
  5
52
100
AcDbEntity
  8
DD0
100
AcDbLine
 10
25.03059
 20
150.608032
 11
24.254133
 21
147.710255
  0
LINE
  5
53
100
AcDbEntity
  8
DD0
100
AcDbLine
 10
25.03059
 20
160.058063
 11
25.03059
 21
147.308032
  0
TEXT
  5
54
100
AcDbEntity
  8
DD0
100
AcDbText
 10
24.43059
 20
156.165567
 40
3.15
  1
２
 50
90.000003
 41
0.833333
  7
STANDARD
100
AcDbText
  0
ENDBLK
  5
55
100
AcDbEntity
  8
DD0
100
AcDbBlockEnd
  0
BLOCK
  5
58
100
AcDbEntity
  8
DD0
100
AcDbBlockBegin
  2
DIMS1
 70
     0
 10
0.0
 20
0.0
  0
LINE
  5
59
100
AcDbEntity
  8
DD0
100
AcDbLine
 10
29.944382
 20
150.608032
 11
24.03059
 21
150.608032
  0
LINE
  5
5A
100
AcDbEntity
  8
DD0
100
AcDbLine
 10
29.936872
 20
122.108154
 11
24.03059
 21
122.108154
  0
LINE
  5
5B
100
AcDbEntity
  8
DD0
100
AcDbLine
 10
25.807047
 20
147.710255
 11
25.03059
 21
150.608032
  0
LINE
  5
5C
100
AcDbEntity
  8
DD0
100
AcDbLine
 10
25.03059
 20
150.608032
 11
24.254133
 21
147.710255
  0
LINE
  5
5D
100
AcDbEntity
  8
DD0
100
AcDbLine
 10
24.254133
 20
125.005932
 11
25.03059
 21
122.108154
  0
LINE
  5
5E
100
AcDbEntity
  8
DD0
100
AcDbLine
 10
25.03059
 20
122.108154
 11
25.807047
 21
125.005932
  0
LINE
  5
5F
100
AcDbEntity
  8
DD0
100
AcDbLine
 10
25.03059
 20
150.608032
 11
25.03059
 21
122.108154
  0
TEXT
  5
60
100
AcDbEntity
  8
DD0
100
AcDbText
 10
24.43059
 20
130.315591
 40
3.15
  1
２８．５
 50
90.000003
 41
0.833333
  7
STANDARD
100
AcDbText
  0
ENDBLK
  5
61
100
AcDbEntity
  8
DD0
100
AcDbBlockEnd
  0
BLOCK
  5
64
100
AcDbEntity
  8
DD0
100
AcDbBlockBegin
  2
DIMS2
 70
     0
 10
0.0
 20
0.0
  0
TEXT
  5
65
100
AcDbEntity
  8
DD0
100
AcDbText
 10
25.403518
 20
104.950989
 40
3.15
  1
２－Ｍ４ねじ穴
 41
0.833333
  7
STANDARD
100
AcDbText
  0
LINE
  5
66
100
AcDbEntity
  8
DD0
100
AcDbLine
 10
43.831574
 20
118.476606
 11
42.003105
 21
120.854988
  0
LINE
  5
67
100
AcDbEntity
  8
DD0
100
AcDbLine
 10
42.003105
 20
120.854988
 11
42.397414
 21
117.881014
  0
LINE
  5
68
100
AcDbEntity
  8
DD0
100
AcDbLine
 10
42.003105
 20
120.854988
 11
48.857063
 21
104.350945
  0
LINE
  5
69
100
AcDbEntity
  8
DD0
100
AcDbLine
 10
48.857063
 20
104.350945
 11
24.146004
 21
104.351051
  0
ENDBLK
  5
6A
100
AcDbEntity
  8
DD0
100
AcDbBlockEnd
  0
BLOCK
  5
6D
100
AcDbEntity
  8
DD0
100
AcDbBlockBegin
  2
DIMS3
 70
     0
 10
0.0
 20
0.0
  0
LINE
  5
6E
100
AcDbEntity
  8
DD0
100
AcDbLine
 10
84.944138
 20
225.710815
 11
102.058952
 21
225.710815
  0
LINE
  5
6F
100
AcDbEntity
  8
DD0
100
AcDbLine
 10
82.444069
 20
183.210815
 11
102.058952
 21
183.210815
  0
LINE
  5
70
100
AcDbEntity
  8
DD0
100
AcDbLine
 10
101.835409
 20
222.813038
 11
101.058952
 21
225.710815
  0
LINE
  5
71
100
AcDbEntity
  8
DD0
100
AcDbLine
 10
101.058952
 20
225.710815
 11
100.282495
 21
222.813038
  0
LINE
  5
72
100
AcDbEntity
  8
DD0
100
AcDbLine
 10
100.282495
 20
186.108593
 11
101.058952
 21
183.210815
  0
LINE
  5
73
100
AcDbEntity
  8
DD0
100
AcDbLine
 10
101.058952
 20
183.210815
 11
101.835409
 21
186.108593
  0
LINE
  5
74
100
AcDbEntity
  8
DD0
100
AcDbLine
 10
101.058952
 20
225.710815
 11
101.058952
 21
183.210815
  0
TEXT
  5
75
100
AcDbEntity
  8
DD0
100
AcDbText
 10
100.458954
 20
198.418314
 40
3.15
  1
４２．５
 50
90.000003
 41
0.833333
  7
STANDARD
100
AcDbText
  0
ENDBLK
  5
76
100
AcDbEntity
  8
DD0
100
AcDbBlockEnd
  0
BLOCK
  5
79
100
AcDbEntity
  8
DD0
100
AcDbBlockBegin
  2
DIMS4
 70
     0
 10
0.0
 20
0.0
  0
LINE
  5
7A
100
AcDbEntity
  8
DD0
100
AcDbLine
 10
30.944151
 20
227.01059
 11
30.944151
 21
236.863739
  0
LINE
  5
7B
100
AcDbEntity
  8
DD0
100
AcDbLine
 10
93.444138
 20
228.710785
 11
93.444138
 21
236.863739
  0
LINE
  5
7C
100
AcDbEntity
  8
DD0
100
AcDbLine
 10
33.841928
 20
236.640196
 11
30.944151
 21
235.863739
  0
LINE
  5
7D
100
AcDbEntity
  8
DD0
100
AcDbLine
 10
30.944151
 20
235.863739
 11
33.841928
 21
235.087282
  0
LINE
  5
7E
100
AcDbEntity
  8
DD0
100
AcDbLine
 10
90.54636
 20
235.087282
 11
93.444138
 21
235.863739
  0
LINE
  5
7F
100
AcDbEntity
  8
DD0
100
AcDbLine
 10
93.444138
 20
235.863739
 11
90.54636
 21
236.640196
  0
LINE
  5
80
100
AcDbEntity
  8
DD0
100
AcDbLine
 10
30.944151
 20
235.863739
 11
93.444138
 21
235.863739
  0
TEXT
  5
81
100
AcDbEntity
  8
DD0
100
AcDbText
 10
56.151647
 20
236.463745
 40
3.15
  1
６２．５
 41
0.833333
  7
STANDARD
100
AcDbText
  0
ENDBLK
  5
82
100
AcDbEntity
  8
DD0
100
AcDbBlockEnd
  0
BLOCK
  5
85
100
AcDbEntity
  8
DD0
100
AcDbBlockBegin
  2
DIMS5
 70
     0
 10
0.0
 20
0.0
  0
LINE
  5
86
100
AcDbEntity
  8
DD0
100
AcDbLine
 10
191.250824
 20
225.710907
 11
191.250824
 21
236.863739
  0
LINE
  5
87
100
AcDbEntity
  8
DD0
100
AcDbLine
 10
117.751259
 20
226.711838
 11
117.751259
 21
236.863739
  0
LINE
  5
88
100
AcDbEntity
  8
DD0
100
AcDbLine
 10
188.353047
 20
235.087282
 11
191.250824
 21
235.863739
  0
LINE
  5
89
100
AcDbEntity
  8
DD0
100
AcDbLine
 10
191.250824
 20
235.863739
 11
188.353047
 21
236.640196
  0
LINE
  5
8A
100
AcDbEntity
  8
DD0
100
AcDbLine
 10
120.649036
 20
236.640196
 11
117.751259
 21
235.863739
  0
LINE
  5
8B
100
AcDbEntity
  8
DD0
100
AcDbLine
 10
117.751259
 20
235.863739
 11
120.649036
 21
235.087282
  0
LINE
  5
8C
100
AcDbEntity
  8
DD0
100
AcDbLine
 10
191.250824
 20
235.863739
 11
117.751259
 21
235.863739
  0
TEXT
  5
8D
100
AcDbEntity
  8
DD0
100
AcDbText
 10
151.608545
 20
236.463745
 40
3.15
  1
７５
 41
0.833333
  7
STANDARD
100
AcDbText
  0
ENDBLK
  5
8E
100
AcDbEntity
  8
DD0
100
AcDbBlockEnd
  0
BLOCK
  5
91
100
AcDbEntity
  8
DD0
100
AcDbBlockBegin
  2
DIMS6
 70
     0
 10
0.0
 20
0.0
  0
LINE
  5
92
100
AcDbEntity
  8
DD0
100
AcDbLine
 10
191.250381
 20
188.71077
 11
191.250381
 21
171.706055
  0
LINE
  5
93
100
AcDbEntity
  8
DD0
100
AcDbLine
 10
184.250137
 20
188.710846
 11
184.250137
 21
171.706055
  0
LINE
  5
94
100
AcDbEntity
  8
DD0
100
AcDbLine
 10
194.148159
 20
173.482512
 11
191.250381
 21
172.706055
  0
LINE
  5
95
100
AcDbEntity
  8
DD0
100
AcDbLine
 10
191.250381
 20
172.706055
 11
194.148159
 21
171.929598
  0
LINE
  5
96
100
AcDbEntity
  8
DD0
100
AcDbLine
 10
181.35236
 20
171.929598
 11
184.250137
 21
172.706055
  0
LINE
  5
97
100
AcDbEntity
  8
DD0
100
AcDbLine
 10
184.250137
 20
172.706055
 11
181.35236
 21
173.482512
  0
LINE
  5
98
100
AcDbEntity
  8
DD0
100
AcDbLine
 10
194.550381
 20
172.706055
 11
161.050138
 21
172.706055
  0
TEXT
  5
99
100
AcDbEntity
  8
DD0
100
AcDbText
 10
161.857645
 20
173.306061
 40
3.15
  1
７（取付足）
 41
0.833333
  7
STANDARD
100
AcDbText
  0
ENDBLK
  5
9A
100
AcDbEntity
  8
DD0
100
AcDbBlockEnd
  0
BLOCK
  5
9D
100
AcDbEntity
  8
DD0
100
AcDbBlockBegin
  2
DIMS7
 70
     0
 10
0.0
 20
0.0
  0
LINE
  5
9E
100
AcDbEntity
  8
DD0
100
AcDbLine
 10
93.444153
 20
151.608154
 11
93.444153
 21
160.38974
  0
LINE
  5
9F
100
AcDbEntity
  8
DD0
100
AcDbLine
 10
65.444397
 20
132.615677
 11
65.444397
 21
160.38974
  0
LINE
  5
A0
100
AcDbEntity
  8
DD0
100
AcDbLine
 10
90.546375
 20
158.613283
 11
93.444153
 21
159.38974
  0
LINE
  5
A1
100
AcDbEntity
  8
DD0
100
AcDbLine
 10
93.444153
 20
159.38974
 11
90.546375
 21
160.166197
  0
LINE
  5
A2
100
AcDbEntity
  8
DD0
100
AcDbLine
 10
68.342174
 20
160.166197
 11
65.444397
 21
159.38974
  0
LINE
  5
A3
100
AcDbEntity
  8
DD0
100
AcDbLine
 10
65.444397
 20
159.38974
 11
68.342174
 21
158.613283
  0
LINE
  5
A4
100
AcDbEntity
  8
DD0
100
AcDbLine
 10
93.444153
 20
159.38974
 11
65.444397
 21
159.38974
  0
TEXT
  5
A5
100
AcDbEntity
  8
DD0
100
AcDbText
 10
76.551775
 20
159.989746
 40
3.15
  1
２８
 41
0.833333
  7
STANDARD
100
AcDbText
  0
ENDBLK
  5
A6
100
AcDbEntity
  8
DD0
100
AcDbBlockEnd
  0
BLOCK
  5
A9
100
AcDbEntity
  8
DD0
100
AcDbBlockBegin
  2
DIMS8
 70
     0
 10
0.0
 20
0.0
  0
LINE
  5
AA
100
AcDbEntity
  8
DD0
 60
     1
100
AcDbLine
 10
65.444397
 20
132.615677
 11
65.444397
 21
160.38974
  0
LINE
  5
AB
100
AcDbEntity
  8
DD0
100
AcDbLine
 10
40.444397
 20
132.615677
 11
40.444397
 21
160.38974
  0
LINE
  5
AC
100
AcDbEntity
  8
DD0
100
AcDbLine
 10
62.546619
 20
158.613283
 11
65.444397
 21
159.38974
  0
LINE
  5
AD
100
AcDbEntity
  8
DD0
100
AcDbLine
 10
65.444397
 20
159.38974
 11
62.546619
 21
160.166197
  0
LINE
  5
AE
100
AcDbEntity
  8
DD0
100
AcDbLine
 10
43.342174
 20
160.166197
 11
40.444397
 21
159.38974
  0
LINE
  5
AF
100
AcDbEntity
  8
DD0
100
AcDbLine
 10
40.444397
 20
159.38974
 11
43.342174
 21
158.613283
  0
LINE
  5
B0
100
AcDbEntity
  8
DD0
100
AcDbLine
 10
65.444397
 20
159.38974
 11
40.444397
 21
159.38974
  0
TEXT
  5
B1
100
AcDbEntity
  8
DD0
100
AcDbText
 10
50.051897
 20
159.989746
 40
3.15
  1
２５
 41
0.833333
  7
STANDARD
100
AcDbText
  0
ENDBLK
  5
B2
100
AcDbEntity
  8
DD0
100
AcDbBlockEnd
  0
ENDSEC
  0
SECTION
  2
ENTITIES
  0
INSERT
  5
56
100
AcDbEntity
  8
DD0
100
AcDbBlockReference
  2
DIMS0
 10
0.0
 20
0.0
  0
INSERT
  5
62
100
AcDbEntity
  8
DD0
100
AcDbBlockReference
  2
DIMS1
 10
0.0
 20
0.0
  0
INSERT
  5
6B
100
AcDbEntity
  8
DD0
100
AcDbBlockReference
  2
DIMS2
 10
0.0
 20
0.0
  0
INSERT
  5
77
100
AcDbEntity
  8
DD0
100
AcDbBlockReference
  2
DIMS3
 10
0.0
 20
0.0
  0
INSERT
  5
83
100
AcDbEntity
  8
DD0
100
AcDbBlockReference
  2
DIMS4
 10
0.0
 20
0.0
  0
INSERT
  5
8F
100
AcDbEntity
  8
DD0
100
AcDbBlockReference
  2
DIMS5
 10
0.0
 20
0.0
  0
INSERT
  5
9B
100
AcDbEntity
  8
DD0
100
AcDbBlockReference
  2
DIMS6
 10
0.0
 20
0.0
  0
INSERT
  5
A7
100
AcDbEntity
  8
DD0
100
AcDbBlockReference
  2
DIMS7
 10
0.0
 20
0.0
  0
INSERT
  5
B3
100
AcDbEntity
  8
DD0
100
AcDbBlockReference
  2
DIMS8
 10
0.0
 20
0.0
  0
LINE
  5
B4
100
AcDbEntity
  8
M0
100
AcDbLine
 10
78.671555
 20
223.323562
 11
80.671555
 21
223.323562
  0
LINE
  5
B5
100
AcDbEntity
  8
M0
  6
DASHDOT
100
AcDbLine
 10
56.444366
 20
150.858078
 11
56.444366
 21
150.608093
  0
LINE
  5
B6
100
AcDbEntity
  8
M0
  6
DASHDOT
100
AcDbLine
 10
58.944366
 20
150.858093
 11
58.944366
 21
150.608139
  0
LINE
  5
B7
100
AcDbEntity
  8
M0
  6
DASHDOT
100
AcDbLine
 10
65.444396
 20
116.608155
 11
65.444381
 21
126.608155
  0
LINE
  5
B8
100
AcDbEntity
  8
M0
  6
DASHDOT
100
AcDbLine
 10
40.444396
 20
116.608155
 11
40.444381
 21
126.608155
  0
LINE
  5
B9
100
AcDbEntity
  8
M0
  6
DASHDOT
100
AcDbLine
 10
93.444381
 20
108.10817
 11
93.444152
 21
150.608155
  0
LINE
  5
BA
100
AcDbEntity
  8
M0
  6
DASHDOT
100
AcDbLine
 10
93.444152
 20
150.608155
 11
83.944396
 21
150.608139
  0
LINE
  5
BB
100
AcDbEntity
  8
M0
  6
DASHDOT
100
AcDbLine
 10
83.944396
 20
150.608078
 11
58.919097
 21
150.608063
  0
LINE
  5
BC
100
AcDbEntity
  8
M0
  6
DASHDOT
100
AcDbLine
 10
43.96965
 20
150.608063
 11
30.944381
 21
150.608032
  0
LINE
  5
BD
100
AcDbEntity
  8
M0
  6
DASHDOT
100
AcDbLine
 10
56.469619
 20
150.608063
 11
46.419128
 21
150.608063
  0
LINE
  5
BE
100
AcDbEntity
  8
M0
  6
DIVIDE
100
AcDbLine
 10
69.444457
 20
115.408051
 11
69.444457
 21
108.10817
  0
LINE
  5
BF
100
AcDbEntity
  8
M0
  6
DIVIDE
100
AcDbLine
 10
30.944457
 20
150.608048
 11
30.944457
 21
115.408066
  0
LINE
  5
C0
100
AcDbEntity
  8
M0
  6
DIVIDE
100
AcDbLine
 10
43.944503
 20
151.358063
 11
43.944503
 21
150.608048
  0
LINE
  5
C1
100
AcDbEntity
  8
M0
  6
DIVIDE
100
AcDbLine
 10
46.444488
 20
151.358063
 11
46.444488
 21
150.608048
  0
LINE
  5
C2
100
AcDbEntity
  8
M0
  6
DIVIDE
100
AcDbLine
 10
56.444503
 20
151.358063
 11
56.444503
 21
150.608048
  0
LINE
  5
C3
100
AcDbEntity
  8
M0
  6
DIVIDE
100
AcDbLine
 10
58.944488
 20
151.358063
 11
58.944488
 21
150.608063
  0
LINE
  5
C4
100
AcDbEntity
  8
M0
  6
DIVIDE
100
AcDbLine
 10
93.444381
 20
108.10817
 11
69.444457
 21
108.10817
  0
LINE
  5
C5
100
AcDbEntity
  8
M0
  6
DIVIDE
100
AcDbLine
 10
69.444457
 20
115.408066
 11
30.944457
 21
115.408066
  0
ARC
  5
C6
100
AcDbEntity
  8
M0
  6
DIVIDE
100
AcDbCircle
 10
57.694488
 20
151.358063
 40
1.25
100
AcDbArc
 50
0.0
 51
90.0
  0
ARC
  5
C7
100
AcDbEntity
  8
M0
  6
DIVIDE
100
AcDbCircle
 10
57.694503
 20
151.358063
 40
1.25
100
AcDbArc
 50
90.0
 51
179.999964
  0
ARC
  5
C8
100
AcDbEntity
  8
M0
  6
DIVIDE
100
AcDbCircle
 10
45.194488
 20
151.358063
 40
1.25
100
AcDbArc
 50
0.0
 51
90.0
  0
ARC
  5
C9
100
AcDbEntity
  8
M0
  6
DIVIDE
100
AcDbCircle
 10
45.194503
 20
151.358063
 40
1.25
100
AcDbArc
 50
90.0
 51
179.999964
  0
CIRCLE
  5
CA
100
AcDbEntity
  8
M0
100
AcDbCircle
 10
65.444396
 20
122.108154
 40
2.0
  0
LINE
  5
CB
100
AcDbEntity
  8
M0
  6
DASHDOT
100
AcDbLine
 10
55.936872
 20
122.108154
 11
74.951922
 21
122.108154
  0
LINE
  5
CC
100
AcDbEntity
  8
M0
  6
DASHDOT
100
AcDbLine
 10
65.444396
 20
112.600629
 11
65.444396
 21
131.615679
  0
CIRCLE
  5
CD
100
AcDbEntity
  8
M0
100
AcDbCircle
 10
40.444396
 20
122.108154
 40
2.0
  0
LINE
  5
CE
100
AcDbEntity
  8
M0
  6
DASHDOT
100
AcDbLine
 10
30.936872
 20
122.108154
 11
49.951922
 21
122.108154
  0
LINE
  5
CF
100
AcDbEntity
  8
M0
  6
DASHDOT
100
AcDbLine
 10
40.444396
 20
112.600629
 11
40.444396
 21
131.615679
  0
CIRCLE
  5
D0
100
AcDbEntity
  8
M0
100
AcDbCircle
 10
40.444396
 20
122.108139
 40
1.499998
  0
CIRCLE
  5
D1
100
AcDbEntity
  8
M0
100
AcDbCircle
 10
65.444396
 20
122.108139
 40
1.499998
  0
LINE
  5
D2
100
AcDbEntity
  8
M0
 62
     2
100
AcDbLine
 10
37.982102
 20
203.171874
 11
39.82695
 21
201.327041
  0
LINE
  5
D3
100
AcDbEntity
  8
M0
 62
     2
100
AcDbLine
 10
39.953827
 20
203.928985
 11
37.378754
 21
201.353911
  0
LINE
  5
D4
100
AcDbEntity
  8
M0
 62
     2
100
AcDbLine
 10
40.660935
 20
203.221877
 11
38.085861
 21
200.646804
  0
LINE
  5
D5
100
AcDbEntity
  8
M0
 62
     2
100
AcDbLine
 10
43.042969
 20
198.41101
 11
43.042969
 21
206.010985
  0
LINE
  5
D6
100
AcDbEntity
  8
M0
 62
     2
100
AcDbLine
 10
34.842972
 20
206.011001
 11
34.842972
 21
198.411025
  0
CIRCLE
  5
D7
100
AcDbEntity
  8
M0
 62
     2
100
AcDbCircle
 10
38.942978
 20
202.211028
 40
3.499993
  0
ARC
  5
D8
100
AcDbEntity
  8
M0
 62
     2
100
AcDbCircle
 10
42.042969
 20
198.411025
 40
1.0
100
AcDbArc
 50
270.0
 51
360.0
  0
ARC
  5
D9
100
AcDbEntity
  8
M0
 62
     2
100
AcDbCircle
 10
42.042969
 20
206.010833
 40
1.0
100
AcDbArc
 50
0.0
 51
90.0
  0
ARC
  5
DA
100
AcDbEntity
  8
M0
 62
     2
100
AcDbCircle
 10
35.842972
 20
206.010833
 40
1.0
100
AcDbArc
 50
90.0
 51
180.0
  0
ARC
  5
DB
100
AcDbEntity
  8
M0
 62
     2
100
AcDbCircle
 10
35.842972
 20
198.411025
 40
1.0
100
AcDbArc
 50
179.999945
 51
270.0
  0
LINE
  5
DC
100
AcDbEntity
  8
M0
  6
DASHDOT
 62
     2
100
AcDbLine
 10
44.602402
 20
202.211028
 11
33.283539
 21
202.211028
  0
LINE
  5
DD
100
AcDbEntity
  8
M0
  6
DASHDOT
 62
     2
100
AcDbLine
 10
38.942963
 20
207.870452
 11
38.942978
 21
196.551589
  0
LINE
  5
DE
100
AcDbEntity
  8
M0
 62
     2
100
AcDbLine
 10
35.842972
 20
207.011016
 11
42.042969
 21
207.011016
  0
ARC
  5
DF
100
AcDbEntity
  8
M0
 62
     2
100
AcDbCircle
 10
35.842972
 20
212.911178
 40
1.0
100
AcDbArc
 50
180.0
 51
270.0
  0
LINE
  5
E0
100
AcDbEntity
  8
M0
 62
     2
100
AcDbLine
 10
34.842972
 20
212.91101
 11
34.842972
 21
220.510985
  0
ARC
  5
E1
100
AcDbEntity
  8
M0
 62
     2
100
AcDbCircle
 10
35.842972
 20
220.510985
 40
1.0
100
AcDbArc
 50
90.0
 51
180.0
  0
LINE
  5
E2
100
AcDbEntity
  8
M0
 62
     2
100
AcDbLine
 10
35.842972
 20
221.510985
 11
42.042969
 21
221.510985
  0
ARC
  5
E3
100
AcDbEntity
  8
M0
 62
     2
100
AcDbCircle
 10
42.042969
 20
220.510985
 40
1.0
100
AcDbArc
 50
0.0
 51
90.0
  0
LINE
  5
E4
100
AcDbEntity
  8
M0
 62
     2
100
AcDbLine
 10
43.042969
 20
220.511001
 11
43.042969
 21
212.911025
  0
ARC
  5
E5
100
AcDbEntity
  8
M0
 62
     2
100
AcDbCircle
 10
42.042969
 20
212.911178
 40
1.0
100
AcDbArc
 50
-90.0
 51
0.0
  0
LINE
  5
E6
100
AcDbEntity
  8
M0
 62
     2
100
AcDbLine
 10
35.842972
 20
211.910995
 11
42.042969
 21
211.910995
  0
ARC
  5
E7
100
AcDbEntity
  8
M0
 62
     2
100
AcDbCircle
 10
67.042893
 20
220.51097
 40
1.0
100
AcDbArc
 50
0.0
 51
90.0
  0
LINE
  5
E8
100
AcDbEntity
  8
M0
 62
     2
100
AcDbLine
 10
68.042893
 20
212.910979
 11
68.042893
 21
220.510955
  0
ARC
  5
E9
100
AcDbEntity
  8
M0
 62
     2
100
AcDbCircle
 10
67.042893
 20
212.911162
 40
1.0
100
AcDbArc
 50
269.999126
 51
360.0
  0
LINE
  5
EA
100
AcDbEntity
  8
M0
 62
     2
100
AcDbLine
 10
67.042893
 20
211.910979
 11
60.842896
 21
211.910979
  0
ARC
  5
EB
100
AcDbEntity
  8
M0
 62
     2
100
AcDbCircle
 10
60.842896
 20
212.911162
 40
1.0
100
AcDbArc
 50
180.0
 51
269.999126
  0
LINE
  5
EC
100
AcDbEntity
  8
M0
 62
     2
100
AcDbLine
 10
59.842896
 20
220.510985
 11
59.842896
 21
212.91101
  0
ARC
  5
ED
100
AcDbEntity
  8
M0
 62
     2
100
AcDbCircle
 10
60.842896
 20
220.51097
 40
1.0
100
AcDbArc
 50
90.0
 51
180.0
  0
LINE
  5
EE
100
AcDbEntity
  8
M0
 62
     2
100
AcDbLine
 10
67.042893
 20
221.51097
 11
60.842896
 21
221.51097
  0
LINE
  5
EF
100
AcDbEntity
  8
M0
 62
     2
100
AcDbLine
 10
50.482102
 20
203.171874
 11
52.32695
 21
201.327041
  0
LINE
  5
F0
100
AcDbEntity
  8
M0
 62
     2
100
AcDbLine
 10
52.453827
 20
203.928985
 11
49.878754
 21
201.353911
  0
LINE
  5
F1
100
AcDbEntity
  8
M0
 62
     2
100
AcDbLine
 10
53.160935
 20
203.221877
 11
50.585861
 21
200.646804
  0
LINE
  5
F2
100
AcDbEntity
  8
M0
 62
     2
100
AcDbLine
 10
48.342972
 20
197.411025
 11
54.542969
 21
197.411025
  0
LINE
  5
F3
100
AcDbEntity
  8
M0
 62
     2
100
AcDbLine
 10
55.542969
 20
198.41101
 11
55.542969
 21
206.010985
  0
LINE
  5
F4
100
AcDbEntity
  8
M0
 62
     2
100
AcDbLine
 10
47.342972
 20
206.011001
 11
47.342972
 21
198.411025
  0
CIRCLE
  5
F5
100
AcDbEntity
  8
M0
 62
     2
100
AcDbCircle
 10
51.442978
 20
202.211028
 40
3.499993
  0
ARC
  5
F6
100
AcDbEntity
  8
M0
 62
     2
100
AcDbCircle
 10
54.542969
 20
198.411025
 40
1.0
100
AcDbArc
 50
270.0
 51
360.0
  0
ARC
  5
F7
100
AcDbEntity
  8
M0
 62
     2
100
AcDbCircle
 10
54.542969
 20
206.010833
 40
1.0
100
AcDbArc
 50
0.0
 51
90.0
  0
ARC
  5
F8
100
AcDbEntity
  8
M0
 62
     2
100
AcDbCircle
 10
48.342972
 20
206.010833
 40
1.0
100
AcDbArc
 50
90.0
 51
180.0
  0
ARC
  5
F9
100
AcDbEntity
  8
M0
 62
     2
100
AcDbCircle
 10
48.342972
 20
198.411025
 40
1.0
100
AcDbArc
 50
179.999945
 51
270.0
  0
LINE
  5
FA
100
AcDbEntity
  8
M0
  6
DASHDOT
 62
     2
100
AcDbLine
 10
57.102402
 20
202.211028
 11
45.783539
 21
202.211028
  0
LINE
  5
FB
100
AcDbEntity
  8
M0
  6
DASHDOT
 62
     2
100
AcDbLine
 10
51.442963
 20
207.870452
 11
51.442978
 21
196.551589
  0
LINE
  5
FC
100
AcDbEntity
  8
M0
 62
     2
100
AcDbLine
 10
48.342972
 20
207.011016
 11
54.542969
 21
207.011016
  0
ARC
  5
FD
100
AcDbEntity
  8
M0
 62
     2
100
AcDbCircle
 10
48.342972
 20
212.911178
 40
1.0
100
AcDbArc
 50
180.0
 51
270.0
  0
LINE
  5
FE
100
AcDbEntity
  8
M0
 62
     2
100
AcDbLine
 10
47.342972
 20
212.91101
 11
47.342972
 21
220.510985
  0
ARC
  5
FF
100
AcDbEntity
  8
M0
 62
     2
100
AcDbCircle
 10
48.342972
 20
220.510985
 40
1.0
100
AcDbArc
 50
90.0
 51
180.0
  0
LINE
  5
100
100
AcDbEntity
  8
M0
 62
     2
100
AcDbLine
 10
48.342972
 20
221.510985
 11
54.542969
 21
221.510985
  0
ARC
  5
101
100
AcDbEntity
  8
M0
 62
     2
100
AcDbCircle
 10
54.542969
 20
220.510985
 40
1.0
100
AcDbArc
 50
0.0
 51
90.0
  0
LINE
  5
102
100
AcDbEntity
  8
M0
 62
     2
100
AcDbLine
 10
55.542969
 20
220.511001
 11
55.542969
 21
212.911025
  0
ARC
  5
103
100
AcDbEntity
  8
M0
 62
     2
100
AcDbCircle
 10
54.542969
 20
212.911178
 40
1.0
100
AcDbArc
 50
-90.0
 51
0.0
  0
LINE
  5
104
100
AcDbEntity
  8
M0
 62
     2
100
AcDbLine
 10
48.342972
 20
211.910995
 11
54.542969
 21
211.910995
  0
LINE
  5
105
100
AcDbEntity
  8
M0
 62
     2
100
AcDbLine
 10
37.982102
 20
217.671874
 11
39.82695
 21
215.827041
  0
LINE
  5
106
100
AcDbEntity
  8
M0
 62
     2
100
AcDbLine
 10
39.953827
 20
218.428985
 11
37.378754
 21
215.853911
  0
LINE
  5
107
100
AcDbEntity
  8
M0
 62
     2
100
AcDbLine
 10
40.660935
 20
217.721877
 11
38.085861
 21
215.146804
  0
CIRCLE
  5
108
100
AcDbEntity
  8
M0
 62
     2
100
AcDbCircle
 10
38.942978
 20
216.711028
 40
3.499993
  0
LINE
  5
109
100
AcDbEntity
  8
M0
  6
DASHDOT
 62
     2
100
AcDbLine
 10
44.602402
 20
216.711028
 11
33.283539
 21
216.711028
  0
LINE
  5
10A
100
AcDbEntity
  8
M0
  6
DASHDOT
 62
     2
100
AcDbLine
 10
38.942963
 20
222.370452
 11
38.942978
 21
211.051589
  0
CIRCLE
  5
10B
100
AcDbEntity
  8
M0
 62
     6
100
AcDbCircle
 10
75.442963
 20
199.210784
 40
2.999997
  0
LINE
  5
10C
100
AcDbEntity
  8
M0
 62
     6
100
AcDbLine
 10
72.222752
 20
202.310811
 11
71.667816
 21
200.510833
  0
LINE
  5
10D
100
AcDbEntity
  8
M0
 62
     6
100
AcDbLine
 10
72.483978
 20
195.263534
 11
71.667816
 21
197.910857
  0
LINE
  5
10E
100
AcDbEntity
  8
M0
 62
     6
100
AcDbLine
 10
78.401459
 20
195.263518
 11
79.217865
 21
197.910857
  0
LINE
  5
10F
100
AcDbEntity
  8
M0
 62
     6
100
AcDbLine
 10
72.962006
 20
194.910857
 11
77.923676
 21
194.910857
  0
LINE
  5
110
100
AcDbEntity
  8
M0
 62
     6
100
AcDbLine
 10
79.217865
 20
197.910857
 11
79.217865
 21
201.010811
  0
LINE
  5
111
100
AcDbEntity
  8
M0
 62
     6
100
AcDbLine
 10
71.667816
 20
200.510833
 11
71.667816
 21
197.910857
  0
LINE
  5
112
100
AcDbEntity
  8
M0
 62
     6
100
AcDbLine
 10
77.033539
 20
197.619964
 11
73.851898
 21
200.801726
  0
LINE
  5
113
100
AcDbEntity
  8
M0
 62
     6
100
AcDbLine
 10
75.796234
 20
200.624969
 11
74.028656
 21
198.857268
  0
LINE
  5
114
100
AcDbEntity
  8
M0
 62
     6
100
AcDbLine
 10
76.856781
 20
199.5643
 11
75.089203
 21
197.796721
  0
ARC
  5
115
100
AcDbEntity
  8
M0
 62
     6
100
AcDbCircle
 10
72.962006
 20
195.410857
 40
0.5
100
AcDbArc
 50
197.128737
 51
270.0
  0
ARC
  5
116
100
AcDbEntity
  8
M0
 62
     6
100
AcDbCircle
 10
77.923676
 20
195.410857
 40
0.5
100
AcDbArc
 50
270.0
 51
342.861308
  0
LINE
  5
117
100
AcDbEntity
  8
M0
  6
DASHDOT
 62
     6
100
AcDbLine
 10
78.942963
 20
199.210784
 11
71.942963
 21
199.210784
  0
LINE
  5
118
100
AcDbEntity
  8
M0
  6
DASHDOT
 62
     6
100
AcDbLine
 10
75.442948
 20
202.710784
 11
75.442963
 21
195.710784
  0
CIRCLE
  5
119
100
AcDbEntity
  8
M0
 62
     6
100
AcDbCircle
 10
86.442963
 20
199.210784
 40
2.999997
  0
LINE
  5
11A
100
AcDbEntity
  8
M0
 62
     6
100
AcDbLine
 10
83.483978
 20
195.263534
 11
82.667816
 21
197.910857
  0
LINE
  5
11B
100
AcDbEntity
  8
M0
 62
     6
100
AcDbLine
 10
89.662768
 20
202.310811
 11
90.217865
 21
200.510833
  0
LINE
  5
11C
100
AcDbEntity
  8
M0
 62
     6
100
AcDbLine
 10
89.401459
 20
195.263518
 11
90.217865
 21
197.910857
  0
LINE
  5
11D
100
AcDbEntity
  8
M0
 62
     6
100
AcDbLine
 10
83.962006
 20
194.910857
 11
88.923676
 21
194.910857
  0
LINE
  5
11E
100
AcDbEntity
  8
M0
 62
     6
100
AcDbLine
 10
90.217865
 20
197.910857
 11
90.217865
 21
200.510833
  0
LINE
  5
11F
100
AcDbEntity
  8
M0
 62
     6
100
AcDbLine
 10
82.667816
 20
201.010811
 11
82.667816
 21
197.910857
  0
LINE
  5
120
100
AcDbEntity
  8
M0
 62
     6
100
AcDbLine
 10
88.033539
 20
197.619964
 11
84.851898
 21
200.801726
  0
LINE
  5
121
100
AcDbEntity
  8
M0
 62
     6
100
AcDbLine
 10
86.796234
 20
200.624969
 11
85.028656
 21
198.857268
  0
LINE
  5
122
100
AcDbEntity
  8
M0
 62
     6
100
AcDbLine
 10
87.856781
 20
199.5643
 11
86.089203
 21
197.796721
  0
ARC
  5
123
100
AcDbEntity
  8
M0
 62
     6
100
AcDbCircle
 10
83.962006
 20
195.410857
 40
0.5
100
AcDbArc
 50
197.128737
 51
270.0
  0
ARC
  5
124
100
AcDbEntity
  8
M0
 62
     6
100
AcDbCircle
 10
88.923676
 20
195.410857
 40
0.5
100
AcDbArc
 50
270.0
 51
342.861308
  0
LINE
  5
125
100
AcDbEntity
  8
M0
  6
DASHDOT
 62
     6
100
AcDbLine
 10
89.942963
 20
199.210784
 11
82.942963
 21
199.210784
  0
LINE
  5
126
100
AcDbEntity
  8
M0
  6
DASHDOT
 62
     6
100
AcDbLine
 10
86.442948
 20
202.710784
 11
86.442963
 21
195.710784
  0
LINE
  5
127
100
AcDbEntity
  8
M0
  6
DASHDOT
 62
     4
100
AcDbLine
 10
71.602417
 20
197.211028
 11
60.283554
 21
197.211028
  0
LINE
  5
128
100
AcDbEntity
  8
M0
 62
     2
100
AcDbLine
 10
62.982071
 20
203.171874
 11
64.82692
 21
201.327041
  0
LINE
  5
129
100
AcDbEntity
  8
M0
 62
     2
100
AcDbLine
 10
64.953797
 20
203.928985
 11
62.378723
 21
201.353911
  0
LINE
  5
12A
100
AcDbEntity
  8
M0
 62
     2
100
AcDbLine
 10
65.660904
 20
203.221877
 11
63.085831
 21
200.646804
  0
LINE
  5
12B
100
AcDbEntity
  8
M0
 62
     2
100
AcDbLine
 10
60.842941
 20
197.411025
 11
67.042938
 21
197.411025
  0
LINE
  5
12C
100
AcDbEntity
  8
M0
 62
     2
100
AcDbLine
 10
68.042938
 20
198.41101
 11
68.042938
 21
206.010985
  0
LINE
  5
12D
100
AcDbEntity
  8
M0
 62
     2
100
AcDbLine
 10
59.842941
 20
206.011001
 11
59.842941
 21
198.411025
  0
CIRCLE
  5
12E
100
AcDbEntity
  8
M0
 62
     2
100
AcDbCircle
 10
63.942948
 20
202.211028
 40
3.499993
  0
ARC
  5
12F
100
AcDbEntity
  8
M0
 62
     2
100
AcDbCircle
 10
67.042938
 20
198.411025
 40
1.0
100
AcDbArc
 50
270.0
 51
360.0
  0
ARC
  5
130
100
AcDbEntity
  8
M0
 62
     2
100
AcDbCircle
 10
67.042938
 20
206.010833
 40
1.0
100
AcDbArc
 50
0.0
 51
90.0
  0
ARC
  5
131
100
AcDbEntity
  8
M0
 62
     2
100
AcDbCircle
 10
60.842941
 20
206.010833
 40
1.0
100
AcDbArc
 50
90.0
 51
180.0
  0
ARC
  5
132
100
AcDbEntity
  8
M0
 62
     2
100
AcDbCircle
 10
60.842941
 20
198.411025
 40
1.0
100
AcDbArc
 50
179.999945
 51
270.0
  0
LINE
  5
133
100
AcDbEntity
  8
M0
  6
DASHDOT
 62
     2
100
AcDbLine
 10
69.602371
 20
202.211028
 11
58.283508
 21
202.211028
  0
LINE
  5
134
100
AcDbEntity
  8
M0
  6
DASHDOT
 62
     2
100
AcDbLine
 10
63.942932
 20
207.870452
 11
63.942948
 21
196.551589
  0
LINE
  5
135
100
AcDbEntity
  8
M0
 62
     2
100
AcDbLine
 10
60.842941
 20
207.011016
 11
67.042938
 21
207.011016
  0
LINE
  5
136
100
AcDbEntity
  8
M0
 62
     2
100
AcDbLine
 10
50.482086
 20
217.671874
 11
52.326935
 21
215.827041
  0
LINE
  5
137
100
AcDbEntity
  8
M0
 62
     2
100
AcDbLine
 10
52.453812
 20
218.428985
 11
49.878739
 21
215.853911
  0
LINE
  5
138
100
AcDbEntity
  8
M0
 62
     2
100
AcDbLine
 10
53.160919
 20
217.721877
 11
50.585846
 21
215.146804
  0
CIRCLE
  5
139
100
AcDbEntity
  8
M0
 62
     2
100
AcDbCircle
 10
51.442963
 20
216.711028
 40
3.499993
  0
LINE
  5
13A
100
AcDbEntity
  8
M0
  6
DASHDOT
 62
     2
100
AcDbLine
 10
57.102387
 20
216.711028
 11
45.783524
 21
216.711028
  0
LINE
  5
13B
100
AcDbEntity
  8
M0
  6
DASHDOT
 62
     2
100
AcDbLine
 10
51.442948
 20
222.370452
 11
51.442963
 21
211.051589
  0
LINE
  5
13C
100
AcDbEntity
  8
M0
 62
     2
100
AcDbLine
 10
62.982056
 20
217.671874
 11
64.826904
 21
215.827041
  0
LINE
  5
13D
100
AcDbEntity
  8
M0
 62
     2
100
AcDbLine
 10
64.953781
 20
218.428985
 11
62.378708
 21
215.853911
  0
LINE
  5
13E
100
AcDbEntity
  8
M0
 62
     2
100
AcDbLine
 10
65.660889
 20
217.721877
 11
63.085816
 21
215.146804
  0
CIRCLE
  5
13F
100
AcDbEntity
  8
M0
 62
     2
100
AcDbCircle
 10
63.942932
 20
216.711028
 40
3.499993
  0
LINE
  5
140
100
AcDbEntity
  8
M0
  6
DASHDOT
 62
     2
100
AcDbLine
 10
69.602356
 20
216.711028
 11
58.283493
 21
216.711028
  0
LINE
  5
141
100
AcDbEntity
  8
M0
  6
DASHDOT
 62
     2
100
AcDbLine
 10
63.942917
 20
222.370452
 11
63.942932
 21
211.051589
  0
LINE
  5
142
100
AcDbEntity
  8
M0
100
AcDbLine
 10
81.793045
 20
221.061028
 11
85.793045
 21
221.061028
  0
LINE
  5
143
100
AcDbEntity
  8
M0
100
AcDbLine
 10
85.793045
 20
221.061028
 11
85.793045
 21
223.861028
  0
LINE
  5
144
100
AcDbEntity
  8
M0
100
AcDbLine
 10
85.793045
 20
223.861028
 11
81.793045
 21
223.861028
  0
LINE
  5
145
100
AcDbEntity
  8
M0
100
AcDbLine
 10
81.793045
 20
223.861028
 11
81.793045
 21
221.061028
  0
LINE
  5
146
100
AcDbEntity
  8
M0
100
AcDbLine
 10
82.086936
 20
213.515959
 11
80.499215
 21
213.515959
  0
LINE
  5
147
100
AcDbEntity
  8
M0
100
AcDbLine
 10
80.499215
 20
213.515715
 11
80.499215
 21
208.906097
  0
LINE
  5
148
100
AcDbEntity
  8
M0
100
AcDbLine
 10
82.086936
 20
208.906097
 11
80.499215
 21
208.906097
  0
LINE
  5
149
100
AcDbEntity
  8
M0
100
AcDbLine
 10
82.086936
 20
213.515715
 11
82.086936
 21
208.906097
  0
LINE
  5
14A
100
AcDbEntity
  8
M0
 62
     4
100
AcDbLine
 10
191.251234
 20
224.710907
 11
189.750163
 21
224.710529
  0
LINE
  5
14B
100
AcDbEntity
  8
M0
 62
     4
100
AcDbLine
 10
117.751262
 20
225.711841
 11
117.751074
 21
209.711765
  0
LINE
  5
14C
100
AcDbEntity
  8
M0
 62
     4
100
AcDbLine
 10
135.670077
 20
190.211613
 11
159.2867
 21
190.211313
  0
ARC
  5
14D
100
AcDbEntity
  8
M0
 62
     4
100
AcDbCircle
 10
119.751277
 20
225.711815
 40
2.0
100
AcDbArc
 50
89.999272
 51
179.999272
  0
LINE
  5
14E
100
AcDbEntity
  8
M0
 62
     4
100
AcDbLine
 10
120.751044
 20
203.711803
 11
120.751085
 21
206.961803
  0
LINE
  5
14F
100
AcDbEntity
  8
M0
 62
     4
100
AcDbLine
 10
142.551291
 20
227.711526
 11
119.751303
 21
227.711815
  0
LINE
  5
150
100
AcDbEntity
  8
M0
 62
     4
100
AcDbLine
 10
133.072028
 20
191.711646
 11
127.768271
 21
191.711714
  0
LINE
  5
151
100
AcDbEntity
  8
M0
 62
     4
100
AcDbLine
 10
122.572912
 20
202.510532
 11
124.870518
 21
193.935292
  0
ARC
  5
152
100
AcDbEntity
  8
M0
 62
     4
100
AcDbCircle
 10
127.768309
 20
194.711714
 40
3.0
100
AcDbArc
 50
194.99934
 51
269.999272
  0
LINE
  5
153
100
AcDbEntity
  8
M0
 62
     4
100
AcDbLine
 10
130.072821
 20
202.510532
 11
132.772324
 21
192.435191
  0
ARC
  5
154
100
AcDbEntity
  8
M0
 62
     4
100
AcDbCircle
 10
135.670115
 20
193.211613
 40
3.0
100
AcDbArc
 50
194.999334
 51
269.999272
  0
LINE
  5
155
100
AcDbEntity
  8
M0
 62
     4
100
AcDbLine
 10
120.751193
 20
215.461803
 11
120.751298
 21
223.711803
  0
ARC
  5
156
100
AcDbEntity
  8
M0
 62
     4
100
AcDbCircle
 10
121.751298
 20
223.71179
 40
1.0
100
AcDbArc
 50
89.999272
 51
179.999272
  0
LINE
  5
157
100
AcDbEntity
  8
M0
 62
     4
100
AcDbLine
 10
117.75113
 20
211.711551
 11
118.754746
 21
211.711538
  0
LINE
  5
158
100
AcDbEntity
  8
M0
 62
     4
100
AcDbLine
 10
117.751105
 20
209.711551
 11
118.754736
 21
209.711538
  0
LINE
  5
159
100
AcDbEntity
  8
M0
 62
     4
100
AcDbLine
 10
134.59835
 20
194.211627
 11
144.250862
 21
194.211504
  0
ARC
  5
15A
100
AcDbEntity
  8
M0
 62
     4
100
AcDbCircle
 10
134.598388
 20
197.211627
 40
3.0
100
AcDbArc
 50
194.99934
 51
269.999272
  0
LINE
  5
15B
100
AcDbEntity
  8
M0
 62
     4
100
AcDbLine
 10
147.250852
 20
192.211466
 11
158.750821
 21
192.21132
  0
LINE
  5
15C
100
AcDbEntity
  8
M0
 62
     4
100
AcDbLine
 10
161.625162
 20
187.211283
 11
165.450754
 21
187.211235
  0
LINE
  5
15D
100
AcDbEntity
  8
M0
 62
     4
100
AcDbLine
 10
162.527059
 20
183.211272
 11
178.844579
 21
183.211064
  0
ARC
  5
15E
100
AcDbEntity
  8
M0
 62
     4
100
AcDbCircle
 10
142.551265
 20
225.711449
 40
2.0
100
AcDbArc
 50
14.332797
 51
89.999272
  0
LINE
  5
15F
100
AcDbEntity
  8
M0
 62
     4
100
AcDbLine
 10
180.576623
 20
184.211043
 11
183.752139
 21
189.711003
  0
ARC
  5
160
100
AcDbEntity
  8
M0
 62
     4
100
AcDbCircle
 10
178.844596
 20
185.211065
 40
2.0
100
AcDbArc
 50
269.999244
 51
329.999151
  0
ARC
  5
161
100
AcDbEntity
  8
M0
 62
     4
100
AcDbCircle
 10
161.625188
 20
189.211283
 40
2.0
100
AcDbArc
 50
194.999712
 51
269.999272
  0
LINE
  5
162
100
AcDbEntity
  8
M0
 62
     4
100
AcDbLine
 10
168.450729
 20
185.211196
 11
179.999313
 21
185.21105
  0
ARC
  5
163
100
AcDbEntity
  8
M0
 62
     4
100
AcDbCircle
 10
179.99933
 20
187.211051
 40
2.0
100
AcDbArc
 50
269.999244
 51
329.999151
  0
LINE
  5
164
100
AcDbEntity
  8
M0
 62
     4
100
AcDbLine
 10
159.250835
 20
189.711313
 11
147.250805
 21
189.711466
  0
LINE
  5
165
100
AcDbEntity
  8
M0
 62
     4
100
AcDbLine
 10
146.500811
 20
190.211475
 11
147.250805
 21
189.711466
  0
LINE
  5
166
100
AcDbEntity
  8
M0
 62
     4
100
AcDbLine
 10
144.250862
 20
194.211504
 11
147.250852
 21
192.211466
  0
LINE
  5
167
100
AcDbEntity
  8
M0
 62
     4
100
AcDbLine
 10
183.752147
 20
189.711002
 11
191.250789
 21
189.710907
  0
LINE
  5
168
100
AcDbEntity
  8
M0
 62
     4
100
AcDbLine
 10
180.576647
 20
184.211042
 11
186.250719
 21
184.21097
  0
LINE
  5
169
100
AcDbEntity
  8
M0
 62
     4
100
AcDbLine
 10
188.250745
 20
186.210945
 11
188.250789
 21
189.710945
  0
ARC
  5
16A
100
AcDbEntity
  8
M0
 62
     4
100
AcDbCircle
 10
186.250745
 20
186.21097
 40
2.0
100
AcDbArc
 50
269.999244
 51
359.999244
  0
LINE
  5
16B
100
AcDbEntity
  8
M0
 62
     4
100
AcDbLine
 10
165.450754
 20
187.211235
 11
168.450729
 21
185.211196
  0
LINE
  5
16C
100
AcDbEntity
  8
M0
 62
     4
100
AcDbLine
 10
126.109967
 20
192.211735
 11
124.741879
 21
192.211752
  0
LINE
  5
16D
100
AcDbEntity
  8
M0
 62
     4
100
AcDbLine
 10
117.751059
 20
209.71178
 11
119.359
 21
203.710532
  0
ARC
  5
16E
100
AcDbEntity
  8
M0
 62
     4
100
AcDbCircle
 10
124.741918
 20
195.211752
 40
3.0
100
AcDbArc
 50
194.999393
 51
269.999272
  0
LINE
  5
16F
100
AcDbEntity
  8
M0
 62
     4
100
AcDbLine
 10
159.250805
 20
189.711374
 11
160.595223
 21
184.693657
  0
LINE
  5
170
100
AcDbEntity
  8
M0
 62
     4
100
AcDbLine
 10
158.750836
 20
192.21132
 11
159.693342
 21
188.693669
  0
ARC
  5
171
100
AcDbEntity
  8
M0
 62
     4
100
AcDbCircle
 10
162.527084
 20
185.211272
 40
2.0
100
AcDbArc
 50
194.999369
 51
269.999272
  0
LINE
  5
172
100
AcDbEntity
  8
M0
 62
     4
100
AcDbLine
 10
191.250377
 20
189.710769
 11
191.250822
 21
224.710906
  0
LINE
  5
173
100
AcDbEntity
  8
M0
  6
DASHED
 62
     4
100
AcDbLine
 10
184.250141
 20
189.710841
 11
184.250179
 21
193.725977
  0
ARC
  5
174
100
AcDbEntity
  8
M0
  6
DASHED
 62
     4
100
AcDbCircle
 10
181.250179
 20
193.72625
 40
3.0
100
AcDbArc
 50
359.999217
 51
449.999272
  0
LINE
  5
175
100
AcDbEntity
  8
M0
 62
     4
100
AcDbLine
 10
189.750163
 20
226.210529
 11
134.250216
 21
226.210288
  0
LINE
  5
176
100
AcDbEntity
  8
M0
 62
     4
100
AcDbLine
 10
189.750228
 20
226.210773
 11
189.750225
 21
224.710529
  0
LINE
  5
177
100
AcDbEntity
  8
M0
 62
     4
100
AcDbLine
 10
134.250216
 20
226.210532
 11
133.750227
 21
224.710051
  0
LINE
  5
178
100
AcDbEntity
  8
M0
 62
     4
100
AcDbLine
 10
133.750563
 20
224.710539
 11
121.751311
 21
224.71179
  0
LINE
  5
179
100
AcDbEntity
  8
M0
 62
     4
100
AcDbLine
 10
119.680533
 20
202.510532
 11
121.844142
 21
194.43533
  0
ARC
  5
17A
100
AcDbEntity
  8
M0
 62
     6
100
AcDbCircle
 10
86.444168
 20
192.210784
 40
2.999997
100
AcDbArc
 50
115.844051
 51
424.156194
  0
LINE
  5
17B
100
AcDbEntity
  8
M0
 62
     6
100
AcDbLine
 10
83.34668
 20
195.708587
 11
82.669022
 21
193.510833
  0
LINE
  5
17C
100
AcDbEntity
  8
M0
 62
     6
100
AcDbLine
 10
83.485184
 20
188.263534
 11
82.669022
 21
190.910857
  0
LINE
  5
17D
100
AcDbEntity
  8
M0
 62
     6
100
AcDbLine
 10
89.539993
 20
195.712737
 11
90.219071
 21
193.510833
  0
LINE
  5
17E
100
AcDbEntity
  8
M0
 62
     6
100
AcDbLine
 10
89.402664
 20
188.263518
 11
90.219071
 21
190.910857
  0
LINE
  5
17F
100
AcDbEntity
  8
M0
 62
     6
100
AcDbLine
 10
83.963211
 20
187.910857
 11
88.924881
 21
187.910857
  0
LINE
  5
180
100
AcDbEntity
  8
M0
 62
     6
100
AcDbLine
 10
90.219071
 20
190.910857
 11
90.219071
 21
193.510833
  0
LINE
  5
181
100
AcDbEntity
  8
M0
 62
     6
100
AcDbLine
 10
82.669022
 20
193.510833
 11
82.669022
 21
190.910857
  0
LINE
  5
182
100
AcDbEntity
  8
M0
  6
DASHDOT
 62
     6
100
AcDbLine
 10
80.169022
 20
192.210784
 11
92.719071
 21
192.210784
  0
LINE
  5
183
100
AcDbEntity
  8
M0
  6
DASHDOT
 62
     6
100
AcDbLine
 10
86.444168
 20
185.410872
 11
86.444168
 21
194.68682
  0
LINE
  5
184
100
AcDbEntity
  8
M0
 62
     6
100
AcDbLine
 10
88.034744
 20
190.619964
 11
84.853104
 21
193.801726
  0
LINE
  5
185
100
AcDbEntity
  8
M0
 62
     6
100
AcDbLine
 10
86.79744
 20
193.624969
 11
85.029862
 21
191.857268
  0
LINE
  5
186
100
AcDbEntity
  8
M0
 62
     6
100
AcDbLine
 10
87.857987
 20
192.5643
 11
86.090408
 21
190.796721
  0
ARC
  5
187
100
AcDbEntity
  8
M0
 62
     6
100
AcDbCircle
 10
83.963211
 20
188.410857
 40
0.5
100
AcDbArc
 50
197.128737
 51
270.0
  0
ARC
  5
188
100
AcDbEntity
  8
M0
 62
     6
100
AcDbCircle
 10
88.924881
 20
188.410857
 40
0.5
100
AcDbArc
 50
270.0
 51
342.861308
  0
ARC
  5
189
100
AcDbEntity
  8
M0
 62
     6
100
AcDbCircle
 10
76.444183
 20
192.210784
 40
2.999997
100
AcDbArc
 50
115.844051
 51
424.156194
  0
LINE
  5
18A
100
AcDbEntity
  8
M0
 62
     6
100
AcDbLine
 10
73.100662
 20
194.910735
 11
72.669037
 21
193.510833
  0
LINE
  5
18B
100
AcDbEntity
  8
M0
 62
     6
100
AcDbLine
 10
73.485199
 20
188.263534
 11
72.669037
 21
190.910857
  0
LINE
  5
18C
100
AcDbEntity
  8
M0
 62
     6
100
AcDbLine
 10
79.40268
 20
188.263518
 11
80.030853
 21
190.300384
  0
LINE
  5
18D
100
AcDbEntity
  8
M0
 62
     6
100
AcDbLine
 10
73.963226
 20
187.910857
 11
78.924896
 21
187.910857
  0
LINE
  5
18E
100
AcDbEntity
  8
M0
 62
     6
100
AcDbLine
 10
72.669037
 20
193.510833
 11
72.669037
 21
190.910857
  0
LINE
  5
18F
100
AcDbEntity
  8
M0
  6
DASHDOT
 62
     6
100
AcDbLine
 10
70.169037
 20
192.210784
 11
82.719086
 21
192.210784
  0
LINE
  5
190
100
AcDbEntity
  8
M0
  6
DASHDOT
 62
     6
100
AcDbLine
 10
76.444183
 20
185.410872
 11
76.444183
 21
199.010833
  0
LINE
  5
191
100
AcDbEntity
  8
M0
 62
     6
100
AcDbLine
 10
78.03476
 20
190.619964
 11
74.853119
 21
193.801726
  0
LINE
  5
192
100
AcDbEntity
  8
M0
 62
     6
100
AcDbLine
 10
76.797455
 20
193.624969
 11
75.029877
 21
191.857268
  0
LINE
  5
193
100
AcDbEntity
  8
M0
 62
     6
100
AcDbLine
 10
77.858002
 20
192.5643
 11
76.090424
 21
190.796721
  0
ARC
  5
194
100
AcDbEntity
  8
M0
 62
     6
100
AcDbCircle
 10
73.963226
 20
188.410857
 40
0.5
100
AcDbArc
 50
197.128737
 51
270.0
  0
ARC
  5
195
100
AcDbEntity
  8
M0
 62
     6
100
AcDbCircle
 10
78.924896
 20
188.410857
 40
0.5
100
AcDbArc
 50
270.0
 51
342.861308
  0
ARC
  5
196
100
AcDbEntity
  8
M0
 62
     4
100
AcDbCircle
 10
81.444069
 20
184.210803
 40
1.0
100
AcDbArc
 50
179.999909
 51
270.0
  0
ARC
  5
197
100
AcDbEntity
  8
M0
 62
     4
100
AcDbCircle
 10
81.444069
 20
184.210803
 40
1.0
100
AcDbArc
 50
270.0
 51
359.999909
  0
LINE
  5
198
100
AcDbEntity
  8
M0
 62
     4
100
AcDbLine
 10
72.444099
 20
184.210817
 11
69.444099
 21
184.210822
  0
LINE
  5
199
100
AcDbEntity
  8
M0
 62
     4
100
AcDbLine
 10
50.69415
 20
225.710559
 11
50.694151
 21
226.510852
  0
ARC
  5
19A
100
AcDbEntity
  8
M0
 62
     4
100
AcDbCircle
 10
49.694151
 20
226.510853
 40
1.0
100
AcDbArc
 50
359.999909
 51
449.999035
  0
LINE
  5
19B
100
AcDbEntity
  8
M0
 62
     4
100
AcDbLine
 10
93.444118
 20
224.710784
 11
61.444163
 21
224.71059
  0
LINE
  5
19C
100
AcDbEntity
  8
M0
 62
     4
100
AcDbLine
 10
30.94415
 20
226.010589
 11
30.944094
 21
190.710791
  0
LINE
  5
19D
100
AcDbEntity
  8
M0
 62
     4
100
AcDbLine
 10
72.444091
 20
188.210817
 11
73.501387
 21
188.210815
  0
LINE
  5
19E
100
AcDbEntity
  8
M0
 62
     4
100
AcDbLine
 10
93.444071
 20
185.710784
 11
93.444138
 21
227.710784
  0
LINE
  5
19F
100
AcDbEntity
  8
M0
 62
     4
100
AcDbLine
 10
89.58913
 20
220.21079
 11
77.794132
 21
220.210809
  0
LINE
  5
1A0
100
AcDbEntity
  8
M0
 62
     4
100
AcDbLine
 10
56.444114
 20
193.210842
 11
56.444167
 21
226.710842
  0
LINE
  5
1A1
100
AcDbEntity
  8
M0
 62
     4
100
AcDbLine
 10
58.944114
 20
193.210839
 11
58.944167
 21
226.710839
  0
LINE
  5
1A2
100
AcDbEntity
  8
M0
 62
     4
100
AcDbLine
 10
46.444114
 20
193.210858
 11
46.444167
 21
226.710858
  0
LINE
  5
1A3
100
AcDbEntity
  8
M0
 62
     4
100
AcDbLine
 10
43.944114
 20
193.210862
 11
43.944167
 21
226.710862
  0
LINE
  5
1A4
100
AcDbEntity
  8
M0
 62
     4
100
AcDbLine
 10
57.944168
 20
227.71084
 11
57.444168
 21
227.710841
  0
ARC
  5
1A5
100
AcDbEntity
  8
M0
 62
     4
100
AcDbCircle
 10
57.944167
 20
226.71084
 40
1.0
100
AcDbArc
 50
359.999909
 51
449.999035
  0
LINE
  5
1A6
100
AcDbEntity
  8
M0
 62
     4
100
AcDbLine
 10
49.694153
 20
227.510853
 11
46.044098
 21
227.510833
  0
ARC
  5
1A7
100
AcDbEntity
  8
M0
 62
     4
100
AcDbCircle
 10
57.444167
 20
226.710841
 40
1.0
100
AcDbArc
 50
89.999035
 51
179.999909
  0
LINE
  5
1A8
100
AcDbEntity
  8
M0
 62
     4
100
AcDbLine
 10
67.444136
 20
207.210825
 11
60.444136
 21
207.210836
  0
LINE
  5
1A9
100
AcDbEntity
  8
M0
 62
     4
100
AcDbLine
 10
67.444143
 20
211.710825
 11
60.444143
 21
211.710836
  0
LINE
  5
1AA
100
AcDbEntity
  8
M0
 62
     4
100
AcDbLine
 10
67.44414
 20
209.710825
 11
60.44414
 21
209.710836
  0
LINE
  5
1AB
100
AcDbEntity
  8
M0
 62
     4
100
AcDbLine
 10
60.944143
 20
211.710835
 11
60.944143
 21
211.910787
  0
LINE
  5
1AC
100
AcDbEntity
  8
M0
 62
     4
100
AcDbLine
 10
66.944143
 20
211.710826
 11
66.944143
 21
211.910777
  0
LINE
  5
1AD
100
AcDbEntity
  8
M0
 62
     4
100
AcDbLine
 10
66.444158
 20
221.510631
 11
66.444163
 21
224.710827
  0
LINE
  5
1AE
100
AcDbEntity
  8
M0
 62
     4
100
AcDbLine
 10
61.444158
 20
221.510639
 11
61.444163
 21
224.710835
  0
LINE
  5
1AF
100
AcDbEntity
  8
M0
 62
     4
100
AcDbLine
 10
53.944158
 20
221.510895
 11
53.944163
 21
224.710846
  0
LINE
  5
1B0
100
AcDbEntity
  8
M0
 62
     4
100
AcDbLine
 10
48.944158
 20
221.510903
 11
48.944163
 21
224.710854
  0
LINE
  5
1B1
100
AcDbEntity
  8
M0
 62
     4
100
AcDbLine
 10
36.444158
 20
221.510923
 11
36.444163
 21
224.710874
  0
LINE
  5
1B2
100
AcDbEntity
  8
M0
 62
     4
100
AcDbLine
 10
41.444158
 20
221.510915
 11
41.444163
 21
224.710866
  0
LINE
  5
1B3
100
AcDbEntity
  8
M0
 62
     4
100
AcDbLine
 10
48.444143
 20
211.710855
 11
48.444143
 21
211.91105
  0
LINE
  5
1B4
100
AcDbEntity
  8
M0
 62
     4
100
AcDbLine
 10
54.444143
 20
211.710846
 11
54.444143
 21
211.911041
  0
LINE
  5
1B5
100
AcDbEntity
  8
M0
 62
     4
100
AcDbLine
 10
35.944143
 20
211.710875
 11
35.944143
 21
211.91107
  0
LINE
  5
1B6
100
AcDbEntity
  8
M0
 62
     4
100
AcDbLine
 10
41.944143
 20
211.710865
 11
41.944143
 21
211.911061
  0
LINE
  5
1B7
100
AcDbEntity
  8
M0
 62
     4
100
AcDbLine
 10
61.444163
 20
224.710835
 11
58.944163
 21
224.710839
  0
LINE
  5
1B8
100
AcDbEntity
  8
M0
 62
     4
100
AcDbLine
 10
48.944163
 20
224.710854
 11
46.444163
 21
224.710858
  0
LINE
  5
1B9
100
AcDbEntity
  8
M0
 62
     4
100
AcDbLine
 10
36.444163
 20
224.710874
 11
33.944163
 21
224.710878
  0
LINE
  5
1BA
100
AcDbEntity
  8
M0
 62
     4
100
AcDbLine
 10
54.944143
 20
211.710845
 11
47.944143
 21
211.710856
  0
LINE
  5
1BB
100
AcDbEntity
  8
M0
 62
     4
100
AcDbLine
 10
42.444143
 20
211.710865
 11
35.444143
 21
211.710876
  0
LINE
  5
1BC
100
AcDbEntity
  8
M0
 62
     4
100
AcDbLine
 10
68.444145
 20
212.710823
 11
68.444162
 21
223.710823
  0
LINE
  5
1BD
100
AcDbEntity
  8
M0
 62
     4
100
AcDbLine
 10
59.444145
 20
212.710838
 11
59.444162
 21
223.710838
  0
LINE
  5
1BE
100
AcDbEntity
  8
M0
 62
     4
100
AcDbLine
 10
55.944145
 20
212.710843
 11
55.944162
 21
223.710843
  0
LINE
  5
1BF
100
AcDbEntity
  8
M0
 62
     4
100
AcDbLine
 10
46.944145
 20
212.710857
 11
46.944162
 21
223.710857
  0
LINE
  5
1C0
100
AcDbEntity
  8
M0
 62
     4
100
AcDbLine
 10
43.444145
 20
212.710863
 11
43.444162
 21
223.710863
  0
LINE
  5
1C1
100
AcDbEntity
  8
M0
 62
     4
100
AcDbLine
 10
34.444145
 20
212.710877
 11
34.444162
 21
223.710877
  0
LINE
  5
1C2
100
AcDbEntity
  8
M0
 62
     4
100
AcDbLine
 10
56.444163
 20
224.710842
 11
48.944163
 21
224.71061
  0
LINE
  5
1C3
100
AcDbEntity
  8
M0
 62
     4
100
AcDbLine
 10
43.944163
 20
224.710862
 11
36.444163
 21
224.71063
  0
LINE
  5
1C4
100
AcDbEntity
  8
M0
 62
     4
100
AcDbLine
 10
68.944108
 20
189.710823
 11
68.944137
 21
208.210823
  0
ARC
  5
1C5
100
AcDbEntity
  8
M0
 62
     4
100
AcDbCircle
 10
69.444162
 20
223.710822
 40
1.0
100
AcDbArc
 50
119.99911
 51
179.999909
  0
ARC
  5
1C6
100
AcDbEntity
  8
M0
 62
     4
100
AcDbCircle
 10
56.944162
 20
223.710842
 40
1.0
100
AcDbArc
 50
119.99911
 51
179.999909
  0
ARC
  5
1C7
100
AcDbEntity
  8
M0
 62
     4
100
AcDbCircle
 10
44.444162
 20
223.710861
 40
1.0
100
AcDbArc
 50
119.99911
 51
179.999909
  0
ARC
  5
1C8
100
AcDbEntity
  8
M0
 62
     4
100
AcDbCircle
 10
58.444162
 20
223.710839
 40
1.0
100
AcDbArc
 50
359.999909
 51
419.999952
  0
ARC
  5
1C9
100
AcDbEntity
  8
M0
 62
     4
100
AcDbCircle
 10
45.944162
 20
223.710859
 40
1.0
100
AcDbArc
 50
359.999909
 51
419.999952
  0
LINE
  5
1CA
100
AcDbEntity
  8
M0
 62
     4
100
AcDbLine
 10
33.944145
 20
212.710878
 11
33.944163
 21
224.710878
  0
ARC
  5
1CB
100
AcDbEntity
  8
M0
 62
     4
100
AcDbCircle
 10
33.444162
 20
223.710879
 40
1.0
100
AcDbArc
 50
359.999909
 51
419.999952
  0
LINE
  5
1CC
100
AcDbEntity
  8
M0
 62
     4
100
AcDbLine
 10
41.194181
 20
226.029421
 11
41.194182
 21
226.510867
  0
ARC
  5
1CD
100
AcDbEntity
  8
M0
 62
     4
100
AcDbCircle
 10
42.194182
 20
226.510865
 40
1.0
100
AcDbArc
 50
89.999035
 51
179.999909
  0
ARC
  5
1CE
100
AcDbEntity
  8
M0
 62
     4
100
AcDbCircle
 10
45.444167
 20
226.71086
 40
1.0
100
AcDbArc
 50
359.999909
 51
449.999035
  0
ARC
  5
1CF
100
AcDbEntity
  8
M0
 62
     4
100
AcDbCircle
 10
44.944167
 20
226.710861
 40
1.0
100
AcDbArc
 50
89.999035
 51
179.999909
  0
LINE
  5
1D0
100
AcDbEntity
  8
M0
 62
     4
100
AcDbLine
 10
43.944181
 20
226.010589
 11
30.94415
 21
226.010589
  0
LINE
  5
1D1
100
AcDbEntity
  8
M0
 62
     4
100
AcDbLine
 10
42.44414
 20
209.710865
 11
30.944109
 21
209.710883
  0
LINE
  5
1D2
100
AcDbEntity
  8
M0
 62
     4
100
AcDbLine
 10
54.94414
 20
209.710845
 11
47.94414
 21
209.710856
  0
ARC
  5
1D3
100
AcDbEntity
  8
M0
 62
     4
100
AcDbCircle
 10
54.944145
 20
213.210845
 40
1.499996
100
AcDbArc
 50
270.0
 51
359.999909
  0
ARC
  5
1D4
100
AcDbEntity
  8
M0
 62
     4
100
AcDbCircle
 10
42.444145
 20
213.210865
 40
1.499996
100
AcDbArc
 50
270.0
 51
359.999909
  0
ARC
  5
1D5
100
AcDbEntity
  8
M0
 62
     4
100
AcDbCircle
 10
42.444145
 20
212.710865
 40
1.0
100
AcDbArc
 50
270.0
 51
359.999909
  0
ARC
  5
1D6
100
AcDbEntity
  8
M0
 62
     4
100
AcDbCircle
 10
54.944145
 20
212.710845
 40
1.0
100
AcDbArc
 50
270.0
 51
359.999909
  0
ARC
  5
1D7
100
AcDbEntity
  8
M0
 62
     4
100
AcDbCircle
 10
67.444145
 20
213.210825
 40
1.499996
100
AcDbArc
 50
270.0
 51
359.999909
  0
ARC
  5
1D8
100
AcDbEntity
  8
M0
 62
     4
100
AcDbCircle
 10
67.444145
 20
212.710825
 40
1.0
100
AcDbArc
 50
270.0
 51
359.999909
  0
ARC
  5
1D9
100
AcDbEntity
  8
M0
 62
     4
100
AcDbCircle
 10
60.444145
 20
213.210836
 40
1.499996
100
AcDbArc
 50
179.999909
 51
270.0
  0
ARC
  5
1DA
100
AcDbEntity
  8
M0
 62
     4
100
AcDbCircle
 10
47.944145
 20
213.210856
 40
1.499996
100
AcDbArc
 50
179.999909
 51
270.0
  0
ARC
  5
1DB
100
AcDbEntity
  8
M0
 62
     4
100
AcDbCircle
 10
60.444145
 20
212.710836
 40
1.0
100
AcDbArc
 50
179.999909
 51
270.0
  0
ARC
  5
1DC
100
AcDbEntity
  8
M0
 62
     4
100
AcDbCircle
 10
47.944145
 20
212.710856
 40
1.0
100
AcDbArc
 50
179.999909
 51
270.0
  0
ARC
  5
1DD
100
AcDbEntity
  8
M0
 62
     4
100
AcDbCircle
 10
35.444145
 20
212.710876
 40
1.0
100
AcDbArc
 50
179.999909
 51
270.0
  0
ARC
  5
1DE
100
AcDbEntity
  8
M0
 62
     4
100
AcDbCircle
 10
35.444145
 20
213.210876
 40
1.499996
100
AcDbArc
 50
179.999909
 51
270.0
  0
ARC
  5
1DF
100
AcDbEntity
  8
M0
 62
     4
100
AcDbCircle
 10
32.944145
 20
212.71088
 40
1.0
100
AcDbArc
 50
270.0
 51
359.999909
  0
LINE
  5
1E0
100
AcDbEntity
  8
M0
 62
     4
100
AcDbLine
 10
32.944143
 20
211.71088
 11
30.944112
 21
211.710883
  0
LINE
  5
1E1
100
AcDbEntity
  8
M0
 62
     4
100
AcDbLine
 10
68.94412
 20
197.210823
 11
58.94412
 21
197.210839
  0
LINE
  5
1E2
100
AcDbEntity
  8
M0
 62
     4
100
AcDbLine
 10
68.944145
 20
213.210823
 11
68.944163
 21
224.710823
  0
ARC
  5
1E3
100
AcDbEntity
  8
M0
 62
     4
100
AcDbCircle
 10
60.444137
 20
208.210836
 40
1.499996
100
AcDbArc
 50
89.999327
 51
179.999909
  0
ARC
  5
1E4
100
AcDbEntity
  8
M0
 62
     4
100
AcDbCircle
 10
67.444137
 20
208.210825
 40
1.499996
100
AcDbArc
 50
359.999909
 51
449.999327
  0
ARC
  5
1E5
100
AcDbEntity
  8
M0
 62
     4
100
AcDbCircle
 10
54.944137
 20
208.210845
 40
1.499996
100
AcDbArc
 50
359.999909
 51
449.999327
  0
ARC
  5
1E6
100
AcDbEntity
  8
M0
 62
     4
100
AcDbCircle
 10
47.944137
 20
208.210856
 40
1.499996
100
AcDbArc
 50
89.999327
 51
179.999909
  0
ARC
  5
1E7
100
AcDbEntity
  8
M0
 62
     4
100
AcDbCircle
 10
42.444137
 20
208.210865
 40
1.499996
100
AcDbArc
 50
359.999909
 51
449.999327
  0
LINE
  5
1E8
100
AcDbEntity
  8
M0
 62
     4
100
AcDbLine
 10
33.944119
 20
196.710878
 11
33.944138
 21
208.710878
  0
ARC
  5
1E9
100
AcDbEntity
  8
M0
 62
     4
100
AcDbCircle
 10
35.444137
 20
208.210876
 40
1.499996
100
AcDbArc
 50
89.999327
 51
179.999909
  0
ARC
  5
1EA
100
AcDbEntity
  8
M0
 62
     4
100
AcDbCircle
 10
32.944138
 20
208.71088
 40
1.0
100
AcDbArc
 50
359.999909
 51
449.999035
  0
LINE
  5
1EB
100
AcDbEntity
  8
M0
 62
     4
100
AcDbLine
 10
56.44412
 20
197.210842
 11
46.44412
 21
197.210858
  0
LINE
  5
1EC
100
AcDbEntity
  8
M0
 62
     4
100
AcDbLine
 10
43.94412
 20
197.210862
 11
33.94412
 21
197.210878
  0
ARC
  5
1ED
100
AcDbEntity
  8
M0
 62
     4
100
AcDbCircle
 10
67.444133
 20
205.710825
 40
1.499996
100
AcDbArc
 50
359.999909
 51
449.999327
  0
LINE
  5
1EE
100
AcDbEntity
  8
M0
 62
     4
100
AcDbLine
 10
54.944136
 20
207.210845
 11
47.944136
 21
207.210856
  0
LINE
  5
1EF
100
AcDbEntity
  8
M0
 62
     4
100
AcDbLine
 10
42.444136
 20
207.210865
 11
35.444136
 21
207.210876
  0
ARC
  5
1F0
100
AcDbEntity
  8
M0
 62
     4
100
AcDbCircle
 10
60.444133
 20
205.710836
 40
1.499996
100
AcDbArc
 50
89.999327
 51
179.999909
  0
ARC
  5
1F1
100
AcDbEntity
  8
M0
 62
     4
100
AcDbCircle
 10
47.944133
 20
205.710856
 40
1.499996
100
AcDbArc
 50
89.999327
 51
179.999909
  0
ARC
  5
1F2
100
AcDbEntity
  8
M0
 62
     4
100
AcDbCircle
 10
35.444133
 20
205.710876
 40
1.499996
100
AcDbArc
 50
89.999327
 51
179.999909
  0
ARC
  5
1F3
100
AcDbEntity
  8
M0
 62
     4
100
AcDbCircle
 10
54.944133
 20
205.710845
 40
1.499996
100
AcDbArc
 50
359.999909
 51
449.999327
  0
ARC
  5
1F4
100
AcDbEntity
  8
M0
 62
     4
100
AcDbCircle
 10
42.444133
 20
205.710865
 40
1.499996
100
AcDbArc
 50
359.999909
 51
449.999327
  0
LINE
  5
1F5
100
AcDbEntity
  8
M0
 62
     4
100
AcDbLine
 10
68.444122
 20
198.210823
 11
68.444134
 21
206.210823
  0
LINE
  5
1F6
100
AcDbEntity
  8
M0
 62
     4
100
AcDbLine
 10
59.444122
 20
198.210838
 11
59.444134
 21
206.210838
  0
LINE
  5
1F7
100
AcDbEntity
  8
M0
 62
     4
100
AcDbLine
 10
55.944122
 20
198.210843
 11
55.944134
 21
206.210843
  0
LINE
  5
1F8
100
AcDbEntity
  8
M0
 62
     4
100
AcDbLine
 10
46.944122
 20
198.210857
 11
46.944134
 21
206.210857
  0
LINE
  5
1F9
100
AcDbEntity
  8
M0
 62
     4
100
AcDbLine
 10
43.444122
 20
198.210863
 11
43.444134
 21
206.210863
  0
LINE
  5
1FA
100
AcDbEntity
  8
M0
 62
     4
100
AcDbLine
 10
34.444122
 20
198.210877
 11
34.444134
 21
206.210877
  0
ARC
  5
1FB
100
AcDbEntity
  8
M0
 62
     4
100
AcDbCircle
 10
67.444134
 20
206.210825
 40
1.0
100
AcDbArc
 50
359.999909
 51
449.999035
  0
ARC
  5
1FC
100
AcDbEntity
  8
M0
 62
     4
100
AcDbCircle
 10
54.944134
 20
206.210845
 40
1.0
100
AcDbArc
 50
359.999909
 51
449.999035
  0
ARC
  5
1FD
100
AcDbEntity
  8
M0
 62
     4
100
AcDbCircle
 10
42.444134
 20
206.210865
 40
1.0
100
AcDbArc
 50
359.999909
 51
449.999035
  0
ARC
  5
1FE
100
AcDbEntity
  8
M0
 62
     4
100
AcDbCircle
 10
60.444134
 20
206.210836
 40
1.0
100
AcDbArc
 50
89.999035
 51
179.999909
  0
ARC
  5
1FF
100
AcDbEntity
  8
M0
 62
     4
100
AcDbCircle
 10
47.944134
 20
206.210856
 40
1.0
100
AcDbArc
 50
89.999035
 51
179.999909
  0
ARC
  5
200
100
AcDbEntity
  8
M0
 62
     4
100
AcDbCircle
 10
35.444134
 20
206.210876
 40
1.0
100
AcDbArc
 50
89.999035
 51
179.999909
  0
ARC
  5
201
100
AcDbEntity
  8
M0
 62
     4
100
AcDbCircle
 10
69.444122
 20
198.210822
 40
1.0
100
AcDbArc
 50
179.999909
 51
239.999542
  0
ARC
  5
202
100
AcDbEntity
  8
M0
 62
     4
100
AcDbCircle
 10
56.944122
 20
198.210842
 40
1.0
100
AcDbArc
 50
179.999909
 51
239.999542
  0
ARC
  5
203
100
AcDbEntity
  8
M0
 62
     4
100
AcDbCircle
 10
44.444122
 20
198.210861
 40
1.0
100
AcDbArc
 50
179.999909
 51
239.999542
  0
ARC
  5
204
100
AcDbEntity
  8
M0
 62
     4
100
AcDbCircle
 10
33.444122
 20
198.210879
 40
1.0
100
AcDbArc
 50
300.001034
 51
359.999909
  0
ARC
  5
205
100
AcDbEntity
  8
M0
 62
     4
100
AcDbCircle
 10
45.944122
 20
198.210859
 40
1.0
100
AcDbArc
 50
300.001034
 51
359.999909
  0
ARC
  5
206
100
AcDbEntity
  8
M0
 62
     4
100
AcDbCircle
 10
58.444122
 20
198.210839
 40
1.0
100
AcDbArc
 50
300.001034
 51
359.999909
  0
LINE
  5
207
100
AcDbEntity
  8
M0
 62
     4
100
AcDbLine
 10
57.944112
 20
192.21084
 11
57.444112
 21
192.210841
  0
LINE
  5
208
100
AcDbEntity
  8
M0
 62
     4
100
AcDbLine
 10
45.444112
 20
192.21086
 11
44.944112
 21
192.210861
  0
ARC
  5
209
100
AcDbEntity
  8
M0
 62
     4
100
AcDbCircle
 10
44.944114
 20
193.210861
 40
1.0
100
AcDbArc
 50
179.999909
 51
270.0
  0
ARC
  5
20A
100
AcDbEntity
  8
M0
 62
     4
100
AcDbCircle
 10
45.444114
 20
193.21086
 40
1.0
100
AcDbArc
 50
270.0
 51
359.999909
  0
ARC
  5
20B
100
AcDbEntity
  8
M0
 62
     4
100
AcDbCircle
 10
57.444114
 20
193.210841
 40
1.0
100
AcDbArc
 50
179.999909
 51
270.0
  0
ARC
  5
20C
100
AcDbEntity
  8
M0
 62
     4
100
AcDbCircle
 10
57.944114
 20
193.21084
 40
1.0
100
AcDbArc
 50
270.0
 51
359.999909
  0
LINE
  5
20D
100
AcDbEntity
  8
M0
 62
     4
100
AcDbLine
 10
68.94411
 20
190.710823
 11
59.19411
 21
190.710838
  0
LINE
  5
20E
100
AcDbEntity
  8
M0
 62
     4
100
AcDbLine
 10
38.19411
 20
190.710871
 11
38.19412
 21
197.210871
  0
LINE
  5
20F
100
AcDbEntity
  8
M0
 62
     4
100
AcDbLine
 10
42.69411
 20
190.710864
 11
42.69412
 21
197.210864
  0
LINE
  5
210
100
AcDbEntity
  8
M0
 62
     4
100
AcDbLine
 10
63.19411
 20
190.710832
 11
63.19412
 21
197.210832
  0
LINE
  5
211
100
AcDbEntity
  8
M0
 62
     4
100
AcDbLine
 10
67.69411
 20
190.710825
 11
67.69412
 21
197.210825
  0
LINE
  5
212
100
AcDbEntity
  8
M0
 62
     4
100
AcDbLine
 10
32.944118
 20
195.71088
 11
30.944087
 21
195.710883
  0
ARC
  5
213
100
AcDbEntity
  8
M0
 62
     4
100
AcDbCircle
 10
32.944119
 20
196.71088
 40
1.0
100
AcDbArc
 50
270.0
 51
359.999909
  0
LINE
  5
214
100
AcDbEntity
  8
M0
 62
     4
100
AcDbLine
 10
90.444072
 20
186.210789
 11
90.444098
 21
202.310825
  0
LINE
  5
215
100
AcDbEntity
  8
M0
 62
     4
100
AcDbLine
 10
92.944069
 20
194.210785
 11
91.444069
 21
194.210787
  0
ARC
  5
216
100
AcDbEntity
  8
M0
 62
     4
100
AcDbCircle
 10
92.94407
 20
194.710785
 40
0.5
100
AcDbArc
 50
270.0
 51
359.999909
  0
ARC
  5
217
100
AcDbEntity
  8
M0
 62
     4
100
AcDbCircle
 10
91.444071
 20
195.210787
 40
1.0
100
AcDbArc
 50
179.999909
 51
270.0
  0
LINE
  5
218
100
AcDbEntity
  8
M0
 62
     4
100
AcDbLine
 10
92.944074
 20
187.210785
 11
91.444074
 21
187.210787
  0
LINE
  5
219
100
AcDbEntity
  8
M0
 62
     4
100
AcDbLine
 10
92.94407
 20
185.210785
 11
91.44407
 21
185.210787
  0
ARC
  5
21A
100
AcDbEntity
  8
M0
 62
     4
100
AcDbCircle
 10
92.944071
 20
185.710785
 40
0.5
100
AcDbArc
 50
270.0
 51
359.999909
  0
ARC
  5
21B
100
AcDbEntity
  8
M0
 62
     4
100
AcDbCircle
 10
91.444072
 20
186.210787
 40
1.0
100
AcDbArc
 50
179.999909
 51
270.0
  0
ARC
  5
21C
100
AcDbEntity
  8
M0
 62
     4
100
AcDbCircle
 10
92.944074
 20
187.710785
 40
0.5
100
AcDbArc
 50
270.0
 51
359.999909
  0
ARC
  5
21D
100
AcDbEntity
  8
M0
 62
     4
100
AcDbCircle
 10
91.444075
 20
188.210787
 40
1.0
100
AcDbArc
 50
179.999909
 51
270.0
  0
LINE
  5
21E
100
AcDbEntity
  8
M0
 62
     4
100
AcDbLine
 10
92.944082
 20
192.210785
 11
91.444082
 21
192.210787
  0
ARC
  5
21F
100
AcDbEntity
  8
M0
 62
     4
100
AcDbCircle
 10
91.444083
 20
193.210787
 40
1.0
100
AcDbArc
 50
179.999909
 51
270.0
  0
ARC
  5
220
100
AcDbEntity
  8
M0
 62
     4
100
AcDbCircle
 10
92.944082
 20
192.710785
 40
0.5
100
AcDbArc
 50
270.0
 51
359.999909
  0
LINE
  5
221
100
AcDbEntity
  8
M0
 62
     4
100
AcDbLine
 10
82.444069
 20
184.210801
 11
82.444095
 21
201.01082
  0
LINE
  5
222
100
AcDbEntity
  8
M0
 62
     4
100
AcDbLine
 10
89.386336
 20
188.21079
 11
90.444045
 21
188.210789
  0
LINE
  5
223
100
AcDbEntity
  8
M0
 62
     4
100
AcDbLine
 10
90.444056
 20
195.210789
 11
89.694742
 21
195.210546
  0
LINE
  5
224
100
AcDbEntity
  8
M0
 62
     4
100
AcDbLine
 10
83.193125
 20
195.210556
 11
82.444056
 21
195.210801
  0
LINE
  5
225
100
AcDbEntity
  8
M0
 62
     4
100
AcDbLine
 10
79.444049
 20
191.210806
 11
79.444079
 21
201.010824
  0
LINE
  5
226
100
AcDbEntity
  8
M0
 62
     4
100
AcDbLine
 10
81.444078
 20
190.210803
 11
80.444078
 21
190.210804
  0
ARC
  5
227
100
AcDbEntity
  8
M0
 62
     4
100
AcDbCircle
 10
81.44408
 20
191.210803
 40
1.0
100
AcDbArc
 50
270.0
 51
359.999909
  0
ARC
  5
228
100
AcDbEntity
  8
M0
 62
     4
100
AcDbCircle
 10
80.44408
 20
191.210804
 40
1.0
100
AcDbArc
 50
179.999909
 51
270.0
  0
LINE
  5
229
100
AcDbEntity
  8
M0
 62
     4
100
AcDbLine
 10
71.444113
 20
192.710834
 11
71.44413
 21
203.710819
  0
LINE
  5
22A
100
AcDbEntity
  8
M0
 62
     4
100
AcDbLine
 10
78.385142
 20
195.210808
 11
79.444086
 21
195.210806
  0
LINE
  5
22B
100
AcDbEntity
  8
M0
 62
     4
100
AcDbLine
 10
73.444091
 20
188.210816
 11
73.444091
 21
188.396607
  0
LINE
  5
22C
100
AcDbEntity
  8
M0
 62
     4
100
AcDbLine
 10
72.444099
 20
184.210817
 11
72.444102
 21
195.392702
  0
LINE
  5
22D
100
AcDbEntity
  8
M0
 62
     4
100
AcDbLine
 10
80.444069
 20
184.210804
 11
80.444078
 21
190.210804
  0
LINE
  5
22E
100
AcDbEntity
  8
M0
 62
     4
100
AcDbLine
 10
82.444045
 20
188.210801
 11
83.501372
 21
188.2108
  0
LINE
  5
22F
100
AcDbEntity
  8
M0
 62
     4
100
AcDbLine
 10
72.444108
 20
189.710817
 11
68.944108
 21
189.710823
  0
LINE
  5
230
100
AcDbEntity
  8
M0
 62
     4
100
AcDbLine
 10
72.444111
 20
191.710817
 11
68.944111
 21
191.710823
  0
LINE
  5
231
100
AcDbEntity
  8
M0
 62
     4
100
AcDbLine
 10
71.444114
 20
193.210819
 11
71.44413
 21
203.710819
  0
ARC
  5
232
100
AcDbEntity
  8
M0
 62
     4
100
AcDbCircle
 10
69.944113
 20
192.710821
 40
1.0
100
AcDbArc
 50
179.999909
 51
270.0
  0
ARC
  5
233
100
AcDbEntity
  8
M0
 62
     4
100
AcDbCircle
 10
70.444113
 20
192.71082
 40
1.0
100
AcDbArc
 50
270.0
 51
359.999909
  0
LINE
  5
234
100
AcDbEntity
  8
M0
 62
     4
100
AcDbLine
 10
69.444099
 20
184.210822
 11
69.444108
 21
189.710822
  0
LINE
  5
235
100
AcDbEntity
  8
M0
  6
DIVIDE
 62
     4
100
AcDbLine
 10
92.744104
 20
204.210785
 11
90.744104
 21
204.210788
  0
LINE
  5
236
100
AcDbEntity
  8
M0
  6
DIVIDE
 62
     4
100
AcDbLine
 10
92.744104
 20
204.210785
 11
92.744112
 21
209.610794
  0
LINE
  5
237
100
AcDbEntity
  8
M0
  6
DIVIDE
 62
     4
100
AcDbLine
 10
90.744104
 20
204.210803
 11
90.744112
 21
209.610797
  0
LINE
  5
238
100
AcDbEntity
  8
M0
  6
DIVIDE
 62
     4
100
AcDbLine
 10
92.744112
 20
209.610794
 11
90.744112
 21
209.610797
  0
ARC
  5
239
100
AcDbEntity
  8
M0
 62
     4
100
AcDbCircle
 10
72.944128
 20
202.210816
 40
1.499996
100
AcDbArc
 50
89.999327
 51
119.925452
  0
LINE
  5
23A
100
AcDbEntity
  8
M0
 62
     4
100
AcDbLine
 10
71.294118
 20
211.210819
 11
69.794115
 21
209.710837
  0
LINE
  5
23B
100
AcDbEntity
  8
M0
 62
     4
100
AcDbLine
 10
71.294118
 20
211.210819
 11
69.79412
 21
212.710821
  0
LINE
  5
23C
100
AcDbEntity
  8
M0
 62
     4
100
AcDbLine
 10
68.94414
 20
209.710823
 11
68.944145
 21
213.210823
  0
LINE
  5
23D
100
AcDbEntity
  8
M0
  6
DIVIDE
 62
     4
100
AcDbLine
 10
77.294138
 20
224.210809
 11
75.294138
 21
224.210813
  0
LINE
  5
23E
100
AcDbEntity
  8
M0
  6
DIVIDE
 62
     4
100
AcDbLine
 10
77.29413
 20
218.810816
 11
75.29413
 21
218.810819
  0
LINE
  5
23F
100
AcDbEntity
  8
M0
 62
     4
100
AcDbLine
 10
77.794132
 20
220.210809
 11
77.794139
 21
224.710809
  0
LINE
  5
240
100
AcDbEntity
  8
M0
 62
     4
100
AcDbLine
 10
89.58913
 20
220.21079
 11
89.589137
 21
224.71079
  0
LINE
  5
241
100
AcDbEntity
  8
M0
 62
     4
100
AcDbLine
 10
71.294154
 20
224.710785
 11
71.294146
 21
209.710544
  0
LINE
  5
242
100
AcDbEntity
  8
M0
 62
     4
100
AcDbLine
 10
69.794115
 20
209.710547
 11
68.944155
 21
209.710792
  0
LINE
  5
243
100
AcDbEntity
  8
M0
 62
     4
100
AcDbLine
 10
69.794135
 20
212.71054
 11
68.94416
 21
212.710785
  0
LINE
  5
244
100
AcDbEntity
  8
M0
 62
     4
100
AcDbLine
 10
71.294113
 20
207.960819
 11
68.944137
 21
207.960823
  0
LINE
  5
245
100
AcDbEntity
  8
M0
 62
     4
100
AcDbLine
 10
71.294123
 20
214.460819
 11
68.944147
 21
214.460823
  0
LINE
  5
246
100
AcDbEntity
  8
M0
 62
     4
100
AcDbLine
 10
55.44414
 20
209.625059
 11
55.444143
 21
211.796644
  0
LINE
  5
247
100
AcDbEntity
  8
M0
 62
     4
100
AcDbLine
 10
59.94414
 20
209.625052
 11
59.944143
 21
211.796637
  0
LINE
  5
248
100
AcDbEntity
  8
M0
 62
     4
100
AcDbLine
 10
65.94414
 20
209.710827
 11
65.944143
 21
211.710827
  0
LINE
  5
249
100
AcDbEntity
  8
M0
  6
DIVIDE
 62
     4
100
AcDbLine
 10
77.29413
 20
218.810816
 11
77.294138
 21
224.210809
  0
LINE
  5
24A
100
AcDbEntity
  8
M0
  6
DIVIDE
 62
     4
100
AcDbLine
 10
75.29413
 20
218.810819
 11
75.294138
 21
224.210813
  0
ARC
  5
24B
100
AcDbEntity
  8
M0
 62
     4
100
AcDbCircle
 10
40.444117
 20
195.210868
 40
2.249995
100
AcDbArc
 50
179.999909
 51
359.999909
  0
LINE
  5
24C
100
AcDbEntity
  8
M0
  6
DASHDOT
 62
     4
100
AcDbLine
 10
40.444121
 20
197.716483
 11
40.444109
 21
190.460868
  0
LINE
  5
24D
100
AcDbEntity
  8
M0
 62
     4
100
AcDbLine
 10
52.944111
 20
191.710848
 11
52.944115
 21
194.210848
  0
ARC
  5
24E
100
AcDbEntity
  8
M0
 62
     4
100
AcDbCircle
 10
65.444117
 20
195.210828
 40
2.249995
100
AcDbArc
 50
179.999909
 51
359.999909
  0
LINE
  5
24F
100
AcDbEntity
  8
M0
  6
DASHDOT
 62
     4
100
AcDbLine
 10
65.444124
 20
199.960828
 11
65.444109
 21
190.460828
  0
LINE
  5
250
100
AcDbEntity
  8
M0
 62
     4
100
AcDbLine
 10
55.944133
 20
205.710843
 11
55.542934
 21
205.7106
  0
LINE
  5
251
100
AcDbEntity
  8
M0
 62
     4
100
AcDbLine
 10
43.444133
 20
205.710863
 11
43.042934
 21
205.71062
  0
ARC
  5
252
100
AcDbEntity
  8
M0
 62
     4
100
AcDbCircle
 10
33.894143
 20
204.210878
 40
1.499996
100
AcDbArc
 50
50.75881
 51
68.489749
  0
ARC
  5
253
100
AcDbEntity
  8
M0
 62
     4
100
AcDbCircle
 10
43.994119
 20
204.210862
 40
1.499996
100
AcDbArc
 50
111.509527
 51
129.35899
  0
ARC
  5
254
100
AcDbEntity
  8
M0
 62
     4
100
AcDbCircle
 10
46.394174
 20
204.210858
 40
1.499996
100
AcDbArc
 50
50.759631
 51
68.489749
  0
ARC
  5
255
100
AcDbEntity
  8
M0
 62
     4
100
AcDbCircle
 10
68.994119
 20
204.210823
 40
1.499996
100
AcDbArc
 50
111.509527
 51
129.359811
  0
ARC
  5
256
100
AcDbEntity
  8
M0
 62
     4
100
AcDbCircle
 10
58.894143
 20
204.210839
 40
1.499996
100
AcDbArc
 50
50.759631
 51
68.489749
  0
LINE
  5
257
100
AcDbEntity
  8
M0
 62
     4
100
AcDbLine
 10
68.444133
 20
205.710823
 11
68.042904
 21
205.71058
  0
LINE
  5
258
100
AcDbEntity
  8
M0
  6
DASHDOT
 62
     4
100
AcDbLine
 10
91.74412
 20
214.610796
 11
91.744109
 21
207.810793
  0
LINE
  5
259
100
AcDbEntity
  8
M0
 62
     4
100
AcDbLine
 10
79.386351
 20
188.210806
 11
80.444045
 21
188.210804
  0
LINE
  5
25A
100
AcDbEntity
  8
M0
 62
     4
100
AcDbLine
 10
59.19411
 20
190.710838
 11
59.194117
 21
195.210838
  0
LINE
  5
25B
100
AcDbEntity
  8
M0
 62
     4
100
AcDbLine
 10
51.94411
 20
190.71085
 11
30.944079
 21
190.710883
  0
LINE
  5
25C
100
AcDbEntity
  8
M0
 62
     4
100
AcDbLine
 10
56.444118
 20
196.210842
 11
54.944118
 21
196.210845
  0
ARC
  5
25D
100
AcDbEntity
  8
M0
 62
     4
100
AcDbCircle
 10
54.944115
 20
194.210845
 40
1.999995
100
AcDbArc
 50
89.999472
 51
179.999909
  0
ARC
  5
25E
100
AcDbEntity
  8
M0
 62
     4
100
AcDbCircle
 10
51.944111
 20
191.71085
 40
1.0
100
AcDbArc
 50
270.0
 51
359.999909
  0
ARC
  5
25F
100
AcDbEntity
  8
M0
 62
     4
100
AcDbCircle
 10
58.194117
 20
195.21084
 40
1.0
100
AcDbArc
 50
359.999909
 51
401.40896
  0
LINE
  5
260
100
AcDbEntity
  8
M0
 62
     4
100
AcDbLine
 10
32.944165
 20
225.71088
 11
30.944135
 21
225.710883
  0
ARC
  5
261
100
AcDbEntity
  8
M0
 62
     4
100
AcDbCircle
 10
32.944163
 20
224.71088
 40
1.0
100
AcDbArc
 50
359.999909
 51
449.999035
  0
LINE
  5
262
100
AcDbEntity
  8
M0
 62
     4
100
AcDbLine
 10
93.444138
 20
227.710784
 11
84.944138
 21
227.710797
  0
LINE
  5
263
100
AcDbEntity
  8
M0
 62
     4
100
AcDbLine
 10
83.944135
 20
225.910811
 11
83.944136
 21
226.710799
  0
LINE
  5
264
100
AcDbEntity
  8
M0
 62
     4
100
AcDbLine
 10
83.944136
 20
225.710811
 11
58.94418
 21
225.710851
  0
ARC
  5
265
100
AcDbEntity
  8
M0
 62
     4
100
AcDbCircle
 10
84.944136
 20
226.710797
 40
1.0
100
AcDbArc
 50
90.0
 51
179.999909
  0
LINE
  5
266
100
AcDbEntity
  8
M0
 62
     4
100
AcDbLine
 10
56.44418
 20
225.710794
 11
46.444165
 21
225.710565
  0
LINE
  5
267
100
AcDbEntity
  8
M0
 62
     4
100
AcDbLine
 10
84.594133
 20
218.660856
 11
84.594133
 21
219.160856
  0
LINE
  5
268
100
AcDbEntity
  8
M0
 62
     4
100
AcDbLine
 10
86.094133
 20
218.660854
 11
84.594133
 21
218.660856
  0
LINE
  5
269
100
AcDbEntity
  8
M0
 62
     4
100
AcDbLine
 10
86.094133
 20
219.160854
 11
84.594133
 21
219.160856
  0
LINE
  5
26A
100
AcDbEntity
  8
M0
 62
     4
100
AcDbLine
 10
70.444104
 20
187.21082
 11
70.444108
 21
189.71082
  0
LINE
  5
26B
100
AcDbEntity
  8
M0
 62
     4
100
AcDbLine
 10
72.444118
 20
186.210817
 11
69.444103
 21
186.210822
  0
ARC
  5
26C
100
AcDbEntity
  8
M0
 62
     4
100
AcDbCircle
 10
71.444104
 20
187.210819
 40
1.0
100
AcDbArc
 50
179.999909
 51
270.0
  0
ARC
  5
26D
100
AcDbEntity
  8
M0
 62
     4
100
AcDbCircle
 10
71.444104
 20
187.210819
 40
1.0
100
AcDbArc
 50
270.0
 51
359.999909
  0
LINE
  5
26E
100
AcDbEntity
  8
M0
 62
     4
100
AcDbLine
 10
86.094131
 20
217.756145
 11
86.094133
 21
218.660854
  0
LINE
  5
26F
100
AcDbEntity
  8
M0
 62
     4
100
AcDbLine
 10
86.094133
 20
219.160854
 11
86.094135
 21
220.065578
  0
TEXT
  5
270
100
AcDbEntity
  8
M0
 62
     4
100
AcDbText
 10
92.744148
 20
204.325522
 40
1.800003
  1
ＡＵＴＯ
 50
450.000566
 41
0.63658
  7
STANDARD
100
AcDbText
  0
TEXT
  5
271
100
AcDbEntity
  8
M0
 62
     4
100
AcDbText
 10
77.294174
 20
218.925507
 40
1.800003
  1
ＴＲＩＰ
 50
450.000566
 41
0.63658
  7
STANDARD
100
AcDbText
  0
CIRCLE
  5
272
100
AcDbEntity
  8
M0
 62
     4
100
AcDbCircle
 10
91.744115
 20
211.210787
 40
0.749999
  0
LINE
  5
273
100
AcDbEntity
  8
M0
 62
     4
100
AcDbLine
 10
88.094163
 20
218.910866
 11
86.094131
 21
217.756145
  0
LINE
  5
274
100
AcDbEntity
  8
M0
 62
     4
100
AcDbLine
 10
88.094163
 20
218.910866
 11
86.094135
 21
220.065578
  0
LINE
  5
275
100
AcDbEntity
  8
M0
 62
     4
100
AcDbLine
 10
34.842937
 20
205.710632
 11
34.444133
 21
205.710877
  0
LINE
  5
276
100
AcDbEntity
  8
M0
 62
     4
100
AcDbLine
 10
47.342937
 20
205.710613
 11
46.944133
 21
205.710857
  0
LINE
  5
277
100
AcDbEntity
  8
M0
 62
     4
100
AcDbLine
 10
59.842907
 20
205.710593
 11
59.444133
 21
205.710838
  0
ARC
  5
278
100
AcDbEntity
  8
M0
 62
     4
100
AcDbCircle
 10
56.491647
 20
204.210598
 40
1.499994
100
AcDbArc
 50
111.509527
 51
129.239737
  0
LINE
  5
279
100
AcDbEntity
  8
M0
 62
     4
100
AcDbLine
 10
73.944504
 20
227.706127
 11
69.944504
 21
227.706134
  0
ARC
  5
27A
100
AcDbEntity
  8
M0
 62
     4
100
AcDbCircle
 10
69.944502
 20
226.706134
 40
1.0
100
AcDbArc
 50
89.999035
 51
179.999909
  0
ARC
  5
27B
100
AcDbEntity
  8
M0
 62
     4
100
AcDbCircle
 10
73.944502
 20
226.706127
 40
1.0
100
AcDbArc
 50
359.999909
 51
449.999035
  0
LINE
  5
27C
100
AcDbEntity
  8
M0
 62
     4
100
AcDbLine
 10
68.944502
 20
226.706135
 11
68.944501
 21
225.706135
  0
LINE
  5
27D
100
AcDbEntity
  8
M0
 62
     4
100
AcDbLine
 10
74.944502
 20
226.706126
 11
74.944501
 21
225.706126
  0
LINE
  5
27E
100
AcDbEntity
  8
M0
 62
     4
100
AcDbLine
 10
44.944183
 20
227.710784
 11
45.444183
 21
227.710784
  0
LINE
  5
27F
100
AcDbEntity
  8
M0
 62
     4
100
AcDbLine
 10
44.344223
 20
227.510833
 11
42.194183
 21
227.510865
  0
LINE
  5
280
100
AcDbEntity
  8
M0
 62
     4
100
AcDbLine
 10
71.294146
 20
209.710544
 11
71.294106
 21
203.710819
  0
LINE
  5
281
100
AcDbEntity
  8
M0
 62
     4
100
AcDbLine
 10
73.944146
 20
203.710815
 11
68.94413
 21
203.710823
  0
LINE
  5
282
100
AcDbEntity
  8
M0
100
AcDbLine
 10
119.254664
 20
207.961031
 11
120.75131
 21
207.961031
  0
LINE
  5
283
100
AcDbEntity
  8
M0
100
AcDbLine
 10
120.751184
 20
214.461031
 11
119.254664
 21
214.461031
  0
LINE
  5
284
100
AcDbEntity
  8
M0
100
AcDbLine
 10
118.754664
 20
213.960786
 11
118.754664
 21
208.461031
  0
ARC
  5
285
100
AcDbEntity
  8
M0
100
AcDbCircle
 10
119.254678
 20
213.960786
 40
0.5
100
AcDbArc
 50
90.0
 51
180.0
  0
ARC
  5
286
100
AcDbEntity
  8
M0
100
AcDbCircle
 10
119.254678
 20
208.461031
 40
0.5
100
AcDbArc
 50
179.999891
 51
270.0
  0
LINE
  5
287
100
AcDbEntity
  8
M0
  6
DASHDOT
100
AcDbLine
 10
110.94163
 20
211.210787
 11
129.648661
 21
211.210787
  0
CIRCLE
  5
288
100
AcDbEntity
  8
M0
100
AcDbCircle
 10
81.293076
 20
211.211028
 40
8.299999
  0
LINE
  5
289
100
AcDbEntity
  8
M0
  6
DASHDOT
100
AcDbLine
 10
72.031765
 20
211.211028
 11
93.144482
 21
211.211028
  0
LINE
  5
28A
100
AcDbEntity
  8
M0
  6
DASHDOT
100
AcDbLine
 10
81.293076
 20
195.403522
 11
81.293076
 21
227.018535
  0
LINE
  5
28B
100
AcDbEntity
  8
M0
 62
    34
100
AcDbLine
 10
71.744153
 20
206.210786
 11
71.744143
 21
221.810771
  0
LINE
  5
28C
100
AcDbEntity
  8
M0
 62
    34
100
AcDbLine
 10
68.444138
 20
225.710769
 11
68.444138
 21
224.510769
  0
LINE
  5
28D
100
AcDbEntity
  8
M0
 62
    34
100
AcDbLine
 10
68.444152
 20
203.510772
 11
68.444152
 21
202.310775
  0
LINE
  5
28E
100
AcDbEntity
  8
M0
 62
    34
100
AcDbLine
 10
68.444152
 20
203.510772
 11
73.944152
 21
203.510775
  0
LINE
  5
28F
100
AcDbEntity
  8
M0
 62
    34
100
AcDbLine
 10
68.444138
 20
224.510769
 11
73.944138
 21
224.510772
  0
LINE
  5
290
100
AcDbEntity
  8
M0
 62
    34
100
AcDbLine
 10
79.244153
 20
201.010778
 11
83.244153
 21
201.010781
  0
LINE
  5
291
100
AcDbEntity
  8
M0
 62
    34
100
AcDbLine
 10
85.444152
 20
202.310785
 11
83.244153
 21
201.010781
  0
LINE
  5
292
100
AcDbEntity
  8
M0
 62
    34
100
AcDbLine
 10
79.244153
 20
201.010778
 11
76.444152
 21
202.31078
  0
LINE
  5
293
100
AcDbEntity
  8
M0
 62
    34
100
AcDbLine
 10
76.444152
 20
202.31078
 11
68.444152
 21
202.310775
  0
LINE
  5
294
100
AcDbEntity
  8
M0
 62
    34
100
AcDbLine
 10
92.944152
 20
202.31079
 11
85.444152
 21
202.310785
  0
ARC
  5
295
100
AcDbEntity
  8
M0
 62
    34
100
AcDbCircle
 10
92.944152
 20
202.81079
 40
0.5
100
AcDbArc
 50
270.0
 51
360.000036
  0
LINE
  5
296
100
AcDbEntity
  8
M0
 62
    34
100
AcDbLine
 10
93.444152
 20
202.81079
 11
93.444138
 21
225.210784
  0
LINE
  5
297
100
AcDbEntity
  8
M0
 62
    34
100
AcDbLine
 10
92.944138
 20
225.710784
 11
68.444138
 21
225.710769
  0
ARC
  5
298
100
AcDbEntity
  8
M0
 62
    34
100
AcDbCircle
 10
92.944138
 20
225.210784
 40
0.5
100
AcDbArc
 50
1.821229E-006
 51
90.0
  0
LINE
  5
299
100
AcDbEntity
  8
M0
 62
    34
100
AcDbLine
 10
73.944152
 20
203.510775
 11
73.944151
 21
205.210787
  0
LINE
  5
29A
100
AcDbEntity
  8
M0
 62
    34
100
AcDbLine
 10
71.744153
 20
206.210786
 11
72.94415
 21
206.210787
  0
ARC
  5
29B
100
AcDbEntity
  8
M0
 62
    34
100
AcDbCircle
 10
72.944151
 20
205.210787
 40
1.0
100
AcDbArc
 50
3.597218E-005
 51
89.999162
  0
LINE
  5
29C
100
AcDbEntity
  8
M0
 62
    34
100
AcDbLine
 10
71.744143
 20
221.810771
 11
72.94414
 21
221.810772
  0
LINE
  5
29D
100
AcDbEntity
  8
M0
 62
    34
100
AcDbLine
 10
73.94414
 20
222.810772
 11
73.944138
 21
224.510772
  0
ARC
  5
29E
100
AcDbEntity
  8
M0
 62
    34
100
AcDbCircle
 10
72.94414
 20
222.810772
 40
1.0
100
AcDbArc
 50
270.0
 51
360.000036
  0
CIRCLE
  5
29F
100
AcDbEntity
  8
M0
 62
    34
100
AcDbCircle
 10
81.244147
 20
211.010777
 40
4.25
  0
LINE
  5
2A0
100
AcDbEntity
  8
M0
 62
    34
100
AcDbLine
 10
117.751323
 20
202.510492
 11
117.751323
 21
203.710492
  0
LINE
  5
2A1
100
AcDbEntity
  8
M0
 62
    34
100
AcDbLine
 10
117.751323
 20
224.710481
 11
117.751323
 21
225.910478
  0
LINE
  5
2A2
100
AcDbEntity
  8
M0
 62
    34
100
AcDbLine
 10
133.251309
 20
202.510492
 11
117.751323
 21
202.510492
  0
LINE
  5
2A3
100
AcDbEntity
  8
M0
 62
    34
100
AcDbLine
 10
133.251309
 20
225.910478
 11
117.751323
 21
225.910478
  0
LINE
  5
2A4
100
AcDbEntity
  8
M0
 62
    34
100
AcDbLine
 10
133.251309
 20
203.710492
 11
129.451309
 21
203.710492
  0
LINE
  5
2A5
100
AcDbEntity
  8
M0
 62
    34
100
AcDbLine
 10
133.251309
 20
203.710492
 11
133.251309
 21
202.510492
  0
LINE
  5
2A6
100
AcDbEntity
  8
M0
 62
    34
100
AcDbLine
 10
120.751309
 20
204.410492
 11
124.90131
 21
204.410492
  0
LINE
  5
2A7
100
AcDbEntity
  8
M0
 62
    34
100
AcDbLine
 10
120.751309
 20
224.010485
 11
124.90131
 21
224.010485
  0
LINE
  5
2A8
100
AcDbEntity
  8
M0
 62
    34
100
AcDbLine
 10
120.751309
 20
224.010485
 11
120.751309
 21
204.410492
  0
LINE
  5
2A9
100
AcDbEntity
  8
M0
 62
    34
100
AcDbLine
 10
129.451309
 20
226.710481
 11
129.451309
 21
202.510492
  0
LINE
  5
2AA
100
AcDbEntity
  8
M0
 62
    34
100
AcDbLine
 10
133.251309
 20
225.910478
 11
133.251309
 21
224.710481
  0
LINE
  5
2AB
100
AcDbEntity
  8
M0
 62
    34
100
AcDbLine
 10
120.451309
 20
225.910478
 11
120.451309
 21
227.210481
  0
LINE
  5
2AC
100
AcDbEntity
  8
M0
 62
    34
100
AcDbLine
 10
120.451309
 20
227.210481
 11
128.951309
 21
227.210481
  0
LINE
  5
2AD
100
AcDbEntity
  8
M0
 62
    34
100
AcDbLine
 10
133.251309
 20
224.710481
 11
129.451309
 21
224.710481
  0
LINE
  5
2AE
100
AcDbEntity
  8
M0
 62
    34
100
AcDbLine
 10
124.90131
 20
203.710492
 11
117.751323
 21
203.710492
  0
LINE
  5
2AF
100
AcDbEntity
  8
M0
 62
    34
100
AcDbLine
 10
124.90131
 20
224.710481
 11
117.751323
 21
224.710481
  0
ARC
  5
2B0
100
AcDbEntity
  8
M0
 62
    34
100
AcDbCircle
 10
124.90131
 20
224.360491
 40
0.35
100
AcDbArc
 50
270.0
 51
360.0
  0
ARC
  5
2B1
100
AcDbEntity
  8
M0
 62
    34
100
AcDbCircle
 10
124.90131
 20
224.360491
 40
0.35
100
AcDbArc
 50
0.0
 51
90.0
  0
ARC
  5
2B2
100
AcDbEntity
  8
M0
 62
    34
100
AcDbCircle
 10
124.90131
 20
204.060492
 40
0.35
100
AcDbArc
 50
270.0
 51
360.0
  0
ARC
  5
2B3
100
AcDbEntity
  8
M0
 62
    34
100
AcDbCircle
 10
124.90131
 20
204.060492
 40
0.35
100
AcDbArc
 50
0.0
 51
90.0
  0
ARC
  5
2B4
100
AcDbEntity
  8
M0
 62
    34
100
AcDbCircle
 10
128.951309
 20
226.710481
 40
0.5
100
AcDbArc
 50
0.0
 51
90.0
  0
LINE
  5
2B5
100
AcDbEntity
  8
M1
 62
     2
100
AcDbLine
 10
10.0
 20
10.0
 11
10.0
 21
285.0
  0
LINE
  5
2B6
100
AcDbEntity
  8
M1
 62
     2
100
AcDbLine
 10
10.0
 20
285.0
 11
200.0
 21
285.0
  0
LINE
  5
2B7
100
AcDbEntity
  8
M1
 62
     2
100
AcDbLine
 10
200.0
 20
285.0
 11
200.0
 21
10.0
  0
LINE
  5
2B8
100
AcDbEntity
  8
M1
 62
     2
100
AcDbLine
 10
200.0
 20
10.0
 11
10.0
 21
10.0
  0
LINE
  5
2B9
100
AcDbEntity
  8
M1
 62
     2
100
AcDbLine
 10
200.0
 20
20.0
 11
100.0
 21
20.0
  0
LINE
  5
2BA
100
AcDbEntity
  8
M1
 62
     2
100
AcDbLine
 10
200.0
 20
30.0
 11
100.0
 21
30.0
  0
LINE
  5
2BB
100
AcDbEntity
  8
M1
 62
     2
100
AcDbLine
 10
200.0
 20
40.0
 11
100.0
 21
40.0
  0
LINE
  5
2BC
100
AcDbEntity
  8
M1
 62
     2
100
AcDbLine
 10
100.0
 20
10.0
 11
100.0
 21
40.0
  0
TEXT
  5
2BD
100
AcDbEntity
  8
M1
 62
     2
100
AcDbText
 10
102.5
 20
12.5
 40
5.0
  1
適　用；
  7
STANDARD
100
AcDbText
  0
TEXT
  5
2BE
100
AcDbEntity
  8
M1
 62
     2
100
AcDbText
 10
102.5
 20
32.5
 40
5.0
  1
登録名：
  7
STANDARD
100
AcDbText
  0
TEXT
  5
2BF
100
AcDbEntity
  8
M1
 62
     2
100
AcDbText
 10
126.5
 20
32.5
 40
5.0
  1
ＤＭＴＲ２０Ｂ１ＥＲ００
 41
0.5
  7
STANDARD
100
AcDbText
  0
TEXT
  5
2C0
100
AcDbEntity
  8
M1
 62
     2
100
AcDbText
 10
102.5
 20
22.5
 40
5.0
  1
形　式；
  7
STANDARD
100
AcDbText
  0
TEXT
  5
2C1
100
AcDbEntity
  8
M1
 62
     2
100
AcDbText
 10
126.5
 20
22.5
 40
5.0
  1
ＴＲ２０Ｂ－１Ｅ，ＴＲ２０Ｂ－１ＥＦ，ＴＲ２０Ｂ－２Ｅ，ＴＲ２０Ｂ－２ＥＦ
 41
0.25
  7
STANDARD
100
AcDbText
  0
LINE
  5
2C2
100
AcDbEntity
  8
DN0
100
AcDbLine
 10
51.835194
 20
94.71787
 11
70.095195
 21
94.71787
  0
TEXT
  5
2C3
100
AcDbEntity
  8
DN0
100
AcDbText
 10
52.340194
 20
95.16787
 40
4.5
  1
せん孔図
 41
0.833333
  7
STANDARD
100
AcDbText
  0
ENDSEC
  0
SECTION
  2
OBJECTS
  0
DICTIONARY
  5
C
100
AcDbDictionary
  3
ACAD_GROUP
350
D
  3
ACAD_MLINESTYLE
350
E
  0
DICTIONARY
  5
D
102
{ACAD_REACTORS
330
C
102
}
100
AcDbDictionary
  0
DICTIONARY
  5
E
102
{ACAD_REACTORS
330
C
102
}
100
AcDbDictionary
  3
STANDARD
350
13
  0
MLINESTYLE
  5
13
102
{ACAD_REACTORS
330
E
102
}
100
AcDbMlineStyle
  2
STANDARD
 70
     0
  3

 62
     0
 51
90.0
 52
90.0
 71
     2
 49
0.5
 62
   256
  6
BYLAYER
 49
-0.5
 62
   256
  6
BYLAYER
  0
ENDSEC
  0
EOF
