  0
SECTION
  2
HEADER
  9
$ACADVER
  1
AC1014
  9
$INSBASE
 10
0.000000
 20
0.000000
 30
0.0
  9
$VIEWCTR
 10
7.531722
 20
4.5
  9
$VIEWSIZE
 40
9.0
  9
$SNAPMODE
 70
     0
  9
$SNAPUNIT
 10
1.0
 20
1.0
  9
$SNAPBASE
 10
0.0
 20
0.0
  9
$SNAPANG
 50
0.0
  9
$SNAPSTYLE
 70
     0
  9
$SNAPISOPAIR
 70
     0
  9
$GRIDMODE
 70
     0
  9
$GRIDUNIT
 10
0.0
 20
0.0
  9
$ORTHOMODE
 70
     0
  9
$REGENMODE
 70
     1
  9
$FILLMODE
 70
     1
  9
$QTEXTMODE
 70
     0
  9
$DRAGMODE
 70
     2
  9
$LTSCALE
  40
     1.000000
  9
$OSMODE
 70
     0
  9
$ATTMODE
 70
     1
  9
$TEXTSIZE
 40
0.2
  9
$TRACEWID
 40
0.05
  9
$TEXTSTYLE
  7
STANDARD
  9
$CELTYPE
  6
BYLAYER
  9
$CECOLOR
 62
   256
  9
$DIMSCALE
 40
1.0
  9
$DIMASZ
 40
0.18
  9
$DIMEXO
 40
0.0625
  9
$DIMDLI
 40
0.38
  9
$DIMRND
 40
0.0
  9
$DIMDLE
 40
0.0
  9
$DIMEXE
 40
0.18
  9
$DIMTP
 40
0.0
  9
$DIMTM
 40
0.0
  9
$DIMTXT
 40
0.18
  9
$DIMCEN
 40
0.09
  9
$DIMTSZ
 40
0.0
  9
$DIMTOL
 70
     0
  9
$DIMLIM
 70
     0
  9
$DIMTIH
 70
     1
  9
$DIMTOH
 70
     1
  9
$DIMSE1
 70
     0
  9
$DIMSE2
 70
     0
  9
$DIMTAD
 70
     0
  9
$DIMZIN
 70
     0
  9
$DIMBLK
  1

  9
$LUNITS
 70
     2
  9
$LUPREC
 70
     4
  9
$AXISMODE
 70
     0
  9
$AXISUNIT
 10
0.0
 20
0.0
  9
$SKETCHINC
 40
0.1
  9
$FILLETRAD
 40
0.0
  9
$AUNITS
 70
     0
  9
$AUPREC
 70
     0
  9
$MENU
  1
ACAD
  9
$ELEVATION
 40
0.0
  9
$THICKNESS
 40
0.0
  9
$VIEWDIR
 10
0.0
 20
0.0
 30
1.0
  9
$LIMCHECK
 70
     0
  9
$BLIPMODE
 70
     1
  9
$CHAMFERA
 40
0.0
  9
$CHAMFERB
 40
0.0
  9
$FASTZOOM
 70
     1
  9
$SKPOLY
 70
     0
  9
$TDCREATE
 40
0000000.0000000000
  9
$TDUPDATE
 40
0000000.0000000000
  9
$TDINDWG
 40
0.0000000000
  9
$TDUSRTIMER
 40
0.0000000000
  9
$USRTIMER
 70
     1
  9
$ANGBASE
 50
0.0
  9
$ANGDIR
 70
     0
  9
$PDMODE
 70
     0
  9
$PDSIZE
 40
0.0
  9
$PLINEWID
 40
0.0
  9
$COORDS
 70
     0
  9
$USERI1
 70
     0
  9
$USERI2
 70
     0
  9
$USERI3
 70
     0
  9
$USERI4
 70
     0
  9
$USERI5
 70
     0
  9
$USERR1
 40
0.0
  9
$USERR2
 40
0.0
  9
$USERR3
 40
0.0
  9
$USERR4
 40
0.0
  9
$USERR5
 40
0.0
  9
$CLAYER
  8
M0
  9
$EXTMIN
 10
25.0
 20
25.0
  9
$EXTMAX
 10
499.999993
 20
712.499989
  9
$LIMMIN
 10
0.0
 20
0.0
  9
$LIMMAX
 10
210.0
 20
297.0
  9
$HANDSEED
  5
471
  0
ENDSEC
  0
SECTION
  2
CLASSES
  0
CLASS
  1
LWPOLYLINE
  2
AcDbPolyline
  3
"AutoCAD"
 90
        0
280
     0
281
     1
  0
ENDSEC
  0
SECTION
  2
TABLES
  0
TABLE
  2
VPORT
  5
8
100
AcDbSymbolTable
 70
     2
  0
VPORT
  5
14
100
AcDbSymbolTableRecord
100
AcDbViewportTableRecord
  2
*ACTIVE
 70
     0
 10
0.0
 20
0.0
 11
1.0
 21
1.0
 12
484.0
 22
297.0
 13
0.0
 23
0.0
 14
1.0
 24
1.0
 15
0.0
 25
0.0
 16
0.0
 26
0.0
 36
1.0
 17
0.0
 27
0.0
 37
0.0
 40
594.0
 41
2.0
 42
50.0
 43
0.0
 44
0.0
 50
0.0
 51
0.0
 71
     0
 72
   100
 73
     1
 74
     1
 75
     0
 76
     0
 77
     0
 78
     0
  0
ENDTAB
  0
TABLE
  2
LTYPE
  5
5
100
AcDbSymbolTable
 70
     5
  0
LTYPE
  5
15
100
AcDbSymbolTableRecord
100
AcDbLinetypeTableRecord
  2
BYBLOCK
 70
     0
  3

 72
    65
 73
     0
 40
0.0
  0
LTYPE
  5
16
100
AcDbSymbolTableRecord
100
AcDbLinetypeTableRecord
  2
BYLAYER
 70
     0
  3

 72
    65
 73
     0
 40
0.0
  0
LTYPE
  5
17
100
AcDbSymbolTableRecord
100
AcDbLinetypeTableRecord
  2
CONTINUOUS
 70
    64
  3
Solid line
 72
    65
 73
     0
 40
0.0
  0
LTYPE
  5
18
100
AcDbSymbolTableRecord
100
AcDbLinetypeTableRecord
  2
DASHED
 70
    64
  3
__ __ __ __ __ __ __ __ __ __ __ __ __ __ __ __
 72
    65
 73
     2
 40
0.75
 49
0.5
 74
     0
 49
-0.25
 74
     0
  0
LTYPE
  5
19
100
AcDbSymbolTableRecord
100
AcDbLinetypeTableRecord
  2
DASHDOT
 70
    64
  3
__ . __ . __ . __ . __ . __ . __ . __ . __ . __
 72
    65
 73
     4
 40
1.0
 49
0.5
 74
     0
 49
-0.25
 74
     0
 49
0.0
 74
     0
 49
-0.25
 74
     0
  0
LTYPE
  5
1A
100
AcDbSymbolTableRecord
100
AcDbLinetypeTableRecord
  2
DIVIDE
 70
    64
  3
____ . . ____ . . ____ . . ____ . . ____ . . __
 72
    65
 73
     6
 40
1.25
 49
0.5
 74
     0
 49
-0.25
 74
     0
 49
0.0
 74
     0
 49
-0.25
 74
     0
 49
0.0
 74
     0
 49
-0.25
 74
     0
  0
LTYPE
  5
1B
100
AcDbSymbolTableRecord
100
AcDbLinetypeTableRecord
  2
DOT
 70
    64
  3
. . . . . . . . . . . . . . . . . . . . . . . .
 72
    65
 73
     2
 40
0.25
 49
0.0
 74
     0
 49
-0.25
 74
     0
  0
ENDTAB
  0
TABLE
  2
LAYER
  5
2
100
AcDbSymbolTable
 70
   102
  0
LAYER
  5
F
100
AcDbSymbolTableRecord
100
AcDbLayerTableRecord
  2
0
 70
     0
 62
     7
  6
CONTINUOUS
  0
LAYER
  5
1C
100
AcDbSymbolTableRecord
100
AcDbLayerTableRecord
  2
DEFPOINTS
 70
     0
 62
     7
  6
CONTINUOUS
  0
LAYER
  5
1D
100
AcDbSymbolTableRecord
100
AcDbLayerTableRecord
  2
M0
 70
     0
 62
     3
  6
CONTINUOUS
  0
LAYER
  5
1E
100
AcDbSymbolTableRecord
100
AcDbLayerTableRecord
  2
M1
 70
     0
 62
     3
  6
CONTINUOUS
  0
LAYER
  5
1F
100
AcDbSymbolTableRecord
100
AcDbLayerTableRecord
  2
DD0
 70
     0
 62
     4
  6
CONTINUOUS
  0
LAYER
  5
20
100
AcDbSymbolTableRecord
100
AcDbLayerTableRecord
  2
DN0
 70
     0
 62
     2
  6
CONTINUOUS
  0
ENDTAB
  0
TABLE
  2
STYLE
  5
3
100
AcDbSymbolTable
 70
     2
  0
STYLE
  5
10
100
AcDbSymbolTableRecord
100
AcDbTextStyleTableRecord
  2
STANDARD
 70
     0
 40
0.0
 41
1.0
 50
0.0
 71
     0
 42
0.2
  3
txt
  4
BIGFONT
  0
ENDTAB
  0
TABLE
  2
VIEW
  5
6
100
AcDbSymbolTable
 70
     0
  0
ENDTAB
  0
TABLE
  2
UCS
  5
7
100
AcDbSymbolTable
 70
     0
  0
ENDTAB
  0
TABLE
  2
APPID
  5
9
100
AcDbSymbolTable
 70
     1
  0
APPID
  5
11
100
AcDbSymbolTableRecord
100
AcDbRegAppTableRecord
  2
ACAD
 70
     0
  0
ENDTAB
  0
TABLE
  2
DIMSTYLE
  5
A
100
AcDbSymbolTable
 70
     2
  0
DIMSTYLE
105
27
100
AcDbSymbolTableRecord
100
AcDbDimStyleTableRecord
  2
STANDARD
 70
     0
  3

  4

  5

  6
_OPEN
  7
_OPEN
 40
1.0
 41
7.5
 42
1.0
 43
8.0
 44
1.0
 45
0.0
 46
0.0
 47
0.0
 48
0.0
140
7.875
141
0.09
142
0.0
143
0.03937
144
1.0
145
0.0
146
1.0
147
0.6
 71
     0
 72
     0
 73
     1
 74
     1
 75
     0
 76
     0
 77
     3
 78
     8
170
     0
171
     2
172
     0
173
     1
174
     0
175
     0
176
     0
177
     0
178
     0
270
     2
271
     2
272
     4
273
     2
274
     2
340
10
275
     0
280
     0
281
     0
282
     0
283
     1
284
     0
285
     0
286
     0
287
     3
288
     0
  0
DIMSTYLE
105
28
100
AcDbSymbolTableRecord
100
AcDbDimStyleTableRecord
  2
LEADSTYL
 70
     0
  3

  4

  5

  6
_OPEN
  7
_OPEN
 40
1.0
 41
7.5
 42
0.0625
 43
0.38
 44
0.18
 45
0.0
 46
0.0
 47
0.0
 48
0.0
140
7.875
141
0.09
142
0.0
143
25.4
144
1.0
145
0.0
146
1.0
147
0.6
 71
     0
 72
     0
 73
     1
 74
     1
 75
     0
 76
     0
 77
     0
 78
     0
170
     0
171
     2
172
     0
173
     1
174
     0
175
     0
176
     0
177
     0
178
     0
270
     2
271
     4
272
     4
273
     2
274
     2
340
10
275
     0
280
     0
281
     0
282
     0
283
     1
284
     0
285
     0
286
     0
287
     3
288
     0
  0
ENDTAB
  0
TABLE
  2
BLOCK_RECORD
  5
1
100
AcDbSymbolTable
 70
    11
  0
BLOCK_RECORD
  5
21
100
AcDbSymbolTableRecord
100
AcDbBlockTableRecord
  2
*MODEL_SPACE
  0
BLOCK_RECORD
  5
24
100
AcDbSymbolTableRecord
100
AcDbBlockTableRecord
  2
*PAPER_SPACE
  0
BLOCK_RECORD
  5
29
100
AcDbSymbolTableRecord
100
AcDbBlockTableRecord
  2
_NONE
  0
BLOCK_RECORD
  5
2D
100
AcDbSymbolTableRecord
100
AcDbBlockTableRecord
  2
_OPEN
  0
BLOCK_RECORD
  5
33
100
AcDbSymbolTableRecord
100
AcDbBlockTableRecord
  2
_CLOSED
  0
BLOCK_RECORD
  5
3A
100
AcDbSymbolTableRecord
100
AcDbBlockTableRecord
  2
_ORIGIN
  0
BLOCK_RECORD
  5
3F
100
AcDbSymbolTableRecord
100
AcDbBlockTableRecord
  2
_DOT
  0
BLOCK_RECORD
  5
47
100
AcDbSymbolTableRecord
100
AcDbBlockTableRecord
  2
_OBLIQUE
  0
BLOCK_RECORD
  5
4B
100
AcDbSymbolTableRecord
100
AcDbBlockTableRecord
  2
DIMS0
  0
BLOCK_RECORD
  5
57
100
AcDbSymbolTableRecord
100
AcDbBlockTableRecord
  2
DIMS1
  0
BLOCK_RECORD
  5
63
100
AcDbSymbolTableRecord
100
AcDbBlockTableRecord
  2
DIMS2
  0
BLOCK_RECORD
  5
6E
100
AcDbSymbolTableRecord
100
AcDbBlockTableRecord
  2
DIMS3
  0
BLOCK_RECORD
  5
79
100
AcDbSymbolTableRecord
100
AcDbBlockTableRecord
  2
DIMS4
  0
ENDTAB
  0
ENDSEC
  0
SECTION
  2
BLOCKS
  0
BLOCK
  5
22
100
AcDbEntity
  8
0
100
AcDbBlockBegin
  2
*MODEL_SPACE
 70
     0
 10
0.0
 20
0.0
 30
0.0
  3
*MODEL_SPACE
  1

  0
ENDBLK
  5
23
100
AcDbEntity
  8
0
100
AcDbBlockEnd
  0
BLOCK
  5
25
100
AcDbEntity
 67
     1
  8
0
100
AcDbBlockBegin
  2
*PAPER_SPACE
 70
     0
 10
0.0
 20
0.0
 30
0.0
  3
*PAPER_SPACE
  1

  0
ENDBLK
  5
26
100
AcDbEntity
 67
     1
  8
0
100
AcDbBlockEnd
  0
BLOCK
  5
2A
100
AcDbEntity
  8
0
100
AcDbBlockBegin
  2
_NONE
 70
     0
 10
0.0
 20
0.0
  0
CIRCLE
  5
2B
100
AcDbEntity
  8
0
 62
     0
100
AcDbCircle
 10
0.0
 20
0.0
 40
0.25
  0
ENDBLK
  5
2C
100
AcDbEntity
  8
0
100
AcDbBlockEnd
  0
BLOCK
  5
2E
100
AcDbEntity
  8
0
100
AcDbBlockBegin
  2
_OPEN
 70
     0
 10
0.0
 20
0.0
  0
LINE
  5
2F
100
AcDbEntity
  8
0
 62
     0
100
AcDbLine
 10
-0.965926
 20
0.258819
 11
0.0
 21
0.0
  0
LINE
  5
30
100
AcDbEntity
  8
0
 62
     0
100
AcDbLine
 10
0.0
 20
0.0
 11
-0.965926
 21
-0.258819
  0
LINE
  5
31
100
AcDbEntity
  8
0
 62
     0
100
AcDbLine
 10
0.0
 20
0.0
 11
-1.0
 21
0.0
  0
ENDBLK
  5
32
100
AcDbEntity
  8
0
100
AcDbBlockEnd
  0
BLOCK
  5
34
100
AcDbEntity
  8
0
100
AcDbBlockBegin
  2
_CLOSED
 70
     0
 10
0.0
 20
0.0
  0
LINE
  5
35
100
AcDbEntity
  8
0
 62
     0
100
AcDbLine
 10
-0.965926
 20
0.258819
 11
0.0
 21
0.0
  0
LINE
  5
36
100
AcDbEntity
  8
0
 62
     0
100
AcDbLine
 10
0.0
 20
0.0
 11
-0.965926
 21
-0.258819
  0
LINE
  5
37
100
AcDbEntity
  8
0
 62
     0
100
AcDbLine
 10
-0.965926
 20
0.258819
 11
-0.965926
 21
-0.258819
  0
LINE
  5
38
100
AcDbEntity
  8
0
 62
     0
100
AcDbLine
 10
0.0
 20
0.0
 11
-1.0
 21
0.0
  0
ENDBLK
  5
39
100
AcDbEntity
  8
0
100
AcDbBlockEnd
  0
BLOCK
  5
3B
100
AcDbEntity
  8
0
100
AcDbBlockBegin
  2
_ORIGIN
 70
     0
 10
0.0
 20
0.0
  0
CIRCLE
  5
3C
100
AcDbEntity
  8
0
 62
     0
100
AcDbCircle
 10
0.0
 20
0.0
 40
0.5
  0
LINE
  5
3D
100
AcDbEntity
  8
0
 62
     0
100
AcDbLine
 10
0.0
 20
0.0
 11
-1.0
 21
0.0
  0
ENDBLK
  5
3E
100
AcDbEntity
  8
0
100
AcDbBlockEnd
  0
BLOCK
  5
40
100
AcDbEntity
  8
0
100
AcDbBlockBegin
  2
_DOT
 70
     0
 10
0.0
 20
0.0
  0
POLYLINE
  5
41
100
AcDbEntity
  8
0
 62
     0
100
AcDb2dPolyline
 66
     1
 70
     1
 40
0.5
 41
0.5
  0
VERTEX
  5
42
100
AcDbEntity
  8
0
 62
     0
100
AcDbVertex
100
AcDb2dVertex
 10
-0.25
 20
0.0
 42
1.0
  0
VERTEX
  5
43
100
AcDbEntity
  8
0
 62
     0
100
AcDbVertex
100
AcDb2dVertex
 10
0.25
 20
0.0
 42
1.0
  0
SEQEND
  5
44
100
AcDbEntity
  8
0
 62
     0
  0
LINE
  5
45
100
AcDbEntity
  8
0
 62
     0
100
AcDbLine
 10
-0.5
 20
0.0
 11
-1.0
 21
0.0
  0
ENDBLK
  5
46
100
AcDbEntity
  8
0
100
AcDbBlockEnd
  0
BLOCK
  5
48
100
AcDbEntity
  8
0
100
AcDbBlockBegin
  2
_OBLIQUE
 70
     0
 10
0.0
 20
0.0
  0
LINE
  5
49
100
AcDbEntity
  8
0
 62
     0
100
AcDbLine
 10
-0.353553
 20
-0.353553
 11
0.353553
 21
0.353553
  0
ENDBLK
  5
4A
100
AcDbEntity
  8
0
100
AcDbBlockEnd
  0
BLOCK
  5
4C
100
AcDbEntity
  8
DD0
100
AcDbBlockBegin
  2
DIMS0
 70
     0
 10
0.0
 20
0.0
  0
LINE
  5
4D
100
AcDbEntity
  8
DD0
100
AcDbLine
 10
221.146599
 20
581.653167
 11
221.146599
 21
624.500532
  0
LINE
  5
4E
100
AcDbEntity
  8
DD0
100
AcDbLine
 10
73.14679
 20
581.653167
 11
73.14679
 21
624.500532
  0
LINE
  5
4F
100
AcDbEntity
  8
DD0
100
AcDbLine
 10
213.902156
 20
620.05939
 11
221.146599
 21
622.000532
  0
LINE
  5
50
100
AcDbEntity
  8
DD0
100
AcDbLine
 10
221.146599
 20
622.000532
 11
213.902156
 21
623.941675
  0
LINE
  5
51
100
AcDbEntity
  8
DD0
100
AcDbLine
 10
80.391234
 20
623.941675
 11
73.14679
 21
622.000532
  0
LINE
  5
52
100
AcDbEntity
  8
DD0
100
AcDbLine
 10
73.14679
 20
622.000532
 11
80.391234
 21
620.05939
  0
LINE
  5
53
100
AcDbEntity
  8
DD0
100
AcDbLine
 10
221.146599
 20
622.000532
 11
73.14679
 21
622.000532
  0
TEXT
  5
54
100
AcDbEntity
  8
DD0
100
AcDbText
 10
135.977957
 20
623.500548
 40
7.875
  1
１４８
 41
0.833333
  7
STANDARD
100
AcDbText
  0
ENDBLK
  5
55
100
AcDbEntity
  8
DD0
100
AcDbBlockEnd
  0
BLOCK
  5
58
100
AcDbEntity
  8
DD0
100
AcDbBlockBegin
  2
DIMS1
 70
     0
 10
0.0
 20
0.0
  0
LINE
  5
59
100
AcDbEntity
  8
DD0
100
AcDbLine
 10
211.146752
 20
584.653197
 11
251.970497
 21
584.653197
  0
LINE
  5
5A
100
AcDbEntity
  8
DD0
100
AcDbLine
 10
211.146752
 20
464.653199
 11
251.970497
 21
464.653199
  0
LINE
  5
5B
100
AcDbEntity
  8
DD0
100
AcDbLine
 10
251.41164
 20
577.408754
 11
249.470497
 21
584.653197
  0
LINE
  5
5C
100
AcDbEntity
  8
DD0
100
AcDbLine
 10
249.470497
 20
584.653197
 11
247.529354
 21
577.408754
  0
LINE
  5
5D
100
AcDbEntity
  8
DD0
100
AcDbLine
 10
247.529354
 20
471.897643
 11
249.470497
 21
464.653199
  0
LINE
  5
5E
100
AcDbEntity
  8
DD0
100
AcDbLine
 10
249.470497
 20
464.653199
 11
251.41164
 21
471.897643
  0
LINE
  5
5F
100
AcDbEntity
  8
DD0
100
AcDbLine
 10
249.470497
 20
584.653197
 11
249.470497
 21
464.653199
  0
TEXT
  5
60
100
AcDbEntity
  8
DD0
100
AcDbText
 10
247.970501
 20
513.484436
 40
7.875
  1
１２０
 50
90.000003
 41
0.833333
  7
STANDARD
100
AcDbText
  0
ENDBLK
  5
61
100
AcDbEntity
  8
DD0
100
AcDbBlockEnd
  0
BLOCK
  5
64
100
AcDbEntity
  8
DD0
100
AcDbBlockBegin
  2
DIMS2
 70
     0
 10
0.0
 20
0.0
  0
LINE
  5
65
100
AcDbEntity
  8
DD0
100
AcDbLine
 10
446.081574
 20
501.751053
 11
446.081574
 21
606.250678
  0
LINE
  5
66
100
AcDbEntity
  8
DD0
100
AcDbLine
 10
443.28151
 20
586.250907
 11
443.28151
 21
606.250678
  0
LINE
  5
67
100
AcDbEntity
  8
DD0
100
AcDbLine
 10
453.326018
 20
605.691821
 11
446.081574
 21
603.750678
  0
LINE
  5
68
100
AcDbEntity
  8
DD0
100
AcDbLine
 10
446.081574
 20
603.750678
 11
453.326018
 21
601.809535
  0
LWPOLYLINE
  5
69
100
AcDbEntity
  8
DD0
100
AcDbPolyline
 90
        2
 70
     1
 43
1.25
 10
442.65651
 20
603.750678
 42
1.0
 10
443.90651
 20
603.750678
 42
1.0
  0
LINE
  5
6A
100
AcDbEntity
  8
DD0
100
AcDbLine
 10
480.456576
 20
603.750678
 11
443.28151
 21
603.750678
  0
TEXT
  5
6B
100
AcDbEntity
  8
DD0
100
AcDbText
 10
454.975335
 20
605.250693
 40
7.875
  1
２．８
 41
0.833333
  7
STANDARD
100
AcDbText
  0
ENDBLK
  5
6C
100
AcDbEntity
  8
DD0
100
AcDbBlockEnd
  0
BLOCK
  5
6F
100
AcDbEntity
  8
DD0
100
AcDbBlockBegin
  2
DIMS3
 70
     0
 10
0.0
 20
0.0
  0
LINE
  5
70
100
AcDbEntity
  8
DD0
100
AcDbLine
 10
440.981477
 20
586.250869
 11
440.981477
 21
606.250678
  0
LINE
  5
71
100
AcDbEntity
  8
DD0
100
AcDbLine
 10
443.28151
 20
586.250907
 11
443.28151
 21
606.250678
  0
LINE
  5
72
100
AcDbEntity
  8
DD0
100
AcDbLine
 10
433.737033
 20
601.809535
 11
440.981477
 21
603.750678
  0
LINE
  5
73
100
AcDbEntity
  8
DD0
100
AcDbLine
 10
440.981477
 20
603.750678
 11
433.737033
 21
605.691821
  0
LWPOLYLINE
  5
74
100
AcDbEntity
  8
DD0
100
AcDbPolyline
 90
        2
 70
     1
 43
1.25
 10
442.65651
 20
603.750678
 42
1.0
 10
443.90651
 20
603.750678
 42
1.0
  0
LINE
  5
75
100
AcDbEntity
  8
DD0
100
AcDbLine
 10
398.731478
 20
603.750678
 11
443.28151
 21
603.750678
  0
TEXT
  5
76
100
AcDbEntity
  8
DD0
100
AcDbText
 10
400.750215
 20
605.250693
 40
7.875
  1
ｔ２．３
 41
0.833333
  7
STANDARD
100
AcDbText
  0
ENDBLK
  5
77
100
AcDbEntity
  8
DD0
100
AcDbBlockEnd
  0
BLOCK
  5
7A
100
AcDbEntity
  8
DD0
100
AcDbBlockBegin
  2
DIMS4
 70
     0
 10
0.0
 20
0.0
  0
LINE
  5
7B
100
AcDbEntity
  8
DD0
100
AcDbLine
 10
446.081574
 20
477.251084
 11
446.081574
 21
429.085191
  0
LINE
  5
7C
100
AcDbEntity
  8
DD0
100
AcDbLine
 10
282.58493
 20
508.902466
 11
282.58493
 21
429.085191
  0
LINE
  5
7D
100
AcDbEntity
  8
DD0
100
AcDbLine
 10
438.837131
 20
429.644048
 11
446.081574
 21
431.585191
  0
LINE
  5
7E
100
AcDbEntity
  8
DD0
100
AcDbLine
 10
446.081574
 20
431.585191
 11
438.837131
 21
433.526334
  0
LINE
  5
7F
100
AcDbEntity
  8
DD0
100
AcDbLine
 10
289.829374
 20
433.526334
 11
282.58493
 21
431.585191
  0
LINE
  5
80
100
AcDbEntity
  8
DD0
100
AcDbLine
 10
282.58493
 20
431.585191
 11
289.829374
 21
429.644048
  0
LINE
  5
81
100
AcDbEntity
  8
DD0
100
AcDbLine
 10
446.081574
 20
431.585191
 11
282.58493
 21
431.585191
  0
TEXT
  5
82
100
AcDbEntity
  8
DD0
100
AcDbText
 10
345.289515
 20
433.085206
 40
7.875
  1
１６３．５
 41
0.833333
  7
STANDARD
100
AcDbText
  0
ENDBLK
  5
83
100
AcDbEntity
  8
DD0
100
AcDbBlockEnd
  0
ENDSEC
  0
SECTION
  2
ENTITIES
  0
INSERT
  5
56
100
AcDbEntity
  8
DD0
100
AcDbBlockReference
  2
DIMS0
 10
0.0
 20
0.0
  0
INSERT
  5
62
100
AcDbEntity
  8
DD0
100
AcDbBlockReference
  2
DIMS1
 10
0.0
 20
0.0
  0
INSERT
  5
6D
100
AcDbEntity
  8
DD0
100
AcDbBlockReference
  2
DIMS2
 10
0.0
 20
0.0
  0
INSERT
  5
78
100
AcDbEntity
  8
DD0
100
AcDbBlockReference
  2
DIMS3
 10
0.0
 20
0.0
  0
INSERT
  5
84
100
AcDbEntity
  8
DD0
100
AcDbBlockReference
  2
DIMS4
 10
0.0
 20
0.0
  0
LINE
  5
85
100
AcDbEntity
  8
M0
 62
     7
100
AcDbLine
 10
158.646791
 20
584.653181
 11
135.646791
 21
584.653181
  0
LINE
  5
86
100
AcDbEntity
  8
M0
 62
     7
100
AcDbLine
 10
135.646791
 20
464.653181
 11
158.646791
 21
464.653181
  0
LINE
  5
87
100
AcDbEntity
  8
M0
  6
DASHDOT
 62
     7
100
AcDbLine
 10
161.779113
 20
477.153181
 11
133.202926
 21
477.153181
  0
LINE
  5
88
100
AcDbEntity
  8
M0
 62
     7
100
AcDbLine
 10
135.646791
 20
493.653028
 11
135.646791
 21
464.653181
  0
LINE
  5
89
100
AcDbEntity
  8
M0
 62
     7
100
AcDbLine
 10
158.646791
 20
464.653181
 11
158.646791
 21
493.652982
  0
LINE
  5
8A
100
AcDbEntity
  8
M0
  6
DASHED
 62
     7
100
AcDbLine
 10
158.646791
 20
528.652998
 11
158.646791
 21
550.153181
  0
LINE
  5
8B
100
AcDbEntity
  8
M0
  6
DASHED
 62
     7
100
AcDbLine
 10
135.646791
 20
550.153181
 11
135.646791
 21
529.886625
  0
LINE
  5
8C
100
AcDbEntity
  8
M0
 62
     7
100
AcDbLine
 10
135.646791
 20
584.653181
 11
135.646791
 21
551.153181
  0
LINE
  5
8D
100
AcDbEntity
  8
M0
 62
     7
100
AcDbLine
 10
158.646791
 20
551.153181
 11
158.646791
 21
584.653181
  0
LINE
  5
8E
100
AcDbEntity
  8
M0
  6
DASHDOT
 62
     7
100
AcDbLine
 10
156.646791
 20
572.153181
 11
137.646791
 21
572.153181
  0
LINE
  5
8F
100
AcDbEntity
  8
M0
 62
     7
100
AcDbLine
 10
159.646791
 20
557.153181
 11
159.646791
 21
528.652998
  0
LINE
  5
90
100
AcDbEntity
  8
M0
 62
     7
100
AcDbLine
 10
134.646791
 20
557.153181
 11
134.646791
 21
528.952741
  0
LINE
  5
91
100
AcDbEntity
  8
M0
 62
     7
100
AcDbLine
 10
134.646791
 20
550.153181
 11
159.646791
 21
550.153181
  0
LINE
  5
92
100
AcDbEntity
  8
M0
 62
     7
100
AcDbLine
 10
159.646791
 20
557.153181
 11
158.646791
 21
557.153181
  0
LINE
  5
93
100
AcDbEntity
  8
M0
 62
     7
100
AcDbLine
 10
135.646791
 20
557.153181
 11
134.646791
 21
557.153181
  0
LINE
  5
94
100
AcDbEntity
  8
M0
  6
DASHED
 62
     7
100
AcDbLine
 10
158.646791
 20
556.153181
 11
135.646791
 21
556.153181
  0
LINE
  5
95
100
AcDbEntity
  8
M0
  6
DASHED
 62
     7
100
AcDbLine
 10
158.646791
 20
557.153181
 11
135.646791
 21
557.153181
  0
LINE
  5
96
100
AcDbEntity
  8
M0
 62
     7
100
AcDbLine
 10
135.646791
 20
551.153181
 11
158.646791
 21
551.153181
  0
CIRCLE
  5
97
100
AcDbEntity
  8
M0
 62
     7
100
AcDbCircle
 10
147.146791
 20
572.153181
 40
5.5
  0
CIRCLE
  5
98
100
AcDbEntity
  8
M0
 62
     7
100
AcDbCircle
 10
147.146791
 20
477.153181
 40
5.0
  0
CIRCLE
  5
99
100
AcDbEntity
  8
M0
 62
     7
100
AcDbCircle
 10
147.146791
 20
477.153181
 40
4.0
  0
LINE
  5
9A
100
AcDbEntity
  8
M0
 62
   234
100
AcDbLine
 10
138.596792
 20
535.153181
 11
138.596792
 21
530.45297
  0
LINE
  5
9B
100
AcDbEntity
  8
M0
 62
   234
100
AcDbLine
 10
155.69679
 20
528.652982
 11
155.69679
 21
535.153181
  0
LINE
  5
9C
100
AcDbEntity
  8
M0
 62
   234
100
AcDbLine
 10
155.69679
 20
535.153181
 11
138.596792
 21
535.153181
  0
LINE
  5
9D
100
AcDbEntity
  8
M0
 62
   234
100
AcDbLine
 10
140.896791
 20
530.45297
 11
140.896791
 21
535.153181
  0
LINE
  5
9E
100
AcDbEntity
  8
M0
 62
   234
100
AcDbLine
 10
153.396791
 20
535.153181
 11
153.396791
 21
528.652998
  0
LINE
  5
9F
100
AcDbEntity
  8
M0
  6
DASHDOT
 62
   234
100
AcDbLine
 10
140.146791
 20
530.853178
 11
154.146791
 21
530.853178
  0
ARC
  5
A0
100
AcDbEntity
  8
M0
 62
   234
100
AcDbCircle
 10
147.146791
 20
530.853178
 40
3.0
100
AcDbArc
 50
312.825432
 51
547.821543
  0
LINE
  5
A1
100
AcDbEntity
  8
M0
 62
   234
100
AcDbLine
 10
365.581575
 20
497.653181
 11
375.081575
 21
497.653181
  0
LINE
  5
A2
100
AcDbEntity
  8
M0
 62
   234
100
AcDbLine
 10
355.081575
 20
494.153181
 11
362.081575
 21
494.153181
  0
LINE
  5
A3
100
AcDbEntity
  8
M0
 62
   234
100
AcDbLine
 10
362.081575
 20
494.153181
 11
365.581575
 21
497.653181
  0
LINE
  5
A4
100
AcDbEntity
  8
M0
 62
   234
100
AcDbLine
 10
357.081575
 20
535.153181
 11
352.081575
 21
535.153181
  0
LINE
  5
A5
100
AcDbEntity
  8
M0
 62
   234
100
AcDbLine
 10
352.081575
 20
535.153181
 11
352.081575
 21
529.653181
  0
LINE
  5
A6
100
AcDbEntity
  8
M0
 62
   234
100
AcDbLine
 10
355.081575
 20
524.653181
 11
355.081575
 21
494.153181
  0
LINE
  5
A7
100
AcDbEntity
  8
M0
 62
   234
100
AcDbLine
 10
358.881574
 20
524.653181
 11
355.081575
 21
524.653181
  0
ARC
  5
A8
100
AcDbEntity
  8
M0
 62
   234
100
AcDbCircle
 10
358.881574
 20
527.153181
 40
2.5
100
AcDbArc
 50
270.0
 51
286.2601
  0
LINE
  5
A9
100
AcDbEntity
  8
M0
 62
   234
100
AcDbLine
 10
352.081575
 20
529.653181
 11
357.081575
 21
529.653181
  0
LINE
  5
AA
100
AcDbEntity
  8
M0
 62
   234
100
AcDbLine
 10
357.381574
 20
524.653181
 11
357.381574
 21
494.153181
  0
LINE
  5
AB
100
AcDbEntity
  8
M0
  6
DASHDOT
 62
   234
100
AcDbLine
 10
370.444861
 20
503.153181
 11
377.386934
 21
503.153181
  0
LINE
  5
AC
100
AcDbEntity
  8
M0
  6
DASHED
 62
   234
100
AcDbLine
 10
372.781572
 20
499.653181
 11
375.081575
 21
499.653181
  0
LINE
  5
AD
100
AcDbEntity
  8
M0
  6
DASHED
 62
   234
100
AcDbLine
 10
372.781572
 20
527.153181
 11
372.781572
 21
497.653181
  0
LINE
  5
AE
100
AcDbEntity
  8
M0
  6
DASHED
 62
   234
100
AcDbLine
 10
372.781572
 20
506.653181
 11
375.081575
 21
506.653181
  0
LINE
  5
AF
100
AcDbEntity
  8
M0
 62
     2
100
AcDbLine
 10
78.146791
 20
480.153181
 11
85.646791
 21
480.153181
  0
LINE
  5
B0
100
AcDbEntity
  8
M0
  6
DASHDOT
 62
     2
100
AcDbLine
 10
147.146791
 20
449.240385
 11
147.146791
 21
598.208234
  0
LINE
  5
B1
100
AcDbEntity
  8
M0
 62
     2
100
AcDbLine
 10
221.146593
 20
485.153181
 11
216.146593
 21
480.153181
  0
LINE
  5
B2
100
AcDbEntity
  8
M0
 62
     2
100
AcDbLine
 10
221.146593
 20
485.153181
 11
221.146593
 21
579.153181
  0
LINE
  5
B3
100
AcDbEntity
  8
M0
 62
     2
100
AcDbLine
 10
221.146593
 20
579.153181
 11
216.146593
 21
584.152982
  0
LINE
  5
B4
100
AcDbEntity
  8
M0
 62
     2
100
AcDbLine
 10
78.146791
 20
584.152982
 11
85.646791
 21
584.152982
  0
LINE
  5
B5
100
AcDbEntity
  8
M0
 62
     2
100
AcDbLine
 10
78.146791
 20
584.152982
 11
73.146791
 21
579.153181
  0
LINE
  5
B6
100
AcDbEntity
  8
M0
 62
     2
100
AcDbLine
 10
73.146791
 20
485.153181
 11
73.146791
 21
579.153181
  0
LINE
  5
B7
100
AcDbEntity
  8
M0
 62
     2
100
AcDbLine
 10
73.146791
 20
485.153181
 11
78.146791
 21
480.153181
  0
CIRCLE
  5
B8
100
AcDbEntity
  8
M0
 62
     2
100
AcDbCircle
 10
122.146791
 20
575.153181
 40
3.15
  0
CIRCLE
  5
B9
100
AcDbEntity
  8
M0
 62
     2
100
AcDbCircle
 10
172.146791
 20
575.153181
 40
3.15
  0
LINE
  5
BA
100
AcDbEntity
  8
M0
  6
DASHDOT
 62
     2
100
AcDbLine
 10
162.990785
 20
575.153181
 11
181.302781
 21
575.153181
  0
LINE
  5
BB
100
AcDbEntity
  8
M0
  6
DASHDOT
 62
     2
100
AcDbLine
 10
172.146791
 20
565.997175
 11
172.146791
 21
584.309171
  0
LINE
  5
BC
100
AcDbEntity
  8
M0
  6
DASHDOT
 62
     2
100
AcDbLine
 10
112.9908
 20
575.153181
 11
131.302797
 21
575.153181
  0
LINE
  5
BD
100
AcDbEntity
  8
M0
  6
DASHDOT
 62
     2
100
AcDbLine
 10
122.146791
 20
565.997175
 11
122.146791
 21
584.309171
  0
LINE
  5
BE
100
AcDbEntity
  8
M0
  6
DASHDOT
 62
     2
100
AcDbLine
 10
109.646791
 20
479.497175
 11
109.646791
 21
500.809171
  0
LINE
  5
BF
100
AcDbEntity
  8
M0
  6
DASHDOT
 62
     2
100
AcDbLine
 10
176.797777
 20
490.153181
 11
184.797777
 21
490.153181
  0
LINE
  5
C0
100
AcDbEntity
  8
M0
  6
DASHDOT
 62
     2
100
AcDbLine
 10
184.646791
 20
479.497175
 11
184.646791
 21
491.152937
  0
LINE
  5
C1
100
AcDbEntity
  8
M0
 62
     2
100
AcDbLine
 10
208.646791
 20
584.152982
 11
216.146593
 21
584.152982
  0
LINE
  5
C2
100
AcDbEntity
  8
M0
 62
     2
100
AcDbLine
 10
158.646791
 20
584.152982
 11
185.646791
 21
584.152982
  0
LINE
  5
C3
100
AcDbEntity
  8
M0
 62
     2
100
AcDbLine
 10
108.646791
 20
584.152982
 11
135.646791
 21
584.152982
  0
LINE
  5
C4
100
AcDbEntity
  8
M0
  6
DASHDOT
 62
     2
100
AcDbLine
 10
122.146791
 20
545.997175
 11
122.146791
 21
564.309171
  0
LINE
  5
C5
100
AcDbEntity
  8
M0
  6
DASHDOT
 62
     2
100
AcDbLine
 10
112.9908
 20
555.153181
 11
131.302797
 21
555.153181
  0
CIRCLE
  5
C6
100
AcDbEntity
  8
M0
 62
     2
100
AcDbCircle
 10
122.146791
 20
555.153181
 40
4.65
  0
LINE
  5
C7
100
AcDbEntity
  8
M0
  6
DASHDOT
 62
     2
100
AcDbLine
 10
172.146791
 20
545.997175
 11
172.146791
 21
564.309171
  0
LINE
  5
C8
100
AcDbEntity
  8
M0
  6
DASHDOT
 62
     2
100
AcDbLine
 10
181.302781
 20
555.153181
 11
162.990785
 21
555.153181
  0
CIRCLE
  5
C9
100
AcDbEntity
  8
M0
 62
     2
100
AcDbCircle
 10
172.146791
 20
555.153181
 40
4.65
  0
LINE
  5
CA
100
AcDbEntity
  8
M0
 62
     2
100
AcDbLine
 10
108.646791
 20
480.153181
 11
135.646791
 21
480.153181
  0
LINE
  5
CB
100
AcDbEntity
  8
M0
 62
     2
100
AcDbLine
 10
158.646791
 20
480.153181
 11
185.646791
 21
480.153181
  0
LINE
  5
CC
100
AcDbEntity
  8
M0
 62
     2
100
AcDbLine
 10
208.646791
 20
480.153181
 11
216.146593
 21
480.153181
  0
ARC
  5
CD
100
AcDbEntity
  8
M0
 62
     2
100
AcDbCircle
 10
109.646791
 20
490.153181
 40
4.65
100
AcDbArc
 50
257.581317
 51
456.172585
  0
LINE
  5
CE
100
AcDbEntity
  8
M0
  6
DASHDOT
 62
     2
100
AcDbLine
 10
108.646791
 20
490.153181
 11
120.302797
 21
490.153181
  0
ARC
  5
CF
100
AcDbEntity
  8
M0
 62
     2
100
AcDbCircle
 10
184.646791
 20
490.153181
 40
4.65
100
AcDbArc
 50
171.344064
 51
282.418497
  0
LINE
  5
D0
100
AcDbEntity
  8
M0
 62
     2
100
AcDbLine
 10
443.781526
 20
499.289121
 11
443.781526
 21
479.751081
  0
LINE
  5
D1
100
AcDbEntity
  8
M0
 62
     2
100
AcDbLine
 10
443.781526
 20
479.750898
 11
446.081575
 21
479.750898
  0
LINE
  5
D2
100
AcDbEntity
  8
M0
 62
     2
100
AcDbLine
 10
446.081575
 20
479.751081
 11
446.081575
 21
499.251066
  0
ARC
  5
D3
100
AcDbEntity
  8
M0
 62
     2
100
AcDbCircle
 10
443.281526
 20
499.289121
 40
0.5
100
AcDbArc
 50
0.0
 51
81.293564
  0
ARC
  5
D4
100
AcDbEntity
  8
M0
 62
     2
100
AcDbCircle
 10
443.281526
 20
499.251066
 40
2.799999
100
AcDbArc
 50
0.0
 51
81.288555
  0
ARC
  5
D5
100
AcDbEntity
  8
M0
 62
     2
100
AcDbCircle
 10
443.781526
 20
502.512952
 40
0.5
100
AcDbArc
 50
180.0
 51
261.266308
  0
ARC
  5
D6
100
AcDbEntity
  8
M0
 62
     2
100
AcDbCircle
 10
443.781282
 20
502.551069
 40
2.799999
100
AcDbArc
 50
180.0
 51
261.288781
  0
LINE
  5
D7
100
AcDbEntity
  8
M0
 62
     2
100
AcDbLine
 10
443.281526
 20
502.512952
 11
443.281526
 21
546.000898
  0
LINE
  5
D8
100
AcDbEntity
  8
M0
 62
     2
100
AcDbLine
 10
440.981477
 20
502.551069
 11
440.981477
 21
583.750883
  0
LINE
  5
D9
100
AcDbEntity
  8
M0
 62
     2
100
AcDbLine
 10
443.281526
 20
546.000898
 11
443.781526
 21
546.000898
  0
LINE
  5
DA
100
AcDbEntity
  8
M0
 62
     2
100
AcDbLine
 10
443.781526
 20
546.000898
 11
443.781526
 21
563.500898
  0
LINE
  5
DB
100
AcDbEntity
  8
M0
 62
     2
100
AcDbLine
 10
443.281526
 20
563.500898
 11
443.781526
 21
563.500898
  0
LINE
  5
DC
100
AcDbEntity
  8
M0
 62
     2
100
AcDbLine
 10
443.281526
 20
563.500898
 11
443.281526
 21
583.750898
  0
LINE
  5
DD
100
AcDbEntity
  8
M0
 62
     2
100
AcDbLine
 10
440.981477
 20
583.750898
 11
443.281526
 21
583.750898
  0
LINE
  5
DE
100
AcDbEntity
  8
M0
 62
     7
100
AcDbLine
 10
208.64676
 20
584.653181
 11
185.64676
 21
584.653181
  0
LINE
  5
DF
100
AcDbEntity
  8
M0
 62
     7
100
AcDbLine
 10
185.64676
 20
464.653181
 11
208.64676
 21
464.653181
  0
LINE
  5
E0
100
AcDbEntity
  8
M0
  6
DASHDOT
 62
     7
100
AcDbLine
 10
197.14676
 20
454.653181
 11
197.14676
 21
594.653181
  0
LINE
  5
E1
100
AcDbEntity
  8
M0
  6
DASHDOT
 62
     7
100
AcDbLine
 10
211.015114
 20
477.153196
 11
183.018174
 21
477.153181
  0
LINE
  5
E2
100
AcDbEntity
  8
M0
 62
     7
100
AcDbLine
 10
185.64676
 20
488.152937
 11
185.64676
 21
464.653181
  0
LINE
  5
E3
100
AcDbEntity
  8
M0
 62
     7
100
AcDbLine
 10
208.64676
 20
464.653181
 11
208.64676
 21
513.153181
  0
LINE
  5
E4
100
AcDbEntity
  8
M0
  6
DASHED
 62
     7
100
AcDbLine
 10
208.64676
 20
513.153181
 11
208.64676
 21
527.153181
  0
LINE
  5
E5
100
AcDbEntity
  8
M0
  6
DASHED
 62
     7
100
AcDbLine
 10
208.64676
 20
544.653181
 11
208.64676
 21
550.153181
  0
LINE
  5
E6
100
AcDbEntity
  8
M0
  6
DASHED
 62
     7
100
AcDbLine
 10
185.64676
 20
550.153181
 11
185.64676
 21
544.653181
  0
LINE
  5
E7
100
AcDbEntity
  8
M0
 62
     7
100
AcDbLine
 10
185.64676
 20
584.653181
 11
185.64676
 21
551.153181
  0
LINE
  5
E8
100
AcDbEntity
  8
M0
 62
     7
100
AcDbLine
 10
208.64676
 20
551.153181
 11
208.64676
 21
584.653181
  0
LINE
  5
E9
100
AcDbEntity
  8
M0
  6
DASHDOT
 62
     7
100
AcDbLine
 10
206.64676
 20
572.153181
 11
187.64676
 21
572.153181
  0
LINE
  5
EA
100
AcDbEntity
  8
M0
 62
     7
100
AcDbLine
 10
221.14676
 20
527.153181
 11
221.14676
 21
544.653181
  0
LINE
  5
EB
100
AcDbEntity
  8
M0
 62
     7
100
AcDbLine
 10
221.14676
 20
544.653181
 11
173.14676
 21
544.653181
  0
LINE
  5
EC
100
AcDbEntity
  8
M0
 62
     7
100
AcDbLine
 10
173.14676
 20
544.653181
 11
173.14676
 21
528.652982
  0
LINE
  5
ED
100
AcDbEntity
  8
M0
 62
     7
100
AcDbLine
 10
187.797813
 20
527.153181
 11
221.14676
 21
527.153181
  0
LINE
  5
EE
100
AcDbEntity
  8
M0
 62
     7
100
AcDbLine
 10
209.64676
 20
527.153181
 11
209.64676
 21
513.153181
  0
LINE
  5
EF
100
AcDbEntity
  8
M0
 62
     7
100
AcDbLine
 10
209.64676
 20
557.153181
 11
209.64676
 21
544.653181
  0
LINE
  5
F0
100
AcDbEntity
  8
M0
 62
     7
100
AcDbLine
 10
184.64676
 20
557.153181
 11
184.64676
 21
544.653181
  0
LINE
  5
F1
100
AcDbEntity
  8
M0
 62
     7
100
AcDbLine
 10
209.64676
 20
513.153181
 11
187.797791
 21
513.153181
  0
LINE
  5
F2
100
AcDbEntity
  8
M0
 62
     7
100
AcDbLine
 10
184.64676
 20
550.153181
 11
209.64676
 21
550.153181
  0
LINE
  5
F3
100
AcDbEntity
  8
M0
 62
     7
100
AcDbLine
 10
209.64676
 20
557.153181
 11
208.64676
 21
557.153181
  0
LINE
  5
F4
100
AcDbEntity
  8
M0
 62
     7
100
AcDbLine
 10
185.64676
 20
557.153181
 11
184.64676
 21
557.153181
  0
LINE
  5
F5
100
AcDbEntity
  8
M0
  6
DASHED
 62
     7
100
AcDbLine
 10
208.64676
 20
556.153181
 11
185.64676
 21
556.153181
  0
LINE
  5
F6
100
AcDbEntity
  8
M0
  6
DASHED
 62
     7
100
AcDbLine
 10
208.64676
 20
557.153181
 11
185.64676
 21
557.153181
  0
LINE
  5
F7
100
AcDbEntity
  8
M0
 62
     7
100
AcDbLine
 10
185.64676
 20
551.153181
 11
208.64676
 21
551.153181
  0
CIRCLE
  5
F8
100
AcDbEntity
  8
M0
 62
     7
100
AcDbCircle
 10
197.14676
 20
572.153181
 40
5.5
  0
CIRCLE
  5
F9
100
AcDbEntity
  8
M0
 62
     7
100
AcDbCircle
 10
197.14676
 20
477.153181
 40
5.0
  0
CIRCLE
  5
FA
100
AcDbEntity
  8
M0
 62
     7
100
AcDbCircle
 10
197.14676
 20
477.153181
 40
4.0
  0
CIRCLE
  5
FB
100
AcDbEntity
  8
M0
 62
     7
100
AcDbCircle
 10
197.14676
 20
503.153181
 40
5.25
  0
LINE
  5
FC
100
AcDbEntity
  8
M0
 62
     7
100
AcDbLine
 10
197.995351
 20
503.15312
 11
201.259062
 21
506.416822
  0
LINE
  5
FD
100
AcDbEntity
  8
M0
 62
     7
100
AcDbLine
 10
193.883113
 20
499.040876
 11
197.146825
 21
502.304594
  0
LINE
  5
FE
100
AcDbEntity
  8
M0
 62
     7
100
AcDbLine
 10
196.298342
 20
503.153074
 11
193.034609
 21
499.889341
  0
LINE
  5
FF
100
AcDbEntity
  8
M0
 62
     7
100
AcDbLine
 10
200.410591
 20
507.265333
 11
197.146868
 21
504.0016
  0
LINE
  5
100
100
AcDbEntity
  8
M0
 62
     7
100
AcDbLine
 10
197.146858
 20
504.0016
 11
195.379091
 21
505.769376
  0
LINE
  5
101
100
AcDbEntity
  8
M0
 62
     7
100
AcDbLine
 10
199.763117
 20
501.385343
 11
197.995351
 21
503.15312
  0
LINE
  5
102
100
AcDbEntity
  8
M0
 62
     7
100
AcDbLine
 10
197.146825
 20
502.304594
 11
198.914591
 21
500.536817
  0
LINE
  5
103
100
AcDbEntity
  8
M0
 62
     7
100
AcDbLine
 10
194.530565
 20
504.92085
 11
196.298332
 21
503.153074
  0
LINE
  5
104
100
AcDbEntity
  8
M0
 62
     7
100
AcDbLine
 10
198.914591
 20
500.536817
 11
199.763117
 21
501.385343
  0
LINE
  5
105
100
AcDbEntity
  8
M0
 62
     7
100
AcDbLine
 10
195.379091
 20
505.769376
 11
194.530565
 21
504.92085
  0
CIRCLE
  5
106
100
AcDbEntity
  8
M0
 62
     7
100
AcDbCircle
 10
197.14676
 20
503.153181
 40
5.75
  0
LINE
  5
107
100
AcDbEntity
  8
M0
  6
DASHDOT
 62
     7
100
AcDbLine
 10
188.791341
 20
503.153196
 11
205.50218
 21
503.153181
  0
LINE
  5
108
100
AcDbEntity
  8
M0
 62
     7
100
AcDbLine
 10
179.896516
 20
545.353239
 11
179.822297
 21
546.200559
  0
LINE
  5
109
100
AcDbEntity
  8
M0
 62
     7
100
AcDbLine
 10
174.397005
 20
545.353254
 11
174.470979
 21
546.200559
  0
ARC
  5
10A
100
AcDbEntity
  8
M0
 62
     7
100
AcDbCircle
 10
175.467317
 20
546.113416
 40
1.0
100
AcDbArc
 50
106.260869
 51
175.000684
  0
ARC
  5
10B
100
AcDbEntity
  8
M0
 62
     7
100
AcDbCircle
 10
178.82596
 20
546.113416
 40
1.0
100
AcDbArc
 50
4.99924
 51
73.75186
  0
ARC
  5
10C
100
AcDbEntity
  8
M0
 62
     7
100
AcDbCircle
 10
177.14676
 20
540.353239
 40
7.0
100
AcDbArc
 50
72.985009
 51
106.255434
  0
LINE
  5
10D
100
AcDbEntity
  8
M0
 62
     7
100
AcDbLine
 10
179.896516
 20
544.653181
 11
174.396516
 21
544.653181
  0
LINE
  5
10E
100
AcDbEntity
  8
M0
 62
     7
100
AcDbLine
 10
174.396516
 20
545.353132
 11
174.396516
 21
544.653181
  0
LINE
  5
10F
100
AcDbEntity
  8
M0
 62
     7
100
AcDbLine
 10
179.896516
 20
545.353132
 11
179.896516
 21
544.653181
  0
LINE
  5
110
100
AcDbEntity
  8
M0
 62
     7
100
AcDbLine
 10
174.39676
 20
545.353239
 11
179.89676
 21
545.353239
  0
LINE
  5
111
100
AcDbEntity
  8
M0
 62
     7
100
AcDbLine
 10
177.14676
 20
544.653181
 11
176.64676
 21
545.353239
  0
LINE
  5
112
100
AcDbEntity
  8
M0
 62
     7
100
AcDbLine
 10
177.14676
 20
545.353239
 11
177.64676
 21
544.653181
  0
LINE
  5
113
100
AcDbEntity
  8
M0
 62
     7
100
AcDbLine
 10
214.397005
 20
545.353239
 11
214.471223
 21
546.200559
  0
LINE
  5
114
100
AcDbEntity
  8
M0
 62
     7
100
AcDbLine
 10
219.896516
 20
545.353254
 11
219.822542
 21
546.200559
  0
ARC
  5
115
100
AcDbEntity
  8
M0
 62
     7
100
AcDbCircle
 10
218.826204
 20
546.113416
 40
1.0
100
AcDbArc
 50
4.999316
 51
73.739131
  0
ARC
  5
116
100
AcDbEntity
  8
M0
 62
     7
100
AcDbCircle
 10
215.467561
 20
546.113416
 40
1.0
100
AcDbArc
 50
106.24814
 51
175.00076
  0
ARC
  5
117
100
AcDbEntity
  8
M0
 62
     7
100
AcDbCircle
 10
217.14676
 20
540.353239
 40
7.0
100
AcDbArc
 50
73.744446
 51
107.014871
  0
LINE
  5
118
100
AcDbEntity
  8
M0
 62
     7
100
AcDbLine
 10
214.397005
 20
544.653181
 11
219.897005
 21
544.653181
  0
LINE
  5
119
100
AcDbEntity
  8
M0
 62
     7
100
AcDbLine
 10
219.897005
 20
545.353132
 11
219.897005
 21
544.653181
  0
LINE
  5
11A
100
AcDbEntity
  8
M0
 62
     7
100
AcDbLine
 10
214.397005
 20
545.353132
 11
214.397005
 21
544.653181
  0
LINE
  5
11B
100
AcDbEntity
  8
M0
 62
     7
100
AcDbLine
 10
215.846956
 20
525.353773
 11
215.846956
 21
521.353239
  0
LINE
  5
11C
100
AcDbEntity
  8
M0
 62
     7
100
AcDbLine
 10
218.446809
 20
525.353773
 11
218.446809
 21
521.353239
  0
LINE
  5
11D
100
AcDbEntity
  8
M0
 62
     7
100
AcDbLine
 10
218.64676
 20
525.353773
 11
218.64676
 21
521.353239
  0
LINE
  5
11E
100
AcDbEntity
  8
M0
 62
     7
100
AcDbLine
 10
215.64676
 20
521.353239
 11
215.64676
 21
525.353773
  0
LINE
  5
11F
100
AcDbEntity
  8
M0
 62
     7
100
AcDbLine
 10
218.64676
 20
521.353239
 11
215.64676
 21
521.353239
  0
LINE
  5
120
100
AcDbEntity
  8
M0
 62
     7
100
AcDbLine
 10
219.89676
 20
545.353239
 11
214.39676
 21
545.353239
  0
LINE
  5
121
100
AcDbEntity
  8
M0
 62
     7
100
AcDbLine
 10
217.14676
 20
544.653181
 11
217.64676
 21
545.353239
  0
LINE
  5
122
100
AcDbEntity
  8
M0
 62
     7
100
AcDbLine
 10
217.14676
 20
545.353239
 11
216.64676
 21
544.653181
  0
LINE
  5
123
100
AcDbEntity
  8
M0
 62
     7
100
AcDbLine
 10
375.081575
 20
464.653181
 11
380.081575
 21
464.653181
  0
LINE
  5
124
100
AcDbEntity
  8
M0
 62
     7
100
AcDbLine
 10
343.681581
 20
584.653181
 11
338.681581
 21
584.653181
  0
LINE
  5
125
100
AcDbEntity
  8
M0
 62
     7
100
AcDbLine
 10
343.681581
 20
559.153181
 11
343.681581
 21
584.653181
  0
ARC
  5
126
100
AcDbEntity
  8
M0
 62
     7
100
AcDbCircle
 10
346.681581
 20
559.153181
 40
3.0
100
AcDbArc
 50
180.0
 51
270.0
  0
LINE
  5
127
100
AcDbEntity
  8
M0
 62
     7
100
AcDbLine
 10
338.681581
 20
584.653181
 11
338.681581
 21
559.153181
  0
ARC
  5
128
100
AcDbEntity
  8
M0
 62
     7
100
AcDbCircle
 10
346.681581
 20
559.153181
 40
8.0
100
AcDbArc
 50
180.0
 51
270.0
  0
LINE
  5
129
100
AcDbEntity
  8
M0
 62
     7
100
AcDbLine
 10
405.081575
 20
544.653181
 11
357.081575
 21
544.653181
  0
LINE
  5
12A
100
AcDbEntity
  8
M0
 62
     7
100
AcDbLine
 10
405.081575
 20
527.153181
 11
405.081575
 21
544.653181
  0
LINE
  5
12B
100
AcDbEntity
  8
M0
 62
     7
100
AcDbLine
 10
357.081575
 20
527.153181
 11
405.081575
 21
527.153181
  0
LINE
  5
12C
100
AcDbEntity
  8
M0
 62
     7
100
AcDbLine
 10
374.081575
 20
527.153181
 11
374.081575
 21
513.153181
  0
LINE
  5
12D
100
AcDbEntity
  8
M0
 62
     7
100
AcDbLine
 10
381.081575
 20
527.153181
 11
381.081575
 21
513.153181
  0
LINE
  5
12E
100
AcDbEntity
  8
M0
 62
     7
100
AcDbLine
 10
374.081575
 20
544.653181
 11
374.081575
 21
548.153181
  0
LINE
  5
12F
100
AcDbEntity
  8
M0
 62
     7
100
AcDbLine
 10
372.081575
 20
550.153181
 11
349.081575
 21
550.153181
  0
ARC
  5
130
100
AcDbEntity
  8
M0
 62
     7
100
AcDbCircle
 10
372.081575
 20
548.153181
 40
2.0
100
AcDbArc
 50
0.0
 51
90.0
  0
LINE
  5
131
100
AcDbEntity
  8
M0
 62
     7
100
AcDbLine
 10
381.081575
 20
544.653181
 11
381.081575
 21
548.153181
  0
LINE
  5
132
100
AcDbEntity
  8
M0
 62
     7
100
AcDbLine
 10
349.081575
 20
557.153181
 11
372.081575
 21
557.153181
  0
ARC
  5
133
100
AcDbEntity
  8
M0
 62
     7
100
AcDbCircle
 10
372.081575
 20
548.153181
 40
9.0
100
AcDbArc
 50
0.0
 51
90.0
  0
LINE
  5
134
100
AcDbEntity
  8
M0
 62
     7
100
AcDbLine
 10
381.081575
 20
513.153181
 11
374.081575
 21
513.153181
  0
LINE
  5
135
100
AcDbEntity
  8
M0
 62
     7
100
AcDbLine
 10
349.081575
 20
557.153181
 11
349.081575
 21
550.153181
  0
LINE
  5
136
100
AcDbEntity
  8
M0
 62
     7
100
AcDbLine
 10
349.081575
 20
556.153181
 11
346.681581
 21
556.153181
  0
LINE
  5
137
100
AcDbEntity
  8
M0
 62
     7
100
AcDbLine
 10
346.681581
 20
551.153181
 11
349.081575
 21
551.153181
  0
LINE
  5
138
100
AcDbEntity
  8
M0
 62
     7
100
AcDbLine
 10
375.081575
 20
513.153181
 11
375.081575
 21
464.653181
  0
LINE
  5
139
100
AcDbEntity
  8
M0
 62
     7
100
AcDbLine
 10
380.081575
 20
464.653181
 11
380.081575
 21
513.153181
  0
LINE
  5
13A
100
AcDbEntity
  8
M0
  6
DASHED
 62
     7
100
AcDbLine
 10
372.081575
 20
556.153181
 11
349.081575
 21
556.153181
  0
LINE
  5
13B
100
AcDbEntity
  8
M0
  6
DASHED
 62
     7
100
AcDbLine
 10
349.081575
 20
551.153181
 11
372.081575
 21
551.153181
  0
ARC
  5
13C
100
AcDbEntity
  8
M0
  6
DASHED
 62
     7
100
AcDbCircle
 10
372.081575
 20
548.153181
 40
3.0
100
AcDbArc
 50
0.0
 51
90.0
  0
ARC
  5
13D
100
AcDbEntity
  8
M0
  6
DASHED
 62
     7
100
AcDbCircle
 10
372.081575
 20
548.153181
 40
8.0
100
AcDbArc
 50
0.0
 51
90.0
  0
LINE
  5
13E
100
AcDbEntity
  8
M0
  6
DASHED
 62
     7
100
AcDbLine
 10
380.081575
 20
544.653181
 11
380.081575
 21
548.153181
  0
LINE
  5
13F
100
AcDbEntity
  8
M0
  6
DASHED
 62
     7
100
AcDbLine
 10
375.081575
 20
548.153181
 11
375.081575
 21
544.653181
  0
LINE
  5
140
100
AcDbEntity
  8
M0
  6
DASHED
 62
     7
100
AcDbLine
 10
375.081575
 20
527.153181
 11
375.081575
 21
513.153181
  0
LINE
  5
141
100
AcDbEntity
  8
M0
  6
DASHED
 62
     7
100
AcDbLine
 10
380.081575
 20
513.153181
 11
380.081575
 21
527.153181
  0
LINE
  5
142
100
AcDbEntity
  8
M0
  6
DASHDOT
 62
     7
100
AcDbLine
 10
332.042634
 20
572.153181
 11
349.124223
 21
572.153181
  0
LINE
  5
143
100
AcDbEntity
  8
M0
 62
     7
100
AcDbLine
 10
357.081575
 20
544.653181
 11
357.081575
 21
527.153181
  0
LINE
  5
144
100
AcDbEntity
  8
M0
 62
     7
100
AcDbLine
 10
350.081575
 20
472.153181
 11
350.081575
 21
482.152952
  0
LINE
  5
145
100
AcDbEntity
  8
M0
 62
     7
100
AcDbLine
 10
350.081575
 20
482.152952
 11
362.981584
 21
482.152952
  0
LINE
  5
146
100
AcDbEntity
  8
M0
 62
     7
100
AcDbLine
 10
387.081575
 20
472.153181
 11
380.081575
 21
472.153181
  0
LINE
  5
147
100
AcDbEntity
  8
M0
  6
DASHDOT
 62
     7
100
AcDbLine
 10
390.08011
 20
477.153181
 11
347.141099
 21
477.153181
  0
LINE
  5
148
100
AcDbEntity
  8
M0
 62
     7
100
AcDbLine
 10
380.081575
 20
467.344175
 11
380.081575
 21
486.962034
  0
LINE
  5
149
100
AcDbEntity
  8
M0
 62
     7
100
AcDbLine
 10
380.081575
 20
486.962034
 11
387.081575
 21
486.962034
  0
LINE
  5
14A
100
AcDbEntity
  8
M0
 62
     7
100
AcDbLine
 10
387.081575
 20
486.962034
 11
387.081575
 21
467.344175
  0
LINE
  5
14B
100
AcDbEntity
  8
M0
 62
     7
100
AcDbLine
 10
387.081575
 20
467.344175
 11
380.081575
 21
467.344175
  0
LINE
  5
14C
100
AcDbEntity
  8
M0
 62
     7
100
AcDbLine
 10
380.081575
 20
482.152952
 11
387.081575
 21
482.152952
  0
LINE
  5
14D
100
AcDbEntity
  8
M0
 62
     7
100
AcDbLine
 10
362.981584
 20
472.153181
 11
350.081575
 21
472.153181
  0
LINE
  5
14E
100
AcDbEntity
  8
M0
 62
     7
100
AcDbLine
 10
362.981584
 20
481.152952
 11
350.081575
 21
481.152952
  0
LINE
  5
14F
100
AcDbEntity
  8
M0
 62
     7
100
AcDbLine
 10
362.981584
 20
473.153181
 11
350.081575
 21
473.153181
  0
LINE
  5
150
100
AcDbEntity
  8
M0
  6
DASHED
 62
     7
100
AcDbLine
 10
372.781576
 20
497.403181
 11
372.781576
 21
508.903181
  0
LINE
  5
151
100
AcDbEntity
  8
M0
  6
DASHED
 62
     7
100
AcDbLine
 10
371.981588
 20
497.403181
 11
372.781576
 21
497.403181
  0
LINE
  5
152
100
AcDbEntity
  8
M0
  6
DASHED
 62
     7
100
AcDbLine
 10
371.981588
 20
508.903181
 11
372.781576
 21
508.903181
  0
LINE
  5
153
100
AcDbEntity
  8
M0
  6
DASHED
 62
     7
100
AcDbLine
 10
371.981588
 20
497.403181
 11
371.981588
 21
508.903181
  0
LINE
  5
154
100
AcDbEntity
  8
M0
  6
DASHED
 62
     7
100
AcDbLine
 10
370.481588
 20
508.653181
 11
371.981588
 21
508.653181
  0
LINE
  5
155
100
AcDbEntity
  8
M0
  6
DASHED
 62
     7
100
AcDbLine
 10
370.481588
 20
497.653181
 11
371.981588
 21
497.653181
  0
ARC
  5
156
100
AcDbEntity
  8
M0
  6
DASHED
 62
     7
100
AcDbCircle
 10
380.581578
 20
503.153181
 40
14.0
100
AcDbArc
 50
163.883899
 51
196.072618
  0
ARC
  5
157
100
AcDbEntity
  8
M0
  6
DASHED
 62
     7
100
AcDbCircle
 10
368.954564
 20
499.803327
 40
1.9
100
AcDbArc
 50
196.075669
 51
270.0
  0
LINE
  5
158
100
AcDbEntity
  8
M0
  6
DASHED
 62
     7
100
AcDbLine
 10
368.954564
 20
497.903181
 11
370.481588
 21
497.903181
  0
ARC
  5
159
100
AcDbEntity
  8
M0
  6
DASHED
 62
     7
100
AcDbCircle
 10
368.954564
 20
506.503278
 40
1.9
100
AcDbArc
 50
90.0
 51
163.924765
  0
LINE
  5
15A
100
AcDbEntity
  8
M0
  6
DASHED
 62
     7
100
AcDbLine
 10
370.481588
 20
508.403181
 11
368.954564
 21
508.403181
  0
LINE
  5
15B
100
AcDbEntity
  8
M0
  6
DIVIDE
 62
     7
100
AcDbLine
 10
364.226537
 20
503.153181
 11
390.391163
 21
503.153165
  0
LINE
  5
15C
100
AcDbEntity
  8
M0
  6
DASHED
 62
     7
100
AcDbLine
 10
370.481588
 20
508.653181
 11
370.481588
 21
497.653181
  0
LINE
  5
15D
100
AcDbEntity
  8
M0
  6
DASHED
 62
     7
100
AcDbLine
 10
371.981588
 20
503.153181
 11
370.481588
 21
502.153181
  0
LINE
  5
15E
100
AcDbEntity
  8
M0
  6
DASHED
 62
     7
100
AcDbLine
 10
370.481588
 20
503.153181
 11
371.981588
 21
504.153181
  0
ARC
  5
15F
100
AcDbEntity
  8
M0
 62
     7
100
AcDbCircle
 10
408.831575
 20
550.403181
 40
3.0
100
AcDbArc
 50
0.0
 51
90.0
  0
LINE
  5
160
100
AcDbEntity
  8
M0
 62
     7
100
AcDbLine
 10
408.831575
 20
553.403181
 11
389.331575
 21
553.403181
  0
ARC
  5
161
100
AcDbEntity
  8
M0
 62
     7
100
AcDbCircle
 10
389.331575
 20
550.403181
 40
3.0
100
AcDbArc
 50
90.0
 51
180.0
  0
LINE
  5
162
100
AcDbEntity
  8
M0
 62
     7
100
AcDbLine
 10
386.331575
 20
550.403181
 11
386.331575
 21
544.653181
  0
LINE
  5
163
100
AcDbEntity
  8
M0
 62
     7
100
AcDbLine
 10
411.831575
 20
526.750837
 11
411.831575
 21
550.403181
  0
LINE
  5
164
100
AcDbEntity
  8
M0
 62
     7
100
AcDbLine
 10
386.331575
 20
527.153181
 11
386.331575
 21
525.250852
  0
LINE
  5
165
100
AcDbEntity
  8
M0
 62
     7
100
AcDbLine
 10
363.831331
 20
545.353239
 11
363.757112
 21
546.200559
  0
LINE
  5
166
100
AcDbEntity
  8
M0
 62
     7
100
AcDbLine
 10
358.331819
 20
545.353254
 11
358.405794
 21
546.200559
  0
ARC
  5
167
100
AcDbEntity
  8
M0
 62
     7
100
AcDbCircle
 10
359.402131
 20
546.113416
 40
1.0
100
AcDbArc
 50
106.261219
 51
175.001555
  0
ARC
  5
168
100
AcDbEntity
  8
M0
 62
     7
100
AcDbCircle
 10
362.760774
 20
546.113416
 40
1.0
100
AcDbArc
 50
4.998384
 51
73.752035
  0
ARC
  5
169
100
AcDbEntity
  8
M0
 62
     7
100
AcDbCircle
 10
361.081575
 20
540.353239
 40
7.0
100
AcDbArc
 50
72.985025
 51
106.255566
  0
LINE
  5
16A
100
AcDbEntity
  8
M0
 62
     7
100
AcDbLine
 10
363.831331
 20
544.653181
 11
358.331331
 21
544.653181
  0
LINE
  5
16B
100
AcDbEntity
  8
M0
 62
     7
100
AcDbLine
 10
358.331331
 20
545.353132
 11
358.331331
 21
544.653181
  0
LINE
  5
16C
100
AcDbEntity
  8
M0
 62
     7
100
AcDbLine
 10
363.831331
 20
545.353132
 11
363.831331
 21
544.653181
  0
LINE
  5
16D
100
AcDbEntity
  8
M0
 62
     7
100
AcDbLine
 10
362.38138
 20
525.353757
 11
362.38138
 21
521.353239
  0
LINE
  5
16E
100
AcDbEntity
  8
M0
 62
     7
100
AcDbLine
 10
359.781527
 20
525.353757
 11
359.781527
 21
521.353239
  0
LINE
  5
16F
100
AcDbEntity
  8
M0
 62
     7
100
AcDbLine
 10
359.581576
 20
525.353757
 11
359.581576
 21
521.353239
  0
LINE
  5
170
100
AcDbEntity
  8
M0
 62
     7
100
AcDbLine
 10
362.581576
 20
521.353239
 11
362.581576
 21
525.353757
  0
LINE
  5
171
100
AcDbEntity
  8
M0
 62
     7
100
AcDbLine
 10
359.581576
 20
521.353239
 11
362.581576
 21
521.353239
  0
LINE
  5
172
100
AcDbEntity
  8
M0
 62
     7
100
AcDbLine
 10
358.331575
 20
545.353239
 11
363.831575
 21
545.353239
  0
LINE
  5
173
100
AcDbEntity
  8
M0
 62
     7
100
AcDbLine
 10
361.081575
 20
544.653181
 11
360.581575
 21
545.353239
  0
LINE
  5
174
100
AcDbEntity
  8
M0
 62
     7
100
AcDbLine
 10
361.081575
 20
545.353239
 11
361.581575
 21
544.653181
  0
LINE
  5
175
100
AcDbEntity
  8
M0
 62
     7
100
AcDbLine
 10
398.331819
 20
545.353239
 11
398.406038
 21
546.200559
  0
LINE
  5
176
100
AcDbEntity
  8
M0
 62
     7
100
AcDbLine
 10
403.831331
 20
545.353254
 11
403.757356
 21
546.200559
  0
ARC
  5
177
100
AcDbEntity
  8
M0
 62
     7
100
AcDbCircle
 10
402.761018
 20
546.113416
 40
1.0
100
AcDbArc
 50
4.998445
 51
73.738886
  0
ARC
  5
178
100
AcDbEntity
  8
M0
 62
     7
100
AcDbCircle
 10
399.402376
 20
546.113416
 40
1.0
100
AcDbArc
 50
106.248385
 51
175.001631
  0
ARC
  5
179
100
AcDbEntity
  8
M0
 62
     7
100
AcDbCircle
 10
401.081575
 20
540.353239
 40
7.0
100
AcDbArc
 50
73.744411
 51
107.014908
  0
LINE
  5
17A
100
AcDbEntity
  8
M0
 62
     7
100
AcDbLine
 10
398.331819
 20
544.653181
 11
403.831819
 21
544.653181
  0
LINE
  5
17B
100
AcDbEntity
  8
M0
 62
     7
100
AcDbLine
 10
403.831819
 20
545.353132
 11
403.831819
 21
544.653181
  0
LINE
  5
17C
100
AcDbEntity
  8
M0
 62
     7
100
AcDbLine
 10
398.331819
 20
545.353132
 11
398.331819
 21
544.653181
  0
LINE
  5
17D
100
AcDbEntity
  8
M0
 62
     7
100
AcDbLine
 10
399.78177
 20
527.153181
 11
399.78177
 21
526.750837
  0
LINE
  5
17E
100
AcDbEntity
  8
M0
 62
     7
100
AcDbLine
 10
402.381624
 20
527.153181
 11
402.381624
 21
526.750837
  0
LINE
  5
17F
100
AcDbEntity
  8
M0
 62
     7
100
AcDbLine
 10
402.581575
 20
527.153181
 11
402.581575
 21
526.750837
  0
LINE
  5
180
100
AcDbEntity
  8
M0
 62
     7
100
AcDbLine
 10
399.581575
 20
526.750837
 11
399.581575
 21
527.153181
  0
LINE
  5
181
100
AcDbEntity
  8
M0
 62
     7
100
AcDbLine
 10
403.831575
 20
545.353239
 11
398.331575
 21
545.353239
  0
LINE
  5
182
100
AcDbEntity
  8
M0
 62
     7
100
AcDbLine
 10
401.081575
 20
544.653181
 11
401.581575
 21
545.353239
  0
LINE
  5
183
100
AcDbEntity
  8
M0
 62
     7
100
AcDbLine
 10
401.081575
 20
545.353239
 11
400.581575
 21
544.653181
  0
LINE
  5
184
100
AcDbEntity
  8
M0
  6
DASHED
 62
     7
100
AcDbLine
 10
380.081575
 20
506.153181
 11
392.081575
 21
506.153181
  0
LINE
  5
185
100
AcDbEntity
  8
M0
  6
DASHED
 62
     7
100
AcDbLine
 10
380.081575
 20
500.153181
 11
392.081575
 21
500.153181
  0
ARC
  5
186
100
AcDbEntity
  8
M0
 62
     1
100
AcDbCircle
 10
175.797571
 20
487.152967
 40
1.0
100
AcDbArc
 50
179.999126
 51
270.0
  0
ARC
  5
187
100
AcDbEntity
  8
M0
 62
     1
100
AcDbCircle
 10
175.797571
 20
487.152967
 40
1.0
100
AcDbArc
 50
270.0
 51
360.0
  0
LINE
  5
188
100
AcDbEntity
  8
M0
 62
     1
100
AcDbLine
 10
166.797609
 20
487.152982
 11
163.797609
 21
487.152982
  0
LINE
  5
189
100
AcDbEntity
  8
M0
 62
     1
100
AcDbLine
 10
145.047655
 20
528.652711
 11
145.047655
 21
529.453004
  0
ARC
  5
18A
100
AcDbEntity
  8
M0
 62
     1
100
AcDbCircle
 10
144.047655
 20
529.453006
 40
1.0
100
AcDbArc
 50
0.0
 51
89.999126
  0
LINE
  5
18B
100
AcDbEntity
  8
M0
 62
     1
100
AcDbLine
 10
187.797619
 20
527.652937
 11
155.79767
 21
527.652744
  0
LINE
  5
18C
100
AcDbEntity
  8
M0
 62
     1
100
AcDbLine
 10
125.297655
 20
528.952742
 11
125.297609
 21
493.652952
  0
LINE
  5
18D
100
AcDbEntity
  8
M0
 62
     1
100
AcDbLine
 10
166.797593
 20
491.152982
 11
167.85489
 21
491.152982
  0
LINE
  5
18E
100
AcDbEntity
  8
M0
 62
     1
100
AcDbLine
 10
187.797573
 20
488.652952
 11
187.797639
 21
530.652937
  0
LINE
  5
18F
100
AcDbEntity
  8
M0
 62
     1
100
AcDbLine
 10
183.942632
 20
523.152943
 11
172.147634
 21
523.152961
  0
LINE
  5
190
100
AcDbEntity
  8
M0
 62
     1
100
AcDbLine
 10
150.797624
 20
496.152998
 11
150.79767
 21
529.652995
  0
LINE
  5
191
100
AcDbEntity
  8
M0
 62
     1
100
AcDbLine
 10
153.297624
 20
496.152998
 11
153.29767
 21
529.652991
  0
LINE
  5
192
100
AcDbEntity
  8
M0
 62
     1
100
AcDbLine
 10
140.797624
 20
496.153013
 11
140.79767
 21
529.653011
  0
LINE
  5
193
100
AcDbEntity
  8
M0
 62
     1
100
AcDbLine
 10
138.297624
 20
496.153028
 11
138.29767
 21
529.653015
  0
LINE
  5
194
100
AcDbEntity
  8
M0
 62
     1
100
AcDbLine
 10
152.297685
 20
530.652993
 11
151.797685
 21
530.652993
  0
ARC
  5
195
100
AcDbEntity
  8
M0
 62
     1
100
AcDbCircle
 10
152.29767
 20
529.652993
 40
1.0
100
AcDbArc
 50
0.0
 51
89.999126
  0
LINE
  5
196
100
AcDbEntity
  8
M0
 62
     1
100
AcDbLine
 10
144.047655
 20
530.453006
 11
140.3976
 21
530.452985
  0
ARC
  5
197
100
AcDbEntity
  8
M0
 62
     1
100
AcDbCircle
 10
151.79767
 20
529.652994
 40
1.0
100
AcDbArc
 50
89.999126
 51
179.999962
  0
LINE
  5
198
100
AcDbEntity
  8
M0
 62
     1
100
AcDbLine
 10
161.797639
 20
510.152982
 11
154.797639
 21
510.152998
  0
LINE
  5
199
100
AcDbEntity
  8
M0
 62
     1
100
AcDbLine
 10
161.797655
 20
514.652979
 11
154.797655
 21
514.652989
  0
LINE
  5
19A
100
AcDbEntity
  8
M0
 62
     1
100
AcDbLine
 10
161.797655
 20
512.652982
 11
154.797655
 21
512.652998
  0
LINE
  5
19B
100
AcDbEntity
  8
M0
 62
     1
100
AcDbLine
 10
155.297655
 20
514.652988
 11
155.297655
 21
514.852939
  0
LINE
  5
19C
100
AcDbEntity
  8
M0
 62
     1
100
AcDbLine
 10
161.297655
 20
514.652979
 11
161.297655
 21
514.85293
  0
LINE
  5
19D
100
AcDbEntity
  8
M0
 62
     1
100
AcDbLine
 10
160.79767
 20
524.452784
 11
160.79767
 21
527.652979
  0
LINE
  5
19E
100
AcDbEntity
  8
M0
 62
     1
100
AcDbLine
 10
155.79767
 20
524.452793
 11
155.79767
 21
527.652988
  0
LINE
  5
19F
100
AcDbEntity
  8
M0
 62
     1
100
AcDbLine
 10
148.29767
 20
524.453048
 11
148.29767
 21
527.652999
  0
LINE
  5
1A0
100
AcDbEntity
  8
M0
 62
     1
100
AcDbLine
 10
143.29767
 20
524.453056
 11
143.29767
 21
527.653007
  0
LINE
  5
1A1
100
AcDbEntity
  8
M0
 62
     1
100
AcDbLine
 10
130.79767
 20
524.453076
 11
130.79767
 21
527.653027
  0
LINE
  5
1A2
100
AcDbEntity
  8
M0
 62
     1
100
AcDbLine
 10
135.79767
 20
524.453068
 11
135.79767
 21
527.65302
  0
LINE
  5
1A3
100
AcDbEntity
  8
M0
 62
     1
100
AcDbLine
 10
142.797655
 20
514.653008
 11
142.797655
 21
514.853203
  0
LINE
  5
1A4
100
AcDbEntity
  8
M0
 62
     1
100
AcDbLine
 10
148.797655
 20
514.652999
 11
148.797655
 21
514.853194
  0
LINE
  5
1A5
100
AcDbEntity
  8
M0
 62
     1
100
AcDbLine
 10
130.297655
 20
514.653028
 11
130.297655
 21
514.853223
  0
LINE
  5
1A6
100
AcDbEntity
  8
M0
 62
     1
100
AcDbLine
 10
136.297655
 20
514.653019
 11
136.297655
 21
514.853214
  0
LINE
  5
1A7
100
AcDbEntity
  8
M0
 62
     1
100
AcDbLine
 10
155.79767
 20
527.652988
 11
153.29767
 21
527.652992
  0
LINE
  5
1A8
100
AcDbEntity
  8
M0
 62
     1
100
AcDbLine
 10
143.29767
 20
527.653007
 11
140.79767
 21
527.653011
  0
LINE
  5
1A9
100
AcDbEntity
  8
M0
 62
     1
100
AcDbLine
 10
130.79767
 20
527.653027
 11
128.29767
 21
527.653031
  0
LINE
  5
1AA
100
AcDbEntity
  8
M0
 62
     1
100
AcDbLine
 10
149.297655
 20
514.652998
 11
142.297655
 21
514.653009
  0
LINE
  5
1AB
100
AcDbEntity
  8
M0
 62
     1
100
AcDbLine
 10
136.797655
 20
514.653018
 11
129.797655
 21
514.653029
  0
LINE
  5
1AC
100
AcDbEntity
  8
M0
 62
     1
100
AcDbLine
 10
162.797655
 20
515.652977
 11
162.79767
 21
526.652977
  0
LINE
  5
1AD
100
AcDbEntity
  8
M0
 62
     1
100
AcDbLine
 10
153.797655
 20
515.652991
 11
153.79767
 21
526.652991
  0
LINE
  5
1AE
100
AcDbEntity
  8
M0
 62
     1
100
AcDbLine
 10
150.297655
 20
515.652997
 11
150.29767
 21
526.652997
  0
LINE
  5
1AF
100
AcDbEntity
  8
M0
 62
     1
100
AcDbLine
 10
141.297655
 20
515.653011
 11
141.29767
 21
526.653011
  0
LINE
  5
1B0
100
AcDbEntity
  8
M0
 62
     1
100
AcDbLine
 10
137.797655
 20
515.653016
 11
137.79767
 21
526.653016
  0
LINE
  5
1B1
100
AcDbEntity
  8
M0
 62
     1
100
AcDbLine
 10
128.797655
 20
515.65303
 11
128.79767
 21
526.65303
  0
LINE
  5
1B2
100
AcDbEntity
  8
M0
 62
     1
100
AcDbLine
 10
150.79767
 20
527.652996
 11
143.29767
 21
527.652763
  0
LINE
  5
1B3
100
AcDbEntity
  8
M0
 62
     1
100
AcDbLine
 10
138.29767
 20
527.653016
 11
130.79767
 21
527.652783
  0
LINE
  5
1B4
100
AcDbEntity
  8
M0
 62
     1
100
AcDbLine
 10
163.297624
 20
492.652982
 11
163.297639
 21
511.152982
  0
ARC
  5
1B5
100
AcDbEntity
  8
M0
 62
     1
100
AcDbCircle
 10
163.79767
 20
526.652975
 40
1.0
100
AcDbArc
 50
119.999201
 51
179.999945
  0
ARC
  5
1B6
100
AcDbEntity
  8
M0
 62
     1
100
AcDbCircle
 10
151.29767
 20
526.652995
 40
1.0
100
AcDbArc
 50
119.999201
 51
179.999945
  0
ARC
  5
1B7
100
AcDbEntity
  8
M0
 62
     1
100
AcDbCircle
 10
138.79767
 20
526.653015
 40
1.0
100
AcDbArc
 50
119.999201
 51
179.999945
  0
ARC
  5
1B8
100
AcDbEntity
  8
M0
 62
     1
100
AcDbCircle
 10
152.79767
 20
526.652993
 40
1.0
100
AcDbArc
 50
0.0
 51
59.999258
  0
ARC
  5
1B9
100
AcDbEntity
  8
M0
 62
     1
100
AcDbCircle
 10
140.29767
 20
526.653012
 40
1.0
100
AcDbArc
 50
0.0
 51
59.999258
  0
LINE
  5
1BA
100
AcDbEntity
  8
M0
 62
     1
100
AcDbLine
 10
128.297655
 20
515.653031
 11
128.29767
 21
527.653031
  0
ARC
  5
1BB
100
AcDbEntity
  8
M0
 62
     1
100
AcDbCircle
 10
127.79767
 20
526.653032
 40
1.0
100
AcDbArc
 50
0.0
 51
59.999258
  0
LINE
  5
1BC
100
AcDbEntity
  8
M0
 62
     1
100
AcDbLine
 10
135.547685
 20
528.971574
 11
135.547685
 21
529.45302
  0
ARC
  5
1BD
100
AcDbEntity
  8
M0
 62
     1
100
AcDbCircle
 10
136.547685
 20
529.453018
 40
1.0
100
AcDbArc
 50
89.999126
 51
179.999945
  0
ARC
  5
1BE
100
AcDbEntity
  8
M0
 62
     1
100
AcDbCircle
 10
139.79767
 20
529.653012
 40
1.0
100
AcDbArc
 50
0.0
 51
89.999126
  0
ARC
  5
1BF
100
AcDbEntity
  8
M0
 62
     1
100
AcDbCircle
 10
139.29767
 20
529.653013
 40
1.0
100
AcDbArc
 50
89.999126
 51
179.999962
  0
LINE
  5
1C0
100
AcDbEntity
  8
M0
 62
     1
100
AcDbLine
 10
138.297685
 20
528.952742
 11
125.297655
 21
528.952742
  0
LINE
  5
1C1
100
AcDbEntity
  8
M0
 62
     1
100
AcDbLine
 10
136.797655
 20
512.653028
 11
125.297624
 21
512.653043
  0
LINE
  5
1C2
100
AcDbEntity
  8
M0
 62
     1
100
AcDbLine
 10
149.297655
 20
512.652998
 11
142.297655
 21
512.653013
  0
ARC
  5
1C3
100
AcDbEntity
  8
M0
 62
     1
100
AcDbCircle
 10
149.297655
 20
516.152998
 40
1.499996
100
AcDbArc
 50
270.0
 51
360.0
  0
ARC
  5
1C4
100
AcDbEntity
  8
M0
 62
     1
100
AcDbCircle
 10
136.797655
 20
516.153018
 40
1.499996
100
AcDbArc
 50
270.0
 51
360.0
  0
ARC
  5
1C5
100
AcDbEntity
  8
M0
 62
     1
100
AcDbCircle
 10
136.797655
 20
515.653018
 40
1.0
100
AcDbArc
 50
270.0
 51
360.0
  0
ARC
  5
1C6
100
AcDbEntity
  8
M0
 62
     1
100
AcDbCircle
 10
149.297655
 20
515.652998
 40
1.0
100
AcDbArc
 50
270.0
 51
360.0
  0
ARC
  5
1C7
100
AcDbEntity
  8
M0
 62
     1
100
AcDbCircle
 10
161.797655
 20
516.152979
 40
1.499996
100
AcDbArc
 50
270.0
 51
360.0
  0
ARC
  5
1C8
100
AcDbEntity
  8
M0
 62
     1
100
AcDbCircle
 10
161.797655
 20
515.652979
 40
1.0
100
AcDbArc
 50
270.0
 51
360.0
  0
ARC
  5
1C9
100
AcDbEntity
  8
M0
 62
     1
100
AcDbCircle
 10
154.797655
 20
516.152989
 40
1.499996
100
AcDbArc
 50
179.999964
 51
270.0
  0
ARC
  5
1CA
100
AcDbEntity
  8
M0
 62
     1
100
AcDbCircle
 10
142.297655
 20
516.153009
 40
1.499996
100
AcDbArc
 50
179.999964
 51
270.0
  0
ARC
  5
1CB
100
AcDbEntity
  8
M0
 62
     1
100
AcDbCircle
 10
154.797655
 20
515.652989
 40
1.0
100
AcDbArc
 50
179.999945
 51
270.0
  0
ARC
  5
1CC
100
AcDbEntity
  8
M0
 62
     1
100
AcDbCircle
 10
142.297655
 20
515.653009
 40
1.0
100
AcDbArc
 50
179.999945
 51
270.0
  0
ARC
  5
1CD
100
AcDbEntity
  8
M0
 62
     1
100
AcDbCircle
 10
129.797655
 20
515.653029
 40
1.0
100
AcDbArc
 50
179.999945
 51
270.0
  0
ARC
  5
1CE
100
AcDbEntity
  8
M0
 62
     1
100
AcDbCircle
 10
129.797655
 20
516.153029
 40
1.499996
100
AcDbArc
 50
179.999964
 51
270.0
  0
ARC
  5
1CF
100
AcDbEntity
  8
M0
 62
     1
100
AcDbCircle
 10
127.297655
 20
515.653033
 40
1.0
100
AcDbArc
 50
270.0
 51
360.0
  0
LINE
  5
1D0
100
AcDbEntity
  8
M0
 62
     1
100
AcDbLine
 10
127.297655
 20
514.653033
 11
125.297624
 21
514.653036
  0
LINE
  5
1D1
100
AcDbEntity
  8
M0
 62
     1
100
AcDbLine
 10
163.297624
 20
500.152982
 11
153.297624
 21
500.152998
  0
LINE
  5
1D2
100
AcDbEntity
  8
M0
 62
     1
100
AcDbLine
 10
163.297655
 20
516.152976
 11
163.29767
 21
527.652976
  0
ARC
  5
1D3
100
AcDbEntity
  8
M0
 62
     1
100
AcDbCircle
 10
154.797639
 20
511.152998
 40
1.499996
100
AcDbArc
 50
89.999417
 51
179.999417
  0
ARC
  5
1D4
100
AcDbEntity
  8
M0
 62
     1
100
AcDbCircle
 10
161.797639
 20
511.152982
 40
1.499996
100
AcDbArc
 50
0.0
 51
89.999417
  0
ARC
  5
1D5
100
AcDbEntity
  8
M0
 62
     1
100
AcDbCircle
 10
149.297639
 20
511.152998
 40
1.499996
100
AcDbArc
 50
0.0
 51
89.999417
  0
ARC
  5
1D6
100
AcDbEntity
  8
M0
 62
     1
100
AcDbCircle
 10
142.297639
 20
511.153013
 40
1.499996
100
AcDbArc
 50
89.999417
 51
179.999417
  0
ARC
  5
1D7
100
AcDbEntity
  8
M0
 62
     1
100
AcDbCircle
 10
136.797639
 20
511.153028
 40
1.499996
100
AcDbArc
 50
0.0
 51
89.999417
  0
LINE
  5
1D8
100
AcDbEntity
  8
M0
 62
     1
100
AcDbLine
 10
128.297624
 20
499.653043
 11
128.297655
 21
511.653043
  0
ARC
  5
1D9
100
AcDbEntity
  8
M0
 62
     1
100
AcDbCircle
 10
129.797639
 20
511.153043
 40
1.499996
100
AcDbArc
 50
89.999417
 51
179.999417
  0
ARC
  5
1DA
100
AcDbEntity
  8
M0
 62
     1
100
AcDbCircle
 10
127.297655
 20
511.653043
 40
1.0
100
AcDbArc
 50
0.0
 51
89.999126
  0
LINE
  5
1DB
100
AcDbEntity
  8
M0
 62
     1
100
AcDbLine
 10
150.797624
 20
500.152998
 11
140.797624
 21
500.153013
  0
LINE
  5
1DC
100
AcDbEntity
  8
M0
 62
     1
100
AcDbLine
 10
138.297624
 20
500.153028
 11
128.297624
 21
500.153043
  0
ARC
  5
1DD
100
AcDbEntity
  8
M0
 62
     1
100
AcDbCircle
 10
161.797639
 20
508.652982
 40
1.499996
100
AcDbArc
 50
0.0
 51
89.999417
  0
LINE
  5
1DE
100
AcDbEntity
  8
M0
 62
     1
100
AcDbLine
 10
149.297639
 20
510.152998
 11
142.297639
 21
510.153013
  0
LINE
  5
1DF
100
AcDbEntity
  8
M0
 62
     1
100
AcDbLine
 10
136.797639
 20
510.153028
 11
129.797639
 21
510.153043
  0
ARC
  5
1E0
100
AcDbEntity
  8
M0
 62
     1
100
AcDbCircle
 10
154.797639
 20
508.652998
 40
1.499996
100
AcDbArc
 50
89.999417
 51
179.999417
  0
ARC
  5
1E1
100
AcDbEntity
  8
M0
 62
     1
100
AcDbCircle
 10
142.297639
 20
508.653013
 40
1.499996
100
AcDbArc
 50
89.999417
 51
179.999417
  0
ARC
  5
1E2
100
AcDbEntity
  8
M0
 62
     1
100
AcDbCircle
 10
129.797639
 20
508.653043
 40
1.499996
100
AcDbArc
 50
89.999417
 51
179.999417
  0
ARC
  5
1E3
100
AcDbEntity
  8
M0
 62
     1
100
AcDbCircle
 10
149.297639
 20
508.652998
 40
1.499996
100
AcDbArc
 50
0.0
 51
89.999417
  0
ARC
  5
1E4
100
AcDbEntity
  8
M0
 62
     1
100
AcDbCircle
 10
136.797639
 20
508.653028
 40
1.499996
100
AcDbArc
 50
0.0
 51
89.999417
  0
LINE
  5
1E5
100
AcDbEntity
  8
M0
 62
     1
100
AcDbLine
 10
162.797624
 20
501.152982
 11
162.797639
 21
509.152982
  0
LINE
  5
1E6
100
AcDbEntity
  8
M0
 62
     1
100
AcDbLine
 10
153.797624
 20
501.152998
 11
153.797639
 21
509.152998
  0
LINE
  5
1E7
100
AcDbEntity
  8
M0
 62
     1
100
AcDbLine
 10
150.297624
 20
501.152998
 11
150.297639
 21
509.152998
  0
LINE
  5
1E8
100
AcDbEntity
  8
M0
 62
     1
100
AcDbLine
 10
141.297624
 20
501.153013
 11
141.297639
 21
509.153013
  0
LINE
  5
1E9
100
AcDbEntity
  8
M0
 62
     1
100
AcDbLine
 10
137.797624
 20
501.153028
 11
137.797639
 21
509.153028
  0
LINE
  5
1EA
100
AcDbEntity
  8
M0
 62
     1
100
AcDbLine
 10
128.797624
 20
501.153043
 11
128.797639
 21
509.153043
  0
ARC
  5
1EB
100
AcDbEntity
  8
M0
 62
     1
100
AcDbCircle
 10
161.797639
 20
509.152982
 40
1.0
100
AcDbArc
 50
0.0
 51
89.999126
  0
ARC
  5
1EC
100
AcDbEntity
  8
M0
 62
     1
100
AcDbCircle
 10
149.297639
 20
509.152998
 40
1.0
100
AcDbArc
 50
0.0
 51
89.999126
  0
ARC
  5
1ED
100
AcDbEntity
  8
M0
 62
     1
100
AcDbCircle
 10
136.797639
 20
509.153028
 40
1.0
100
AcDbArc
 50
0.0
 51
89.999126
  0
ARC
  5
1EE
100
AcDbEntity
  8
M0
 62
     1
100
AcDbCircle
 10
154.797639
 20
509.152998
 40
1.0
100
AcDbArc
 50
89.999126
 51
179.999126
  0
ARC
  5
1EF
100
AcDbEntity
  8
M0
 62
     1
100
AcDbCircle
 10
142.297639
 20
509.153013
 40
1.0
100
AcDbArc
 50
89.999126
 51
179.999126
  0
ARC
  5
1F0
100
AcDbEntity
  8
M0
 62
     1
100
AcDbCircle
 10
129.797639
 20
509.153043
 40
1.0
100
AcDbArc
 50
89.999126
 51
179.999126
  0
ARC
  5
1F1
100
AcDbEntity
  8
M0
 62
     1
100
AcDbCircle
 10
163.797624
 20
501.152982
 40
1.0
100
AcDbArc
 50
179.999126
 51
239.999632
  0
ARC
  5
1F2
100
AcDbEntity
  8
M0
 62
     1
100
AcDbCircle
 10
151.297624
 20
501.152998
 40
1.0
100
AcDbArc
 50
179.999126
 51
239.999632
  0
ARC
  5
1F3
100
AcDbEntity
  8
M0
 62
     1
100
AcDbCircle
 10
138.797624
 20
501.153028
 40
1.0
100
AcDbArc
 50
179.999126
 51
239.999632
  0
ARC
  5
1F4
100
AcDbEntity
  8
M0
 62
     1
100
AcDbCircle
 10
127.797624
 20
501.153043
 40
1.0
100
AcDbArc
 50
300.001125
 51
360.0
  0
ARC
  5
1F5
100
AcDbEntity
  8
M0
 62
     1
100
AcDbCircle
 10
140.297624
 20
501.153013
 40
1.0
100
AcDbArc
 50
300.001125
 51
360.0
  0
ARC
  5
1F6
100
AcDbEntity
  8
M0
 62
     1
100
AcDbCircle
 10
152.797624
 20
501.152998
 40
1.0
100
AcDbArc
 50
300.001125
 51
360.0
  0
LINE
  5
1F7
100
AcDbEntity
  8
M0
 62
     1
100
AcDbLine
 10
152.297624
 20
495.152998
 11
151.797624
 21
495.152998
  0
LINE
  5
1F8
100
AcDbEntity
  8
M0
 62
     1
100
AcDbLine
 10
139.797624
 20
495.153013
 11
139.297624
 21
495.153028
  0
ARC
  5
1F9
100
AcDbEntity
  8
M0
 62
     1
100
AcDbCircle
 10
139.297624
 20
496.153028
 40
1.0
100
AcDbArc
 50
179.999126
 51
270.0
  0
ARC
  5
1FA
100
AcDbEntity
  8
M0
 62
     1
100
AcDbCircle
 10
139.797624
 20
496.153013
 40
1.0
100
AcDbArc
 50
270.0
 51
360.0
  0
ARC
  5
1FB
100
AcDbEntity
  8
M0
 62
     1
100
AcDbCircle
 10
151.797624
 20
496.152998
 40
1.0
100
AcDbArc
 50
179.999126
 51
270.0
  0
ARC
  5
1FC
100
AcDbEntity
  8
M0
 62
     1
100
AcDbCircle
 10
152.297624
 20
496.152998
 40
1.0
100
AcDbArc
 50
270.0
 51
360.0
  0
LINE
  5
1FD
100
AcDbEntity
  8
M0
 62
     1
100
AcDbLine
 10
163.297624
 20
493.652982
 11
153.547624
 21
493.652998
  0
LINE
  5
1FE
100
AcDbEntity
  8
M0
 62
     1
100
AcDbLine
 10
132.547624
 20
493.653028
 11
132.547624
 21
500.153028
  0
LINE
  5
1FF
100
AcDbEntity
  8
M0
 62
     1
100
AcDbLine
 10
137.047624
 20
493.653028
 11
137.047624
 21
500.153028
  0
LINE
  5
200
100
AcDbEntity
  8
M0
 62
     1
100
AcDbLine
 10
157.547624
 20
493.652998
 11
157.547624
 21
500.152998
  0
LINE
  5
201
100
AcDbEntity
  8
M0
 62
     1
100
AcDbLine
 10
162.047624
 20
493.652982
 11
162.047624
 21
500.152982
  0
LINE
  5
202
100
AcDbEntity
  8
M0
 62
     1
100
AcDbLine
 10
127.297624
 20
498.653043
 11
125.297593
 21
498.653043
  0
ARC
  5
203
100
AcDbEntity
  8
M0
 62
     1
100
AcDbCircle
 10
127.297624
 20
499.653043
 40
1.0
100
AcDbArc
 50
270.0
 51
360.0
  0
LINE
  5
204
100
AcDbEntity
  8
M0
 62
     1
100
AcDbLine
 10
184.797574
 20
489.152952
 11
184.797599
 21
505.252988
  0
LINE
  5
205
100
AcDbEntity
  8
M0
 62
     1
100
AcDbLine
 10
187.297571
 20
497.152952
 11
185.797572
 21
497.152952
  0
ARC
  5
206
100
AcDbEntity
  8
M0
 62
     1
100
AcDbCircle
 10
187.297572
 20
497.652952
 40
0.5
100
AcDbArc
 50
270.0
 51
360.0
  0
ARC
  5
207
100
AcDbEntity
  8
M0
 62
     1
100
AcDbCircle
 10
185.797573
 20
498.152952
 40
1.0
100
AcDbArc
 50
179.999126
 51
270.0
  0
LINE
  5
208
100
AcDbEntity
  8
M0
 62
     1
100
AcDbLine
 10
187.297575
 20
490.152952
 11
185.797575
 21
490.152952
  0
LINE
  5
209
100
AcDbEntity
  8
M0
 62
     1
100
AcDbLine
 10
187.297572
 20
488.152952
 11
185.797573
 21
488.152952
  0
ARC
  5
20A
100
AcDbEntity
  8
M0
 62
     1
100
AcDbCircle
 10
187.297573
 20
488.652952
 40
0.5
100
AcDbArc
 50
270.0
 51
360.0
  0
ARC
  5
20B
100
AcDbEntity
  8
M0
 62
     1
100
AcDbCircle
 10
185.797574
 20
489.152952
 40
1.0
100
AcDbArc
 50
179.999126
 51
270.0
  0
ARC
  5
20C
100
AcDbEntity
  8
M0
 62
     1
100
AcDbCircle
 10
187.297576
 20
490.652952
 40
0.5
100
AcDbArc
 50
270.0
 51
360.0
  0
ARC
  5
20D
100
AcDbEntity
  8
M0
 62
     1
100
AcDbCircle
 10
185.797577
 20
491.152952
 40
1.0
100
AcDbArc
 50
179.999126
 51
270.0
  0
LINE
  5
20E
100
AcDbEntity
  8
M0
 62
     1
100
AcDbLine
 10
187.297583
 20
495.152952
 11
185.797584
 21
495.152952
  0
ARC
  5
20F
100
AcDbEntity
  8
M0
 62
     1
100
AcDbCircle
 10
185.797585
 20
496.152952
 40
1.0
100
AcDbArc
 50
179.999126
 51
270.0
  0
ARC
  5
210
100
AcDbEntity
  8
M0
 62
     1
100
AcDbCircle
 10
187.297584
 20
495.652952
 40
0.5
100
AcDbArc
 50
270.0
 51
360.0
  0
LINE
  5
211
100
AcDbEntity
  8
M0
 62
     1
100
AcDbLine
 10
176.797571
 20
487.152967
 11
176.797597
 21
503.952985
  0
LINE
  5
212
100
AcDbEntity
  8
M0
 62
     1
100
AcDbLine
 10
183.739838
 20
491.152952
 11
184.797547
 21
491.152952
  0
LINE
  5
213
100
AcDbEntity
  8
M0
 62
     1
100
AcDbLine
 10
184.797558
 20
498.152952
 11
184.048245
 21
498.152708
  0
LINE
  5
214
100
AcDbEntity
  8
M0
 62
     1
100
AcDbLine
 10
177.546627
 20
498.152723
 11
176.797558
 21
498.152967
  0
LINE
  5
215
100
AcDbEntity
  8
M0
 62
     1
100
AcDbLine
 10
173.797552
 20
494.152967
 11
173.797581
 21
503.952985
  0
LINE
  5
216
100
AcDbEntity
  8
M0
 62
     1
100
AcDbLine
 10
175.79758
 20
493.152967
 11
174.79758
 21
493.152967
  0
ARC
  5
217
100
AcDbEntity
  8
M0
 62
     1
100
AcDbCircle
 10
175.797582
 20
494.152967
 40
1.0
100
AcDbArc
 50
270.0
 51
360.0
  0
ARC
  5
218
100
AcDbEntity
  8
M0
 62
     1
100
AcDbCircle
 10
174.797582
 20
494.152967
 40
1.0
100
AcDbArc
 50
179.999126
 51
270.0
  0
LINE
  5
219
100
AcDbEntity
  8
M0
 62
     1
100
AcDbLine
 10
165.797624
 20
495.652998
 11
165.797639
 21
506.652982
  0
LINE
  5
21A
100
AcDbEntity
  8
M0
 62
     1
100
AcDbLine
 10
172.738644
 20
498.152967
 11
173.797589
 21
498.152967
  0
LINE
  5
21B
100
AcDbEntity
  8
M0
 62
     1
100
AcDbLine
 10
167.797593
 20
491.152982
 11
167.797593
 21
491.338773
  0
LINE
  5
21C
100
AcDbEntity
  8
M0
 62
     1
100
AcDbLine
 10
166.797609
 20
487.152982
 11
166.797609
 21
498.334867
  0
LINE
  5
21D
100
AcDbEntity
  8
M0
 62
     1
100
AcDbLine
 10
174.797571
 20
487.152967
 11
174.79758
 21
493.152967
  0
LINE
  5
21E
100
AcDbEntity
  8
M0
 62
     1
100
AcDbLine
 10
176.797547
 20
491.152967
 11
177.854874
 21
491.152967
  0
LINE
  5
21F
100
AcDbEntity
  8
M0
 62
     1
100
AcDbLine
 10
166.797624
 20
492.652982
 11
163.297624
 21
492.652982
  0
LINE
  5
220
100
AcDbEntity
  8
M0
 62
     1
100
AcDbLine
 10
166.797624
 20
494.652982
 11
163.297624
 21
494.652982
  0
LINE
  5
221
100
AcDbEntity
  8
M0
 62
     1
100
AcDbLine
 10
165.797624
 20
496.152982
 11
165.797639
 21
506.652982
  0
ARC
  5
222
100
AcDbEntity
  8
M0
 62
     1
100
AcDbCircle
 10
164.297624
 20
495.652982
 40
1.0
100
AcDbArc
 50
179.999126
 51
270.0
  0
ARC
  5
223
100
AcDbEntity
  8
M0
 62
     1
100
AcDbCircle
 10
164.797624
 20
495.652982
 40
1.0
100
AcDbArc
 50
270.0
 51
360.0
  0
LINE
  5
224
100
AcDbEntity
  8
M0
 62
     1
100
AcDbLine
 10
163.797609
 20
487.152982
 11
163.797624
 21
492.652982
  0
ARC
  5
225
100
AcDbEntity
  8
M0
 62
     1
100
AcDbCircle
 10
167.297639
 20
505.152982
 40
1.499996
100
AcDbArc
 50
89.999417
 51
119.925542
  0
LINE
  5
226
100
AcDbEntity
  8
M0
 62
     1
100
AcDbLine
 10
165.64763
 20
514.152982
 11
164.14763
 21
512.652998
  0
LINE
  5
227
100
AcDbEntity
  8
M0
 62
     1
100
AcDbLine
 10
165.64763
 20
514.152982
 11
164.14763
 21
515.652975
  0
LINE
  5
228
100
AcDbEntity
  8
M0
 62
     1
100
AcDbLine
 10
163.297655
 20
512.652982
 11
163.297655
 21
516.152976
  0
LINE
  5
229
100
AcDbEntity
  8
M0
 62
     1
100
AcDbLine
 10
172.147634
 20
523.152961
 11
172.147642
 21
527.652961
  0
LINE
  5
22A
100
AcDbEntity
  8
M0
 62
     1
100
AcDbLine
 10
183.942632
 20
523.152943
 11
183.94264
 21
527.652943
  0
LINE
  5
22B
100
AcDbEntity
  8
M0
 62
     1
100
AcDbLine
 10
165.647661
 20
527.652937
 11
165.647661
 21
512.652708
  0
LINE
  5
22C
100
AcDbEntity
  8
M0
 62
     1
100
AcDbLine
 10
164.14763
 20
512.652708
 11
163.29767
 21
512.652952
  0
LINE
  5
22D
100
AcDbEntity
  8
M0
 62
     1
100
AcDbLine
 10
164.147645
 20
515.652693
 11
163.29767
 21
515.652937
  0
LINE
  5
22E
100
AcDbEntity
  8
M0
 62
     1
100
AcDbLine
 10
165.647615
 20
510.902982
 11
163.297639
 21
510.902982
  0
LINE
  5
22F
100
AcDbEntity
  8
M0
 62
     1
100
AcDbLine
 10
165.64763
 20
517.402972
 11
163.297655
 21
517.402976
  0
LINE
  5
230
100
AcDbEntity
  8
M0
 62
     1
100
AcDbLine
 10
149.797655
 20
512.567213
 11
149.797655
 21
514.738798
  0
LINE
  5
231
100
AcDbEntity
  8
M0
 62
     1
100
AcDbLine
 10
154.297655
 20
512.567213
 11
154.297655
 21
514.73879
  0
LINE
  5
232
100
AcDbEntity
  8
M0
 62
     1
100
AcDbLine
 10
160.297655
 20
512.652982
 11
160.297655
 21
514.65298
  0
ARC
  5
233
100
AcDbEntity
  8
M0
 62
     1
100
AcDbCircle
 10
134.797624
 20
498.153028
 40
2.249995
100
AcDbArc
 50
179.999611
 51
360.0
  0
LINE
  5
234
100
AcDbEntity
  8
M0
 62
     1
100
AcDbLine
 10
147.297624
 20
494.653013
 11
147.297624
 21
497.153013
  0
ARC
  5
235
100
AcDbEntity
  8
M0
 62
     1
100
AcDbCircle
 10
159.797624
 20
498.152982
 40
2.249995
100
AcDbArc
 50
179.999611
 51
360.0
  0
LINE
  5
236
100
AcDbEntity
  8
M0
 62
     1
100
AcDbLine
 10
150.297639
 20
508.652998
 11
149.89644
 21
508.652753
  0
LINE
  5
237
100
AcDbEntity
  8
M0
 62
     1
100
AcDbLine
 10
137.797639
 20
508.653028
 11
137.39644
 21
508.652784
  0
ARC
  5
238
100
AcDbEntity
  8
M0
 62
     1
100
AcDbCircle
 10
128.247651
 20
507.153043
 40
1.499996
100
AcDbArc
 50
50.758901
 51
68.48984
  0
ARC
  5
239
100
AcDbEntity
  8
M0
 62
     1
100
AcDbCircle
 10
138.347627
 20
507.153028
 40
1.499996
100
AcDbArc
 50
111.509618
 51
129.359081
  0
ARC
  5
23A
100
AcDbEntity
  8
M0
 62
     1
100
AcDbCircle
 10
140.747682
 20
507.153013
 40
1.499996
100
AcDbArc
 50
50.759721
 51
68.48984
  0
ARC
  5
23B
100
AcDbEntity
  8
M0
 62
     1
100
AcDbCircle
 10
163.347627
 20
507.152982
 40
1.499996
100
AcDbArc
 50
111.509618
 51
129.359901
  0
ARC
  5
23C
100
AcDbEntity
  8
M0
 62
     1
100
AcDbCircle
 10
153.247651
 20
507.152998
 40
1.499996
100
AcDbArc
 50
50.759721
 51
68.48984
  0
LINE
  5
23D
100
AcDbEntity
  8
M0
 62
     1
100
AcDbLine
 10
162.797639
 20
508.652982
 11
162.396409
 21
508.652738
  0
LINE
  5
23E
100
AcDbEntity
  8
M0
 62
     1
100
AcDbLine
 10
173.739853
 20
491.152967
 11
174.797547
 21
491.152967
  0
LINE
  5
23F
100
AcDbEntity
  8
M0
 62
     1
100
AcDbLine
 10
153.547624
 20
493.652998
 11
153.547624
 21
498.152998
  0
LINE
  5
240
100
AcDbEntity
  8
M0
 62
     1
100
AcDbLine
 10
146.297624
 20
493.653013
 11
125.297593
 21
493.653043
  0
LINE
  5
241
100
AcDbEntity
  8
M0
 62
     1
100
AcDbLine
 10
150.797624
 20
499.152998
 11
149.297624
 21
499.152998
  0
ARC
  5
242
100
AcDbEntity
  8
M0
 62
     1
100
AcDbCircle
 10
149.297624
 20
497.152998
 40
1.999995
100
AcDbArc
 50
89.999563
 51
179.999563
  0
ARC
  5
243
100
AcDbEntity
  8
M0
 62
     1
100
AcDbCircle
 10
146.297624
 20
494.653013
 40
1.0
100
AcDbArc
 50
270.0
 51
360.0
  0
ARC
  5
244
100
AcDbEntity
  8
M0
 62
     1
100
AcDbCircle
 10
152.547624
 20
498.152998
 40
1.0
100
AcDbArc
 50
0.0
 51
41.409629
  0
LINE
  5
245
100
AcDbEntity
  8
M0
 62
     1
100
AcDbLine
 10
127.29767
 20
528.653033
 11
125.297639
 21
528.653036
  0
ARC
  5
246
100
AcDbEntity
  8
M0
 62
     1
100
AcDbCircle
 10
127.29767
 20
527.653033
 40
1.0
100
AcDbArc
 50
0.0
 51
89.999126
  0
LINE
  5
247
100
AcDbEntity
  8
M0
 62
     1
100
AcDbLine
 10
187.797639
 20
530.652937
 11
179.29764
 21
530.65295
  0
LINE
  5
248
100
AcDbEntity
  8
M0
 62
     1
100
AcDbLine
 10
178.297637
 20
528.852964
 11
178.297638
 21
529.652952
  0
LINE
  5
249
100
AcDbEntity
  8
M0
 62
     1
100
AcDbLine
 10
178.297637
 20
528.652964
 11
153.297685
 21
528.653004
  0
ARC
  5
24A
100
AcDbEntity
  8
M0
 62
     1
100
AcDbCircle
 10
179.297638
 20
529.65295
 40
1.0
100
AcDbArc
 50
90.0
 51
179.999962
  0
LINE
  5
24B
100
AcDbEntity
  8
M0
 62
     1
100
AcDbLine
 10
150.797685
 20
528.652947
 11
140.79767
 21
528.652718
  0
LINE
  5
24C
100
AcDbEntity
  8
M0
 62
     1
100
AcDbLine
 10
178.947634
 20
521.603009
 11
178.947635
 21
522.103009
  0
LINE
  5
24D
100
AcDbEntity
  8
M0
 62
     1
100
AcDbLine
 10
180.447634
 20
521.603007
 11
178.947634
 21
521.603009
  0
LINE
  5
24E
100
AcDbEntity
  8
M0
 62
     1
100
AcDbLine
 10
180.447635
 20
522.103007
 11
178.947635
 21
522.103009
  0
LINE
  5
24F
100
AcDbEntity
  8
M0
 62
     1
100
AcDbLine
 10
164.797609
 20
490.152982
 11
164.797624
 21
492.652982
  0
LINE
  5
250
100
AcDbEntity
  8
M0
 62
     1
100
AcDbLine
 10
166.797624
 20
489.152982
 11
163.797609
 21
489.152982
  0
ARC
  5
251
100
AcDbEntity
  8
M0
 62
     1
100
AcDbCircle
 10
165.797609
 20
490.152982
 40
1.0
100
AcDbArc
 50
179.999126
 51
270.0
  0
ARC
  5
252
100
AcDbEntity
  8
M0
 62
     1
100
AcDbCircle
 10
165.797609
 20
490.152982
 40
1.0
100
AcDbArc
 50
270.0
 51
360.0
  0
LINE
  5
253
100
AcDbEntity
  8
M0
 62
     1
100
AcDbLine
 10
180.447633
 20
520.698298
 11
180.447634
 21
521.603007
  0
LINE
  5
254
100
AcDbEntity
  8
M0
 62
     1
100
AcDbLine
 10
180.447635
 20
522.103007
 11
180.447637
 21
523.007731
  0
TEXT
  5
255
100
AcDbEntity
  8
M0
 62
     1
100
AcDbText
 10
132.647867
 20
510.0034
 40
2.800003
  1
２
 50
359.999928
 41
0.535719
  7
STANDARD
100
AcDbText
  0
TEXT
  5
256
100
AcDbEntity
  8
M0
 62
     1
100
AcDbText
 10
145.147867
 20
510.003385
 40
2.800003
  1
４
 50
359.999928
 41
0.535719
  7
STANDARD
100
AcDbText
  0
TEXT
  5
257
100
AcDbEntity
  8
M0
 62
     1
100
AcDbText
 10
157.647699
 20
510.00337
 40
2.800003
  1
６
 50
359.999928
 41
0.535719
  7
STANDARD
100
AcDbText
  0
TEXT
  5
258
100
AcDbEntity
  8
M0
 62
     1
100
AcDbText
 10
187.09765
 20
507.267689
 40
1.800003
  1
ＡＵＴＯ
 50
450.000566
 41
0.63658
  7
STANDARD
100
AcDbText
  0
CIRCLE
  5
259
100
AcDbEntity
  8
M0
 62
     1
100
AcDbCircle
 10
186.097617
 20
514.152952
 40
0.749999
  0
LINE
  5
25A
100
AcDbEntity
  8
M0
 62
     1
100
AcDbLine
 10
182.447666
 20
521.853018
 11
180.447633
 21
520.698298
  0
LINE
  5
25B
100
AcDbEntity
  8
M0
 62
     1
100
AcDbLine
 10
182.447666
 20
521.853018
 11
180.447637
 21
523.007731
  0
LINE
  5
25C
100
AcDbEntity
  8
M0
 62
     1
100
AcDbLine
 10
129.196443
 20
508.652799
 11
128.797639
 21
508.653043
  0
LINE
  5
25D
100
AcDbEntity
  8
M0
 62
     1
100
AcDbLine
 10
141.696443
 20
508.652769
 11
141.297639
 21
508.653013
  0
LINE
  5
25E
100
AcDbEntity
  8
M0
 62
     1
100
AcDbLine
 10
154.196412
 20
508.652753
 11
153.797639
 21
508.652998
  0
ARC
  5
25F
100
AcDbEntity
  8
M0
 62
     1
100
AcDbCircle
 10
150.845155
 20
507.152753
 40
1.499994
100
AcDbArc
 50
111.509618
 51
129.239827
  0
LINE
  5
260
100
AcDbEntity
  8
M0
 62
     1
100
AcDbLine
 10
168.298005
 20
530.64828
 11
164.298005
 21
530.648286
  0
ARC
  5
261
100
AcDbEntity
  8
M0
 62
     1
100
AcDbCircle
 10
164.298005
 20
529.648286
 40
1.0
100
AcDbArc
 50
89.999126
 51
179.999945
  0
ARC
  5
262
100
AcDbEntity
  8
M0
 62
     1
100
AcDbCircle
 10
168.298005
 20
529.648281
 40
1.0
100
AcDbArc
 50
0.0
 51
89.999126
  0
LINE
  5
263
100
AcDbEntity
  8
M0
 62
     1
100
AcDbLine
 10
163.298005
 20
529.648288
 11
163.298005
 21
528.648288
  0
LINE
  5
264
100
AcDbEntity
  8
M0
 62
     1
100
AcDbLine
 10
169.298005
 20
529.648279
 11
169.298005
 21
528.648279
  0
LINE
  5
265
100
AcDbEntity
  8
M0
 62
     1
100
AcDbLine
 10
139.297685
 20
530.652937
 11
139.797685
 21
530.652937
  0
LINE
  5
266
100
AcDbEntity
  8
M0
 62
     1
100
AcDbLine
 10
138.697725
 20
530.452985
 11
136.547685
 21
530.453018
  0
LINE
  5
267
100
AcDbEntity
  8
M0
 62
     1
100
AcDbLine
 10
165.647661
 20
512.652708
 11
165.647615
 21
506.652982
  0
LINE
  5
268
100
AcDbEntity
  8
M0
 62
     1
100
AcDbLine
 10
168.297655
 20
506.652982
 11
163.297639
 21
506.652982
  0
TEXT
  5
269
100
AcDbEntity
  8
M0
 62
     1
100
AcDbText
 10
171.64769
 20
521.86766
 40
1.800003
  1
ＴＲＩＰ
 50
450.000566
 41
0.63658
  7
STANDARD
100
AcDbText
  0
CIRCLE
  5
26A
100
AcDbEntity
  8
M0
 62
     1
100
AcDbCircle
 10
175.646582
 20
514.153196
 40
8.299999
  0
LINE
  5
26B
100
AcDbEntity
  8
M0
 62
     1
100
AcDbLine
 10
166.097658
 20
509.152952
 11
166.097658
 21
524.752925
  0
LINE
  5
26C
100
AcDbEntity
  8
M0
 62
     1
100
AcDbLine
 10
162.797655
 20
528.652921
 11
162.797655
 21
527.452921
  0
LINE
  5
26D
100
AcDbEntity
  8
M0
 62
     1
100
AcDbLine
 10
162.797655
 20
506.452924
 11
162.797655
 21
505.252927
  0
LINE
  5
26E
100
AcDbEntity
  8
M0
 62
     1
100
AcDbLine
 10
162.797655
 20
506.452924
 11
168.297655
 21
506.45294
  0
LINE
  5
26F
100
AcDbEntity
  8
M0
 62
     1
100
AcDbLine
 10
162.797655
 20
527.452921
 11
168.297655
 21
527.452925
  0
LINE
  5
270
100
AcDbEntity
  8
M0
 62
     1
100
AcDbLine
 10
173.597656
 20
503.95294
 11
177.597656
 21
503.95294
  0
LINE
  5
271
100
AcDbEntity
  8
M0
 62
     1
100
AcDbLine
 10
179.797655
 20
505.252943
 11
177.597656
 21
503.95294
  0
LINE
  5
272
100
AcDbEntity
  8
M0
 62
     1
100
AcDbLine
 10
173.597656
 20
503.95294
 11
170.797655
 21
505.252943
  0
LINE
  5
273
100
AcDbEntity
  8
M0
 62
     1
100
AcDbLine
 10
170.797655
 20
505.252943
 11
162.797655
 21
505.252927
  0
LINE
  5
274
100
AcDbEntity
  8
M0
 62
     1
100
AcDbLine
 10
187.297654
 20
505.252958
 11
179.797655
 21
505.252943
  0
ARC
  5
275
100
AcDbEntity
  8
M0
 62
     1
100
AcDbCircle
 10
187.297654
 20
505.752958
 40
0.5
100
AcDbArc
 50
270.0
 51
360.0
  0
LINE
  5
276
100
AcDbEntity
  8
M0
 62
     1
100
AcDbLine
 10
173.025061
 20
526.265718
 11
175.025061
 21
526.265718
  0
LINE
  5
277
100
AcDbEntity
  8
M0
 62
     1
100
AcDbLine
 10
176.146552
 20
524.003185
 11
180.146552
 21
524.003185
  0
LINE
  5
278
100
AcDbEntity
  8
M0
 62
     1
100
AcDbLine
 10
180.146552
 20
524.003185
 11
180.146552
 21
526.803184
  0
LINE
  5
279
100
AcDbEntity
  8
M0
 62
     1
100
AcDbLine
 10
180.146552
 20
526.803184
 11
176.146552
 21
526.803184
  0
LINE
  5
27A
100
AcDbEntity
  8
M0
 62
     1
100
AcDbLine
 10
176.146552
 20
526.803184
 11
176.146552
 21
524.003185
  0
LINE
  5
27B
100
AcDbEntity
  8
M0
 62
     1
100
AcDbLine
 10
187.797654
 20
505.752958
 11
187.79764
 21
528.152937
  0
LINE
  5
27C
100
AcDbEntity
  8
M0
 62
     1
100
AcDbLine
 10
187.297639
 20
528.652937
 11
162.797655
 21
528.652921
  0
ARC
  5
27D
100
AcDbEntity
  8
M0
 62
     1
100
AcDbCircle
 10
187.29764
 20
528.152937
 40
0.5
100
AcDbArc
 50
0.0
 51
90.0
  0
LINE
  5
27E
100
AcDbEntity
  8
M0
 62
     1
100
AcDbLine
 10
168.297655
 20
506.45294
 11
168.297655
 21
508.152952
  0
LINE
  5
27F
100
AcDbEntity
  8
M0
 62
     1
100
AcDbLine
 10
166.097658
 20
509.152952
 11
167.297655
 21
509.152952
  0
ARC
  5
280
100
AcDbEntity
  8
M0
 62
     1
100
AcDbCircle
 10
167.297655
 20
508.152952
 40
1.0
100
AcDbArc
 50
0.0
 51
89.999126
  0
LINE
  5
281
100
AcDbEntity
  8
M0
 62
     1
100
AcDbLine
 10
166.097658
 20
524.752925
 11
167.297655
 21
524.752925
  0
LINE
  5
282
100
AcDbEntity
  8
M0
 62
     1
100
AcDbLine
 10
168.297655
 20
525.752925
 11
168.297655
 21
527.452925
  0
ARC
  5
283
100
AcDbEntity
  8
M0
 62
     1
100
AcDbCircle
 10
167.297655
 20
525.752925
 40
1.0
100
AcDbArc
 50
270.0
 51
360.0
  0
CIRCLE
  5
284
100
AcDbEntity
  8
M0
 62
     1
100
AcDbCircle
 10
175.597649
 20
513.95294
 40
4.25
  0
CIRCLE
  5
285
100
AcDbEntity
  8
M0
 62
     1
100
AcDbCircle
 10
180.796469
 20
502.152952
 40
2.999997
  0
LINE
  5
286
100
AcDbEntity
  8
M0
 62
     1
100
AcDbLine
 10
177.837485
 20
498.205701
 11
177.021323
 21
500.853025
  0
LINE
  5
287
100
AcDbEntity
  8
M0
 62
     1
100
AcDbLine
 10
184.016274
 20
505.252973
 11
184.571371
 21
503.453001
  0
LINE
  5
288
100
AcDbEntity
  8
M0
 62
     1
100
AcDbLine
 10
183.754965
 20
498.205686
 11
184.571371
 21
500.853025
  0
LINE
  5
289
100
AcDbEntity
  8
M0
 62
     1
100
AcDbLine
 10
178.315512
 20
497.853025
 11
183.277182
 21
497.853025
  0
LINE
  5
28A
100
AcDbEntity
  8
M0
 62
     1
100
AcDbLine
 10
184.571371
 20
500.853025
 11
184.571371
 21
503.453001
  0
LINE
  5
28B
100
AcDbEntity
  8
M0
 62
     1
100
AcDbLine
 10
177.021323
 20
503.95297
 11
177.021323
 21
500.853025
  0
LINE
  5
28C
100
AcDbEntity
  8
M0
 62
     1
100
AcDbLine
 10
182.387045
 20
500.562131
 11
179.205405
 21
503.743894
  0
LINE
  5
28D
100
AcDbEntity
  8
M0
 62
     1
100
AcDbLine
 10
181.149741
 20
503.567136
 11
179.382162
 21
501.799436
  0
LINE
  5
28E
100
AcDbEntity
  8
M0
 62
     1
100
AcDbLine
 10
182.210287
 20
502.506467
 11
180.442709
 21
500.738889
  0
ARC
  5
28F
100
AcDbEntity
  8
M0
 62
     1
100
AcDbCircle
 10
178.315512
 20
498.353025
 40
0.5
100
AcDbArc
 50
197.127379
 51
270.0
  0
ARC
  5
290
100
AcDbEntity
  8
M0
 62
     1
100
AcDbCircle
 10
183.277182
 20
498.353025
 40
0.5
100
AcDbArc
 50
270.0
 51
342.861758
  0
ARC
  5
291
100
AcDbEntity
  8
M0
 62
     1
100
AcDbCircle
 10
180.797675
 20
495.152952
 40
2.999997
100
AcDbArc
 50
115.844027
 51
424.15628
  0
LINE
  5
292
100
AcDbEntity
  8
M0
 62
     1
100
AcDbLine
 10
177.700186
 20
498.650755
 11
177.022528
 21
496.453001
  0
LINE
  5
293
100
AcDbEntity
  8
M0
 62
     1
100
AcDbLine
 10
177.83869
 20
491.205701
 11
177.022528
 21
493.853025
  0
LINE
  5
294
100
AcDbEntity
  8
M0
 62
     1
100
AcDbLine
 10
183.8935
 20
498.654905
 11
184.572577
 21
496.453001
  0
LINE
  5
295
100
AcDbEntity
  8
M0
 62
     1
100
AcDbLine
 10
183.756171
 20
491.205686
 11
184.572577
 21
493.853025
  0
LINE
  5
296
100
AcDbEntity
  8
M0
 62
     1
100
AcDbLine
 10
178.316718
 20
490.853025
 11
183.278387
 21
490.853025
  0
LINE
  5
297
100
AcDbEntity
  8
M0
 62
     1
100
AcDbLine
 10
184.572577
 20
493.853025
 11
184.572577
 21
496.453001
  0
LINE
  5
298
100
AcDbEntity
  8
M0
 62
     1
100
AcDbLine
 10
177.022528
 20
496.453001
 11
177.022528
 21
493.853025
  0
LINE
  5
299
100
AcDbEntity
  8
M0
 62
     1
100
AcDbLine
 10
182.388251
 20
493.562131
 11
179.20661
 21
496.743894
  0
LINE
  5
29A
100
AcDbEntity
  8
M0
 62
     1
100
AcDbLine
 10
181.150946
 20
496.567136
 11
179.383368
 21
494.799436
  0
LINE
  5
29B
100
AcDbEntity
  8
M0
 62
     1
100
AcDbLine
 10
182.211493
 20
495.506467
 11
180.443915
 21
493.738889
  0
ARC
  5
29C
100
AcDbEntity
  8
M0
 62
     1
100
AcDbCircle
 10
178.316718
 20
491.353025
 40
0.5
100
AcDbArc
 50
197.127379
 51
270.0
  0
ARC
  5
29D
100
AcDbEntity
  8
M0
 62
     1
100
AcDbCircle
 10
183.278387
 20
491.353025
 40
0.5
100
AcDbArc
 50
270.0
 51
342.861758
  0
ARC
  5
29E
100
AcDbEntity
  8
M0
 62
     1
100
AcDbCircle
 10
170.7977
 20
495.152952
 40
2.999997
100
AcDbArc
 50
115.843797
 51
424.156412
  0
LINE
  5
29F
100
AcDbEntity
  8
M0
 62
     1
100
AcDbLine
 10
167.454179
 20
497.852903
 11
167.022554
 21
496.453001
  0
LINE
  5
2A0
100
AcDbEntity
  8
M0
 62
     1
100
AcDbLine
 10
167.838716
 20
491.205701
 11
167.022554
 21
493.853025
  0
LINE
  5
2A1
100
AcDbEntity
  8
M0
 62
     1
100
AcDbLine
 10
173.756186
 20
491.205686
 11
174.38436
 21
493.242551
  0
LINE
  5
2A2
100
AcDbEntity
  8
M0
 62
     1
100
AcDbLine
 10
168.316743
 20
490.853025
 11
173.278403
 21
490.853025
  0
LINE
  5
2A3
100
AcDbEntity
  8
M0
 62
     1
100
AcDbLine
 10
167.022554
 20
496.453001
 11
167.022554
 21
493.853025
  0
LINE
  5
2A4
100
AcDbEntity
  8
M0
 62
     1
100
AcDbLine
 10
172.388266
 20
493.562131
 11
169.206636
 21
496.743894
  0
LINE
  5
2A5
100
AcDbEntity
  8
M0
 62
     1
100
AcDbLine
 10
171.150972
 20
496.567136
 11
169.383394
 21
494.799436
  0
LINE
  5
2A6
100
AcDbEntity
  8
M0
 62
     1
100
AcDbLine
 10
172.211508
 20
495.506467
 11
170.443941
 21
493.738889
  0
ARC
  5
2A7
100
AcDbEntity
  8
M0
 62
     1
100
AcDbCircle
 10
168.316743
 20
491.353025
 40
0.5
100
AcDbArc
 50
197.127669
 51
270.0
  0
ARC
  5
2A8
100
AcDbEntity
  8
M0
 62
     1
100
AcDbCircle
 10
173.278403
 20
491.353025
 40
0.5
100
AcDbArc
 50
270.0
 51
342.861758
  0
CIRCLE
  5
2A9
100
AcDbEntity
  8
M0
 62
     1
100
AcDbCircle
 10
169.79648
 20
502.152952
 40
2.999997
  0
LINE
  5
2AA
100
AcDbEntity
  8
M0
 62
     1
100
AcDbLine
 10
166.576265
 20
505.252973
 11
166.021333
 21
503.453001
  0
LINE
  5
2AB
100
AcDbEntity
  8
M0
 62
     1
100
AcDbLine
 10
166.837495
 20
498.205701
 11
166.021333
 21
500.853025
  0
LINE
  5
2AC
100
AcDbEntity
  8
M0
 62
     1
100
AcDbLine
 10
172.754965
 20
498.205686
 11
173.571371
 21
500.853025
  0
LINE
  5
2AD
100
AcDbEntity
  8
M0
 62
     1
100
AcDbLine
 10
167.315523
 20
497.853025
 11
172.277182
 21
497.853025
  0
LINE
  5
2AE
100
AcDbEntity
  8
M0
 62
     1
100
AcDbLine
 10
173.571371
 20
500.853025
 11
173.571371
 21
503.95297
  0
LINE
  5
2AF
100
AcDbEntity
  8
M0
 62
     1
100
AcDbLine
 10
166.021333
 20
503.453001
 11
166.021333
 21
500.853025
  0
LINE
  5
2B0
100
AcDbEntity
  8
M0
 62
     1
100
AcDbLine
 10
171.387056
 20
500.562131
 11
168.205415
 21
503.743894
  0
LINE
  5
2B1
100
AcDbEntity
  8
M0
 62
     1
100
AcDbLine
 10
170.149751
 20
503.567136
 11
168.382173
 21
501.799436
  0
LINE
  5
2B2
100
AcDbEntity
  8
M0
 62
     1
100
AcDbLine
 10
171.210298
 20
502.506467
 11
169.44272
 21
500.738889
  0
ARC
  5
2B3
100
AcDbEntity
  8
M0
 62
     1
100
AcDbCircle
 10
167.315523
 20
498.353025
 40
0.5
100
AcDbArc
 50
197.127669
 51
270.0
  0
ARC
  5
2B4
100
AcDbEntity
  8
M0
 62
     1
100
AcDbCircle
 10
172.277182
 20
498.353025
 40
0.5
100
AcDbArc
 50
270.0
 51
342.861758
  0
LINE
  5
2B5
100
AcDbEntity
  8
M0
 62
     1
100
AcDbLine
 10
157.335588
 20
506.114042
 11
159.180437
 21
504.269209
  0
LINE
  5
2B6
100
AcDbEntity
  8
M0
 62
     1
100
AcDbLine
 10
159.307313
 20
506.871152
 11
156.73224
 21
504.296079
  0
LINE
  5
2B7
100
AcDbEntity
  8
M0
 62
     1
100
AcDbLine
 10
160.014421
 20
506.164045
 11
157.439348
 21
503.588972
  0
LINE
  5
2B8
100
AcDbEntity
  8
M0
 62
     1
100
AcDbLine
 10
155.196458
 20
500.353193
 11
161.396455
 21
500.353193
  0
LINE
  5
2B9
100
AcDbEntity
  8
M0
 62
     1
100
AcDbLine
 10
162.396455
 20
501.353178
 11
162.396455
 21
508.953153
  0
LINE
  5
2BA
100
AcDbEntity
  8
M0
 62
     1
100
AcDbLine
 10
154.196458
 20
508.953168
 11
154.196458
 21
501.353193
  0
CIRCLE
  5
2BB
100
AcDbEntity
  8
M0
 62
     1
100
AcDbCircle
 10
158.296464
 20
505.153196
 40
3.499993
  0
ARC
  5
2BC
100
AcDbEntity
  8
M0
 62
     1
100
AcDbCircle
 10
161.396455
 20
501.353193
 40
1.0
100
AcDbArc
 50
270.0
 51
360.0
  0
ARC
  5
2BD
100
AcDbEntity
  8
M0
 62
     1
100
AcDbCircle
 10
161.396455
 20
508.953001
 40
1.0
100
AcDbArc
 50
0.0
 51
89.999126
  0
ARC
  5
2BE
100
AcDbEntity
  8
M0
 62
     1
100
AcDbCircle
 10
155.196458
 20
508.953001
 40
1.0
100
AcDbArc
 50
89.999126
 51
179.999126
  0
ARC
  5
2BF
100
AcDbEntity
  8
M0
 62
     1
100
AcDbCircle
 10
155.196458
 20
501.353193
 40
1.0
100
AcDbArc
 50
179.999126
 51
270.0
  0
LINE
  5
2C0
100
AcDbEntity
  8
M0
 62
     1
100
AcDbLine
 10
155.196458
 20
509.953184
 11
161.396455
 21
509.953184
  0
LINE
  5
2C1
100
AcDbEntity
  8
M0
 62
     1
100
AcDbLine
 10
144.835618
 20
506.114042
 11
146.680467
 21
504.269209
  0
LINE
  5
2C2
100
AcDbEntity
  8
M0
 62
     1
100
AcDbLine
 10
146.807344
 20
506.871152
 11
144.232271
 21
504.296079
  0
LINE
  5
2C3
100
AcDbEntity
  8
M0
 62
     1
100
AcDbLine
 10
147.514451
 20
506.164045
 11
144.939378
 21
503.588972
  0
LINE
  5
2C4
100
AcDbEntity
  8
M0
 62
     1
100
AcDbLine
 10
142.696489
 20
500.353193
 11
148.896486
 21
500.353193
  0
LINE
  5
2C5
100
AcDbEntity
  8
M0
 62
     1
100
AcDbLine
 10
149.896486
 20
501.353178
 11
149.896486
 21
508.953153
  0
LINE
  5
2C6
100
AcDbEntity
  8
M0
 62
     1
100
AcDbLine
 10
141.696489
 20
508.953168
 11
141.696489
 21
501.353193
  0
CIRCLE
  5
2C7
100
AcDbEntity
  8
M0
 62
     1
100
AcDbCircle
 10
145.796495
 20
505.153196
 40
3.499993
  0
ARC
  5
2C8
100
AcDbEntity
  8
M0
 62
     1
100
AcDbCircle
 10
148.896486
 20
501.353193
 40
1.0
100
AcDbArc
 50
270.0
 51
360.0
  0
ARC
  5
2C9
100
AcDbEntity
  8
M0
 62
     1
100
AcDbCircle
 10
148.896486
 20
508.953001
 40
1.0
100
AcDbArc
 50
0.0
 51
89.999126
  0
ARC
  5
2CA
100
AcDbEntity
  8
M0
 62
     1
100
AcDbCircle
 10
142.696489
 20
508.953001
 40
1.0
100
AcDbArc
 50
89.999126
 51
179.999126
  0
ARC
  5
2CB
100
AcDbEntity
  8
M0
 62
     1
100
AcDbCircle
 10
142.696489
 20
501.353193
 40
1.0
100
AcDbArc
 50
179.999126
 51
270.0
  0
LINE
  5
2CC
100
AcDbEntity
  8
M0
 62
     1
100
AcDbLine
 10
142.696489
 20
509.953184
 11
148.896486
 21
509.953184
  0
ARC
  5
2CD
100
AcDbEntity
  8
M0
 62
     1
100
AcDbCircle
 10
142.696489
 20
515.853334
 40
1.0
100
AcDbArc
 50
179.999945
 51
270.0
  0
LINE
  5
2CE
100
AcDbEntity
  8
M0
 62
     1
100
AcDbLine
 10
141.696489
 20
515.853166
 11
141.696489
 21
523.453142
  0
ARC
  5
2CF
100
AcDbEntity
  8
M0
 62
     1
100
AcDbCircle
 10
142.696489
 20
523.453142
 40
1.0
100
AcDbArc
 50
89.999126
 51
179.999945
  0
LINE
  5
2D0
100
AcDbEntity
  8
M0
 62
     1
100
AcDbLine
 10
142.696489
 20
524.453142
 11
148.896486
 21
524.453142
  0
ARC
  5
2D1
100
AcDbEntity
  8
M0
 62
     1
100
AcDbCircle
 10
148.896486
 20
523.453142
 40
1.0
100
AcDbArc
 50
0.0
 51
89.999126
  0
LINE
  5
2D2
100
AcDbEntity
  8
M0
 62
     1
100
AcDbLine
 10
149.896486
 20
523.453157
 11
149.896486
 21
515.853181
  0
ARC
  5
2D3
100
AcDbEntity
  8
M0
 62
     1
100
AcDbCircle
 10
148.896486
 20
515.853334
 40
1.0
100
AcDbArc
 50
-90.0
 51
0.0
  0
LINE
  5
2D4
100
AcDbEntity
  8
M0
 62
     1
100
AcDbLine
 10
142.696489
 20
514.853151
 11
148.896486
 21
514.853151
  0
LINE
  5
2D5
100
AcDbEntity
  8
M0
 62
     1
100
AcDbLine
 10
132.335618
 20
506.114042
 11
134.180467
 21
504.269209
  0
LINE
  5
2D6
100
AcDbEntity
  8
M0
 62
     1
100
AcDbLine
 10
134.307344
 20
506.871152
 11
131.732271
 21
504.296079
  0
LINE
  5
2D7
100
AcDbEntity
  8
M0
 62
     1
100
AcDbLine
 10
135.014451
 20
506.164045
 11
132.439378
 21
503.588972
  0
LINE
  5
2D8
100
AcDbEntity
  8
M0
 62
     1
100
AcDbLine
 10
137.396486
 20
501.353178
 11
137.396486
 21
508.953153
  0
LINE
  5
2D9
100
AcDbEntity
  8
M0
 62
     1
100
AcDbLine
 10
129.196489
 20
508.953168
 11
129.196489
 21
501.353193
  0
CIRCLE
  5
2DA
100
AcDbEntity
  8
M0
 62
     1
100
AcDbCircle
 10
133.296495
 20
505.153196
 40
3.499993
  0
ARC
  5
2DB
100
AcDbEntity
  8
M0
 62
     1
100
AcDbCircle
 10
136.396486
 20
501.353193
 40
1.0
100
AcDbArc
 50
270.0
 51
360.0
  0
ARC
  5
2DC
100
AcDbEntity
  8
M0
 62
     1
100
AcDbCircle
 10
136.396486
 20
508.953001
 40
1.0
100
AcDbArc
 50
0.0
 51
89.999126
  0
ARC
  5
2DD
100
AcDbEntity
  8
M0
 62
     1
100
AcDbCircle
 10
130.196489
 20
508.953001
 40
1.0
100
AcDbArc
 50
89.999126
 51
179.999126
  0
ARC
  5
2DE
100
AcDbEntity
  8
M0
 62
     1
100
AcDbCircle
 10
130.196489
 20
501.353193
 40
1.0
100
AcDbArc
 50
179.999126
 51
270.0
  0
LINE
  5
2DF
100
AcDbEntity
  8
M0
 62
     1
100
AcDbLine
 10
130.196489
 20
509.953184
 11
136.396486
 21
509.953184
  0
ARC
  5
2E0
100
AcDbEntity
  8
M0
 62
     1
100
AcDbCircle
 10
130.196489
 20
515.853334
 40
1.0
100
AcDbArc
 50
179.999945
 51
270.0
  0
LINE
  5
2E1
100
AcDbEntity
  8
M0
 62
     1
100
AcDbLine
 10
129.196489
 20
515.853166
 11
129.196489
 21
523.453142
  0
ARC
  5
2E2
100
AcDbEntity
  8
M0
 62
     1
100
AcDbCircle
 10
130.196489
 20
523.453142
 40
1.0
100
AcDbArc
 50
89.999126
 51
179.999945
  0
LINE
  5
2E3
100
AcDbEntity
  8
M0
 62
     1
100
AcDbLine
 10
130.196489
 20
524.453142
 11
136.396486
 21
524.453142
  0
ARC
  5
2E4
100
AcDbEntity
  8
M0
 62
     1
100
AcDbCircle
 10
136.396486
 20
523.453142
 40
1.0
100
AcDbArc
 50
0.0
 51
89.999126
  0
LINE
  5
2E5
100
AcDbEntity
  8
M0
 62
     1
100
AcDbLine
 10
137.396486
 20
523.453157
 11
137.396486
 21
515.853181
  0
ARC
  5
2E6
100
AcDbEntity
  8
M0
 62
     1
100
AcDbCircle
 10
136.396486
 20
515.853334
 40
1.0
100
AcDbArc
 50
-90.0
 51
0.0
  0
LINE
  5
2E7
100
AcDbEntity
  8
M0
 62
     1
100
AcDbLine
 10
130.196489
 20
514.853151
 11
136.396486
 21
514.853151
  0
ARC
  5
2E8
100
AcDbEntity
  8
M0
 62
     1
100
AcDbCircle
 10
161.396409
 20
523.453127
 40
1.0
100
AcDbArc
 50
0.0
 51
89.999126
  0
LINE
  5
2E9
100
AcDbEntity
  8
M0
 62
     1
100
AcDbLine
 10
162.396409
 20
515.853136
 11
162.396409
 21
523.453111
  0
ARC
  5
2EA
100
AcDbEntity
  8
M0
 62
     1
100
AcDbCircle
 10
161.396409
 20
515.853319
 40
1.0
100
AcDbArc
 50
270.0
 51
360.0
  0
LINE
  5
2EB
100
AcDbEntity
  8
M0
 62
     1
100
AcDbLine
 10
161.396409
 20
514.853136
 11
155.196412
 21
514.853136
  0
ARC
  5
2EC
100
AcDbEntity
  8
M0
 62
     1
100
AcDbCircle
 10
155.196412
 20
515.853319
 40
1.0
100
AcDbArc
 50
179.999945
 51
270.0
  0
LINE
  5
2ED
100
AcDbEntity
  8
M0
 62
     1
100
AcDbLine
 10
154.196412
 20
523.453142
 11
154.196412
 21
515.853166
  0
ARC
  5
2EE
100
AcDbEntity
  8
M0
 62
     1
100
AcDbCircle
 10
155.196412
 20
523.453127
 40
1.0
100
AcDbArc
 50
89.999126
 51
179.999945
  0
LINE
  5
2EF
100
AcDbEntity
  8
M0
 62
     1
100
AcDbLine
 10
161.396409
 20
524.453127
 11
155.196412
 21
524.453127
  0
LINE
  5
2F0
100
AcDbEntity
  8
M0
 62
     1
100
AcDbLine
 10
132.335618
 20
520.61403
 11
134.180467
 21
518.769197
  0
LINE
  5
2F1
100
AcDbEntity
  8
M0
 62
     1
100
AcDbLine
 10
134.307344
 20
521.371141
 11
131.732271
 21
518.796068
  0
LINE
  5
2F2
100
AcDbEntity
  8
M0
 62
     1
100
AcDbLine
 10
135.014451
 20
520.664033
 11
132.439378
 21
518.08896
  0
CIRCLE
  5
2F3
100
AcDbEntity
  8
M0
 62
     1
100
AcDbCircle
 10
133.296495
 20
519.653184
 40
3.499993
  0
LINE
  5
2F4
100
AcDbEntity
  8
M0
 62
     1
100
AcDbLine
 10
144.835603
 20
520.61403
 11
146.680452
 21
518.769197
  0
LINE
  5
2F5
100
AcDbEntity
  8
M0
 62
     1
100
AcDbLine
 10
146.807329
 20
521.371141
 11
144.232255
 21
518.796068
  0
LINE
  5
2F6
100
AcDbEntity
  8
M0
 62
     1
100
AcDbLine
 10
147.514436
 20
520.664033
 11
144.939363
 21
518.08896
  0
CIRCLE
  5
2F7
100
AcDbEntity
  8
M0
 62
     1
100
AcDbCircle
 10
145.79648
 20
519.653184
 40
3.499993
  0
LINE
  5
2F8
100
AcDbEntity
  8
M0
 62
     1
100
AcDbLine
 10
157.335573
 20
520.61403
 11
159.180421
 21
518.769197
  0
LINE
  5
2F9
100
AcDbEntity
  8
M0
 62
     1
100
AcDbLine
 10
159.307298
 20
521.371141
 11
156.732225
 21
518.796068
  0
LINE
  5
2FA
100
AcDbEntity
  8
M0
 62
     1
100
AcDbLine
 10
160.014406
 20
520.664033
 11
157.439332
 21
518.08896
  0
CIRCLE
  5
2FB
100
AcDbEntity
  8
M0
 62
     1
100
AcDbCircle
 10
158.296449
 20
519.653184
 40
3.499993
  0
LINE
  5
2FC
100
AcDbEntity
  8
M0
 62
     1
100
AcDbLine
 10
176.55545
 20
514.068723
 11
176.55545
 21
516.457871
  0
LINE
  5
2FD
100
AcDbEntity
  8
M0
 62
     1
100
AcDbLine
 10
176.555465
 20
516.458115
 11
174.852722
 21
516.458115
  0
LINE
  5
2FE
100
AcDbEntity
  8
M0
 62
     1
100
AcDbLine
 10
174.852722
 20
516.457871
 11
174.852722
 21
514.069212
  0
LINE
  5
2FF
100
AcDbEntity
  8
M0
 62
     1
100
AcDbLine
 10
175.704086
 20
511.679563
 11
174.049835
 21
514.0697
  0
LINE
  5
300
100
AcDbEntity
  8
M0
 62
     1
100
AcDbLine
 10
175.704086
 20
511.679563
 11
177.358352
 21
514.068967
  0
LINE
  5
301
100
AcDbEntity
  8
M0
 62
     1
100
AcDbLine
 10
174.049835
 20
514.0697
 11
174.852706
 21
514.069456
  0
LINE
  5
302
100
AcDbEntity
  8
M0
 62
     1
100
AcDbLine
 10
177.358352
 20
514.068967
 11
176.55545
 21
514.068967
  0
LINE
  5
303
100
AcDbEntity
  8
M0
  6
DASHDOT
 62
     1
100
AcDbLine
 10
166.56624
 20
514.153196
 11
184.726934
 21
514.153196
  0
LINE
  5
304
100
AcDbEntity
  8
M0
  6
DASHDOT
 62
     1
100
AcDbLine
 10
175.646582
 20
505.072843
 11
175.646582
 21
523.233536
  0
LINE
  5
305
100
AcDbEntity
  8
M0
 62
     1
100
AcDbLine
 10
281.58159
 20
505.451933
 11
281.58159
 21
506.651929
  0
LINE
  5
306
100
AcDbEntity
  8
M0
 62
     1
100
AcDbLine
 10
281.58159
 20
527.651908
 11
281.58159
 21
528.851905
  0
LINE
  5
307
100
AcDbEntity
  8
M0
 62
     1
100
AcDbLine
 10
297.081575
 20
505.451933
 11
281.58159
 21
505.451933
  0
LINE
  5
308
100
AcDbEntity
  8
M0
 62
     1
100
AcDbLine
 10
297.081575
 20
528.851905
 11
281.58159
 21
528.851905
  0
LINE
  5
309
100
AcDbEntity
  8
M0
 62
     1
100
AcDbLine
 10
297.081575
 20
506.651929
 11
293.281572
 21
506.651929
  0
LINE
  5
30A
100
AcDbEntity
  8
M0
 62
     1
100
AcDbLine
 10
297.081575
 20
506.651929
 11
297.081575
 21
505.451933
  0
LINE
  5
30B
100
AcDbEntity
  8
M0
 62
     1
100
AcDbLine
 10
284.581575
 20
507.351926
 11
288.731569
 21
507.351926
  0
LINE
  5
30C
100
AcDbEntity
  8
M0
 62
     1
100
AcDbLine
 10
284.581575
 20
526.951912
 11
288.731569
 21
526.951912
  0
LINE
  5
30D
100
AcDbEntity
  8
M0
 62
     1
100
AcDbLine
 10
284.581575
 20
526.951912
 11
284.581575
 21
507.351926
  0
LINE
  5
30E
100
AcDbEntity
  8
M0
 62
     1
100
AcDbLine
 10
293.281572
 20
529.651908
 11
293.281572
 21
505.451933
  0
LINE
  5
30F
100
AcDbEntity
  8
M0
 62
     1
100
AcDbLine
 10
297.081575
 20
528.851905
 11
297.081575
 21
527.651908
  0
LINE
  5
310
100
AcDbEntity
  8
M0
 62
     1
100
AcDbLine
 10
284.281572
 20
528.851905
 11
284.281572
 21
530.151908
  0
LINE
  5
311
100
AcDbEntity
  8
M0
 62
     1
100
AcDbLine
 10
284.281572
 20
530.151908
 11
292.781572
 21
530.151908
  0
LINE
  5
312
100
AcDbEntity
  8
M0
 62
     1
100
AcDbLine
 10
297.081575
 20
527.651908
 11
293.281572
 21
527.651908
  0
LINE
  5
313
100
AcDbEntity
  8
M0
 62
     1
100
AcDbLine
 10
288.731569
 20
506.651929
 11
281.58159
 21
506.651929
  0
LINE
  5
314
100
AcDbEntity
  8
M0
 62
     1
100
AcDbLine
 10
288.731569
 20
527.651908
 11
281.58159
 21
527.651908
  0
ARC
  5
315
100
AcDbEntity
  8
M0
 62
     1
100
AcDbCircle
 10
288.731569
 20
527.301918
 40
0.35
100
AcDbArc
 50
270.0
 51
360.0
  0
ARC
  5
316
100
AcDbEntity
  8
M0
 62
     1
100
AcDbCircle
 10
288.731569
 20
527.301918
 40
0.35
100
AcDbArc
 50
0.0
 51
89.997502
  0
ARC
  5
317
100
AcDbEntity
  8
M0
 62
     1
100
AcDbCircle
 10
288.731569
 20
507.00192
 40
0.35
100
AcDbArc
 50
270.0
 51
360.0
  0
ARC
  5
318
100
AcDbEntity
  8
M0
 62
     1
100
AcDbCircle
 10
288.731569
 20
507.00192
 40
0.35
100
AcDbArc
 50
0.0
 51
89.997502
  0
ARC
  5
319
100
AcDbEntity
  8
M0
 62
     1
100
AcDbCircle
 10
292.781572
 20
529.651908
 40
0.5
100
AcDbArc
 50
0.0
 51
89.998251
  0
LINE
  5
31A
100
AcDbEntity
  8
M0
 62
     1
100
AcDbLine
 10
283.084932
 20
510.902464
 11
284.581575
 21
510.902464
  0
LINE
  5
31B
100
AcDbEntity
  8
M0
 62
     1
100
AcDbLine
 10
284.581453
 20
517.402458
 11
283.084932
 21
517.402458
  0
LINE
  5
31C
100
AcDbEntity
  8
M0
 62
     1
100
AcDbLine
 10
282.584932
 20
516.902213
 11
282.584932
 21
511.402464
  0
ARC
  5
31D
100
AcDbEntity
  8
M0
 62
     1
100
AcDbCircle
 10
283.084947
 20
516.902213
 40
0.5
100
AcDbArc
 50
89.998251
 51
179.999891
  0
ARC
  5
31E
100
AcDbEntity
  8
M0
 62
     1
100
AcDbCircle
 10
283.084947
 20
511.402464
 40
0.5
100
AcDbArc
 50
179.998251
 51
270.0
  0
LINE
  5
31F
100
AcDbEntity
  8
M0
 62
     1
100
AcDbLine
 10
355.080867
 20
492.652341
 11
355.081312
 21
527.652332
  0
LINE
  5
320
100
AcDbEntity
  8
M0
 62
     1
100
AcDbLine
 10
355.081479
 20
527.652332
 11
353.580408
 21
527.651954
  0
LINE
  5
321
100
AcDbEntity
  8
M0
 62
     1
100
AcDbLine
 10
280.081529
 20
528.653282
 11
280.081331
 21
512.653196
  0
LINE
  5
322
100
AcDbEntity
  8
M0
 62
     1
100
AcDbLine
 10
299.500337
 20
493.153043
 11
323.11696
 21
493.152738
  0
LINE
  5
323
100
AcDbEntity
  8
M0
 62
     1
100
AcDbLine
 10
284.5813
 20
506.653242
 11
284.581331
 21
509.903242
  0
LINE
  5
324
100
AcDbEntity
  8
M0
 62
     1
100
AcDbLine
 10
306.381547
 20
530.65295
 11
282.081544
 21
530.653259
  0
LINE
  5
325
100
AcDbEntity
  8
M0
 62
     1
100
AcDbLine
 10
296.902284
 20
494.653074
 11
291.598527
 21
494.65315
  0
LINE
  5
326
100
AcDbEntity
  8
M0
 62
     1
100
AcDbLine
 10
286.403169
 20
505.451963
 11
288.700776
 21
496.876722
  0
ARC
  5
327
100
AcDbEntity
  8
M0
 62
     1
100
AcDbCircle
 10
291.598558
 20
497.65315
 40
3.0
100
AcDbArc
 50
194.999447
 51
270.0
  0
LINE
  5
328
100
AcDbEntity
  8
M0
 62
     1
100
AcDbLine
 10
293.903078
 20
505.451963
 11
296.602571
 21
495.37663
  0
ARC
  5
329
100
AcDbEntity
  8
M0
 62
     1
100
AcDbCircle
 10
299.500368
 20
496.153043
 40
3.0
100
AcDbArc
 50
194.998884
 51
270.0
  0
LINE
  5
32A
100
AcDbEntity
  8
M0
 62
     1
100
AcDbLine
 10
284.581453
 20
518.403227
 11
284.581544
 21
526.653227
  0
ARC
  5
32B
100
AcDbEntity
  8
M0
 62
     1
100
AcDbCircle
 10
285.581544
 20
526.653215
 40
1.0
100
AcDbArc
 50
89.999126
 51
179.999945
  0
LINE
  5
32C
100
AcDbEntity
  8
M0
 62
     1
100
AcDbLine
 10
280.081361
 20
514.652995
 11
282.584993
 21
514.652963
  0
LINE
  5
32D
100
AcDbEntity
  8
M0
 62
     1
100
AcDbLine
 10
280.081331
 20
512.653013
 11
282.584993
 21
512.652967
  0
LINE
  5
32E
100
AcDbEntity
  8
M0
 62
     1
100
AcDbLine
 10
298.428605
 20
497.153059
 11
308.081117
 21
497.152937
  0
ARC
  5
32F
100
AcDbEntity
  8
M0
 62
     1
100
AcDbCircle
 10
298.428636
 20
500.153059
 40
3.0
100
AcDbArc
 50
194.999447
 51
270.0
  0
LINE
  5
330
100
AcDbEntity
  8
M0
 62
     1
100
AcDbLine
 10
311.081102
 20
495.152891
 11
322.581071
 21
495.152753
  0
LINE
  5
331
100
AcDbEntity
  8
M0
 62
     1
100
AcDbLine
 10
325.455415
 20
490.152723
 11
329.281007
 21
490.152662
  0
LINE
  5
332
100
AcDbEntity
  8
M0
 62
     1
100
AcDbLine
 10
326.357316
 20
486.152708
 11
342.674824
 21
486.152494
  0
ARC
  5
333
100
AcDbEntity
  8
M0
 62
     1
100
AcDbCircle
 10
306.381517
 20
528.652874
 40
2.0
100
AcDbArc
 50
14.333164
 51
89.999563
  0
LINE
  5
334
100
AcDbEntity
  8
M0
 62
     1
100
AcDbLine
 10
344.406869
 20
487.152479
 11
347.582384
 21
492.652433
  0
ARC
  5
335
100
AcDbEntity
  8
M0
 62
     1
100
AcDbCircle
 10
342.674841
 20
488.152494
 40
2.0
100
AcDbArc
 50
270.0
 51
329.999445
  0
ARC
  5
336
100
AcDbEntity
  8
M0
 62
     1
100
AcDbCircle
 10
325.455446
 20
492.152723
 40
2.0
100
AcDbArc
 50
194.999701
 51
270.0
  0
LINE
  5
337
100
AcDbEntity
  8
M0
 62
     1
100
AcDbLine
 10
332.280977
 20
488.152631
 11
343.829559
 21
488.152479
  0
ARC
  5
338
100
AcDbEntity
  8
M0
 62
     1
100
AcDbCircle
 10
343.829576
 20
490.152479
 40
2.0
100
AcDbArc
 50
270.0
 51
329.999445
  0
LINE
  5
339
100
AcDbEntity
  8
M0
 62
     1
100
AcDbLine
 10
323.081087
 20
492.652738
 11
311.081056
 21
492.652891
  0
LINE
  5
33A
100
AcDbEntity
  8
M0
 62
     1
100
AcDbLine
 10
310.331071
 20
493.152906
 11
311.081056
 21
492.652891
  0
LINE
  5
33B
100
AcDbEntity
  8
M0
 62
     1
100
AcDbLine
 10
308.081117
 20
497.152937
 11
311.081102
 21
495.152891
  0
LINE
  5
33C
100
AcDbEntity
  8
M0
 62
     1
100
AcDbLine
 10
347.582393
 20
492.652433
 11
355.081035
 21
492.652341
  0
LINE
  5
33D
100
AcDbEntity
  8
M0
 62
     1
100
AcDbLine
 10
344.406893
 20
487.152479
 11
350.080965
 21
487.152402
  0
LINE
  5
33E
100
AcDbEntity
  8
M0
 62
     1
100
AcDbLine
 10
352.08099
 20
489.152372
 11
352.081035
 21
492.652372
  0
ARC
  5
33F
100
AcDbEntity
  8
M0
 62
     1
100
AcDbCircle
 10
350.08099
 20
489.152402
 40
2.0
100
AcDbArc
 50
270.0
 51
360.0
  0
LINE
  5
340
100
AcDbEntity
  8
M0
 62
     1
100
AcDbLine
 10
329.281007
 20
490.152662
 11
332.280977
 21
488.152631
  0
LINE
  5
341
100
AcDbEntity
  8
M0
 62
     1
100
AcDbLine
 10
289.940217
 20
495.153165
 11
287.062135
 21
495.153211
  0
LINE
  5
342
100
AcDbEntity
  8
M0
 62
     1
100
AcDbLine
 10
280.081315
 20
512.653211
 11
281.689256
 21
506.65196
  0
ARC
  5
343
100
AcDbEntity
  8
M0
 62
     1
100
AcDbCircle
 10
287.072175
 20
498.153181
 40
3.0
100
AcDbArc
 50
194.998884
 51
270.0
  0
LINE
  5
344
100
AcDbEntity
  8
M0
 62
     1
100
AcDbLine
 10
323.081056
 20
492.652799
 11
324.425477
 21
487.635084
  0
LINE
  5
345
100
AcDbEntity
  8
M0
 62
     1
100
AcDbLine
 10
322.581087
 20
495.152753
 11
323.523591
 21
491.635099
  0
ARC
  5
346
100
AcDbEntity
  8
M0
 62
     1
100
AcDbCircle
 10
326.357332
 20
488.152708
 40
2.0
100
AcDbArc
 50
194.999166
 51
270.0
  0
LINE
  5
347
100
AcDbEntity
  8
M0
 62
     1
100
AcDbLine
 10
353.580408
 20
529.151953
 11
298.080461
 21
529.151713
  0
LINE
  5
348
100
AcDbEntity
  8
M0
 62
     1
100
AcDbLine
 10
353.580473
 20
529.152198
 11
353.58047
 21
527.651954
  0
LINE
  5
349
100
AcDbEntity
  8
M0
 62
     1
100
AcDbLine
 10
298.080461
 20
529.151957
 11
297.580476
 21
527.651476
  0
LINE
  5
34A
100
AcDbEntity
  8
M0
 62
     1
100
AcDbLine
 10
297.580812
 20
527.651964
 11
285.58156
 21
527.653215
  0
LINE
  5
34B
100
AcDbEntity
  8
M0
 62
     1
100
AcDbLine
 10
282.010789
 20
505.451963
 11
284.174394
 21
497.376768
  0
ARC
  5
34C
100
AcDbEntity
  8
M0
 62
     1
100
AcDbCircle
 10
282.081529
 20
528.653259
 40
2.0
100
AcDbArc
 50
89.999563
 51
179.999962
  0
LINE
  5
34D
100
AcDbEntity
  8
M0
 62
   114
100
AcDbLine
 10
221.14676
 20
526.750829
 11
220.346971
 21
526.75083
  0
LINE
  5
34E
100
AcDbEntity
  8
M0
 62
   114
100
AcDbLine
 10
209.14675
 20
492.750833
 11
209.146753
 21
503.750833
  0
ARC
  5
34F
100
AcDbEntity
  8
M0
 62
   114
100
AcDbCircle
 10
208.14675
 20
492.750833
 40
1.0
100
AcDbArc
 50
300.000586
 51
359.999982
  0
LINE
  5
350
100
AcDbEntity
  8
M0
 62
   114
100
AcDbLine
 10
209.146753
 20
503.750833
 11
220.146753
 21
503.75083
  0
LINE
  5
351
100
AcDbEntity
  8
M0
 62
   114
100
AcDbLine
 10
221.146753
 20
504.750829
 11
221.14676
 21
526.750829
  0
ARC
  5
352
100
AcDbEntity
  8
M0
 62
   114
100
AcDbCircle
 10
220.146753
 20
504.75083
 40
1.0
100
AcDbArc
 50
269.999108
 51
359.999982
  0
LINE
  5
353
100
AcDbEntity
  8
M0
  6
DASHDOT
 62
   114
100
AcDbLine
 10
215.146753
 20
502.250831
 11
215.146757
 21
515.250831
  0
LINE
  5
354
100
AcDbEntity
  8
M0
  6
DASHDOT
 62
   114
100
AcDbLine
 10
221.646755
 20
508.750829
 11
208.646755
 21
508.750833
  0
LINE
  5
355
100
AcDbEntity
  8
M0
 62
   114
100
AcDbLine
 10
213.946824
 20
526.750832
 11
209.64676
 21
526.750833
  0
LINE
  5
356
100
AcDbEntity
  8
M0
 62
   114
100
AcDbLine
 10
440.981477
 20
496.750837
 11
440.981487
 21
526.750837
  0
LINE
  5
357
100
AcDbEntity
  8
M0
 62
   114
100
AcDbLine
 10
379.981476
 20
491.750856
 11
391.981476
 21
491.750852
  0
LINE
  5
358
100
AcDbEntity
  8
M0
 62
   114
100
AcDbLine
 10
394.981477
 20
496.750851
 11
440.981477
 21
496.750837
  0
LINE
  5
359
100
AcDbEntity
  8
M0
 62
   114
100
AcDbLine
 10
391.981476
 20
491.750852
 11
391.981476
 21
493.750852
  0
ARC
  5
35A
100
AcDbEntity
  8
M0
 62
   114
100
AcDbCircle
 10
394.981476
 20
493.750851
 40
3.0
100
AcDbArc
 50
90.0
 51
179.999964
  0
LINE
  5
35B
100
AcDbEntity
  8
M0
 62
   114
100
AcDbLine
 10
381.481487
 20
526.750856
 11
381.481482
 21
510.750856
  0
LINE
  5
35C
100
AcDbEntity
  8
M0
 62
   114
100
AcDbLine
 10
381.481482
 20
510.750856
 11
379.981482
 21
510.750856
  0
LINE
  5
35D
100
AcDbEntity
  8
M0
 62
   114
100
AcDbLine
 10
379.981482
 20
510.750856
 11
379.981476
 21
491.750856
  0
LINE
  5
35E
100
AcDbEntity
  8
M0
 62
   114
100
AcDbLine
 10
440.981487
 20
526.750837
 11
386.481487
 21
526.750854
  0
LINE
  5
35F
100
AcDbEntity
  8
M0
 62
   114
100
AcDbLine
 10
386.481487
 20
526.750854
 11
386.481486
 21
525.250854
  0
LINE
  5
360
100
AcDbEntity
  8
M0
 62
   114
100
AcDbLine
 10
386.481486
 20
525.250854
 11
385.481486
 21
525.250854
  0
LINE
  5
361
100
AcDbEntity
  8
M0
 62
   114
100
AcDbLine
 10
385.481486
 20
525.250854
 11
385.481487
 21
526.750854
  0
LINE
  5
362
100
AcDbEntity
  8
M0
 62
   114
100
AcDbLine
 10
385.481487
 20
526.750854
 11
381.481487
 21
526.750856
  0
LINE
  5
363
100
AcDbEntity
  8
M0
 62
   114
100
AcDbLine
 10
381.481483
 20
514.750856
 11
440.981483
 21
514.750837
  0
LINE
  5
364
100
AcDbEntity
  8
M0
 62
   114
100
AcDbLine
 10
428.981483
 20
514.750841
 11
428.98148
 21
504.750841
  0
ARC
  5
365
100
AcDbEntity
  8
M0
 62
   114
100
AcDbCircle
 10
429.98148
 20
504.75084
 40
1.0
100
AcDbArc
 50
179.999982
 51
270.0
  0
LINE
  5
366
100
AcDbEntity
  8
M0
 62
   114
100
AcDbLine
 10
419.981477
 20
496.750844
 11
419.981479
 21
502.750844
  0
ARC
  5
367
100
AcDbEntity
  8
M0
 62
   114
100
AcDbCircle
 10
420.981479
 20
502.750843
 40
1.0
100
AcDbArc
 50
90.0
 51
179.999982
  0
LINE
  5
368
100
AcDbEntity
  8
M0
 62
   114
100
AcDbLine
 10
440.981479
 20
503.750837
 11
405.981479
 21
503.750848
  0
LINE
  5
369
100
AcDbEntity
  8
M0
 62
   114
100
AcDbLine
 10
404.981477
 20
496.750848
 11
404.981479
 21
502.750848
  0
ARC
  5
36A
100
AcDbEntity
  8
M0
 62
   114
100
AcDbCircle
 10
405.981479
 20
502.750848
 40
1.0
100
AcDbArc
 50
90.0
 51
179.999982
  0
LINE
  5
36B
100
AcDbEntity
  8
M0
 62
   114
100
AcDbLine
 10
398.131493
 20
516.75085
 11
403.83149
 21
516.750849
  0
LINE
  5
36C
100
AcDbEntity
  8
M0
 62
   114
100
AcDbLine
 10
398.131492
 20
514.75085
 11
398.131493
 21
516.75085
  0
LINE
  5
36D
100
AcDbEntity
  8
M0
 62
   114
100
AcDbLine
 10
403.831489
 20
514.750849
 11
403.83149
 21
516.750849
  0
LINE
  5
36E
100
AcDbEntity
  8
M0
  6
DASHDOT
 62
   114
100
AcDbLine
 10
400.981482
 20
512.546757
 11
400.981494
 21
549.509806
  0
LINE
  5
36F
100
AcDbEntity
  8
M0
 62
     7
100
AcDbLine
 10
85.646791
 20
584.653181
 11
108.646791
 21
584.653181
  0
LINE
  5
370
100
AcDbEntity
  8
M0
 62
     7
100
AcDbLine
 10
108.646791
 20
464.653181
 11
85.646791
 21
464.653181
  0
LINE
  5
371
100
AcDbEntity
  8
M0
  6
DASHDOT
 62
     7
100
AcDbLine
 10
97.146791
 20
454.653181
 11
97.146791
 21
594.653181
  0
LINE
  5
372
100
AcDbEntity
  8
M0
  6
DASHDOT
 62
     7
100
AcDbLine
 10
83.580761
 20
477.153181
 11
110.226125
 21
477.153181
  0
LINE
  5
373
100
AcDbEntity
  8
M0
 62
     7
100
AcDbLine
 10
108.646791
 20
513.153181
 11
108.646791
 21
464.653181
  0
LINE
  5
374
100
AcDbEntity
  8
M0
 62
     7
100
AcDbLine
 10
85.646791
 20
464.653181
 11
85.646791
 21
513.153181
  0
LINE
  5
375
100
AcDbEntity
  8
M0
  6
DASHED
 62
     7
100
AcDbLine
 10
108.646791
 20
527.153181
 11
108.646791
 21
513.153181
  0
LINE
  5
376
100
AcDbEntity
  8
M0
  6
DASHED
 62
     7
100
AcDbLine
 10
85.646791
 20
513.153181
 11
85.646791
 21
527.153181
  0
LINE
  5
377
100
AcDbEntity
  8
M0
  6
DASHED
 62
     7
100
AcDbLine
 10
85.646791
 20
544.653181
 11
85.646791
 21
550.153181
  0
LINE
  5
378
100
AcDbEntity
  8
M0
  6
DASHED
 62
     7
100
AcDbLine
 10
108.646791
 20
550.153181
 11
108.646791
 21
544.653181
  0
LINE
  5
379
100
AcDbEntity
  8
M0
 62
     7
100
AcDbLine
 10
108.646791
 20
584.653181
 11
108.646791
 21
551.153181
  0
LINE
  5
37A
100
AcDbEntity
  8
M0
 62
     7
100
AcDbLine
 10
85.646791
 20
551.153181
 11
85.646791
 21
584.653181
  0
LINE
  5
37B
100
AcDbEntity
  8
M0
  6
DASHDOT
 62
     7
100
AcDbLine
 10
87.646791
 20
572.153181
 11
106.646791
 21
572.153181
  0
LINE
  5
37C
100
AcDbEntity
  8
M0
 62
     7
100
AcDbLine
 10
73.146791
 20
527.153181
 11
73.146791
 21
544.653181
  0
LINE
  5
37D
100
AcDbEntity
  8
M0
 62
     7
100
AcDbLine
 10
73.146791
 20
544.653181
 11
121.146791
 21
544.653181
  0
LINE
  5
37E
100
AcDbEntity
  8
M0
 62
     7
100
AcDbLine
 10
121.146791
 20
544.653181
 11
121.146791
 21
527.153181
  0
LINE
  5
37F
100
AcDbEntity
  8
M0
 62
     7
100
AcDbLine
 10
121.146791
 20
527.153181
 11
73.146791
 21
527.153181
  0
LINE
  5
380
100
AcDbEntity
  8
M0
 62
     7
100
AcDbLine
 10
84.646791
 20
527.153181
 11
84.646791
 21
513.153181
  0
LINE
  5
381
100
AcDbEntity
  8
M0
 62
     7
100
AcDbLine
 10
84.646791
 20
557.153181
 11
84.646791
 21
544.653181
  0
LINE
  5
382
100
AcDbEntity
  8
M0
 62
     7
100
AcDbLine
 10
109.646791
 20
557.153181
 11
109.646791
 21
544.653181
  0
LINE
  5
383
100
AcDbEntity
  8
M0
 62
     7
100
AcDbLine
 10
109.646791
 20
527.153181
 11
109.646791
 21
513.153181
  0
LINE
  5
384
100
AcDbEntity
  8
M0
 62
     7
100
AcDbLine
 10
84.646791
 20
513.153181
 11
109.646791
 21
513.153181
  0
LINE
  5
385
100
AcDbEntity
  8
M0
 62
     7
100
AcDbLine
 10
109.646791
 20
550.153181
 11
84.646791
 21
550.153181
  0
LINE
  5
386
100
AcDbEntity
  8
M0
 62
     7
100
AcDbLine
 10
84.646791
 20
557.153181
 11
85.646791
 21
557.153181
  0
LINE
  5
387
100
AcDbEntity
  8
M0
 62
     7
100
AcDbLine
 10
108.646791
 20
557.153181
 11
109.646791
 21
557.153181
  0
LINE
  5
388
100
AcDbEntity
  8
M0
  6
DASHED
 62
     7
100
AcDbLine
 10
85.646791
 20
556.153181
 11
108.646791
 21
556.153181
  0
LINE
  5
389
100
AcDbEntity
  8
M0
  6
DASHED
 62
     7
100
AcDbLine
 10
85.646791
 20
557.153181
 11
108.646791
 21
557.153181
  0
LINE
  5
38A
100
AcDbEntity
  8
M0
 62
     7
100
AcDbLine
 10
108.646791
 20
551.153181
 11
85.646791
 21
551.153181
  0
CIRCLE
  5
38B
100
AcDbEntity
  8
M0
 62
     7
100
AcDbCircle
 10
97.146791
 20
572.153181
 40
5.5
  0
CIRCLE
  5
38C
100
AcDbEntity
  8
M0
 62
     7
100
AcDbCircle
 10
97.146791
 20
477.153181
 40
5.0
  0
CIRCLE
  5
38D
100
AcDbEntity
  8
M0
 62
     7
100
AcDbCircle
 10
97.146791
 20
477.153181
 40
4.0
  0
CIRCLE
  5
38E
100
AcDbEntity
  8
M0
 62
     7
100
AcDbCircle
 10
97.146791
 20
503.153181
 40
5.25
  0
LINE
  5
38F
100
AcDbEntity
  8
M0
 62
     7
100
AcDbLine
 10
97.995381
 20
503.15312
 11
101.259092
 21
506.416822
  0
LINE
  5
390
100
AcDbEntity
  8
M0
 62
     7
100
AcDbLine
 10
93.883144
 20
499.040876
 11
97.146856
 21
502.304594
  0
LINE
  5
391
100
AcDbEntity
  8
M0
 62
     7
100
AcDbLine
 10
96.298373
 20
503.153074
 11
93.03464
 21
499.889341
  0
LINE
  5
392
100
AcDbEntity
  8
M0
 62
     7
100
AcDbLine
 10
100.41062
 20
507.265333
 11
97.146899
 21
504.0016
  0
LINE
  5
393
100
AcDbEntity
  8
M0
 62
     7
100
AcDbLine
 10
97.146888
 20
504.0016
 11
95.379121
 21
505.769376
  0
LINE
  5
394
100
AcDbEntity
  8
M0
 62
     7
100
AcDbLine
 10
99.763147
 20
501.385343
 11
97.995381
 21
503.15312
  0
LINE
  5
395
100
AcDbEntity
  8
M0
 62
     7
100
AcDbLine
 10
97.146856
 20
502.304594
 11
98.914621
 21
500.536817
  0
LINE
  5
396
100
AcDbEntity
  8
M0
 62
     7
100
AcDbLine
 10
94.530595
 20
504.92085
 11
96.298362
 21
503.153074
  0
LINE
  5
397
100
AcDbEntity
  8
M0
 62
     7
100
AcDbLine
 10
98.914621
 20
500.536817
 11
99.763147
 21
501.385343
  0
LINE
  5
398
100
AcDbEntity
  8
M0
 62
     7
100
AcDbLine
 10
95.379121
 20
505.769376
 11
94.530595
 21
504.92085
  0
CIRCLE
  5
399
100
AcDbEntity
  8
M0
 62
     7
100
AcDbCircle
 10
97.146791
 20
503.153181
 40
5.75
  0
LINE
  5
39A
100
AcDbEntity
  8
M0
  6
DASHDOT
 62
     7
100
AcDbLine
 10
105.50221
 20
503.153196
 11
88.791372
 21
503.153181
  0
LINE
  5
39B
100
AcDbEntity
  8
M0
 62
     7
100
AcDbLine
 10
114.397035
 20
545.353239
 11
114.471254
 21
546.200559
  0
LINE
  5
39C
100
AcDbEntity
  8
M0
 62
     7
100
AcDbLine
 10
119.896547
 20
545.353254
 11
119.822572
 21
546.200559
  0
ARC
  5
39D
100
AcDbEntity
  8
M0
 62
     7
100
AcDbCircle
 10
118.826234
 20
546.113416
 40
1.0
100
AcDbArc
 50
4.999316
 51
73.739131
  0
ARC
  5
39E
100
AcDbEntity
  8
M0
 62
     7
100
AcDbCircle
 10
115.467592
 20
546.113416
 40
1.0
100
AcDbArc
 50
106.24814
 51
175.00076
  0
ARC
  5
39F
100
AcDbEntity
  8
M0
 62
     7
100
AcDbCircle
 10
117.146791
 20
540.353239
 40
7.0
100
AcDbArc
 50
73.744446
 51
107.014871
  0
LINE
  5
3A0
100
AcDbEntity
  8
M0
 62
     7
100
AcDbLine
 10
114.397035
 20
544.653181
 11
119.897035
 21
544.653181
  0
LINE
  5
3A1
100
AcDbEntity
  8
M0
 62
     7
100
AcDbLine
 10
119.897035
 20
545.353132
 11
119.897035
 21
544.653181
  0
LINE
  5
3A2
100
AcDbEntity
  8
M0
 62
     7
100
AcDbLine
 10
114.397035
 20
545.353132
 11
114.397035
 21
544.653181
  0
LINE
  5
3A3
100
AcDbEntity
  8
M0
 62
     7
100
AcDbLine
 10
115.846986
 20
525.353773
 11
115.846986
 21
521.353239
  0
LINE
  5
3A4
100
AcDbEntity
  8
M0
 62
     7
100
AcDbLine
 10
118.44684
 20
525.353773
 11
118.44684
 21
521.353239
  0
LINE
  5
3A5
100
AcDbEntity
  8
M0
 62
     7
100
AcDbLine
 10
118.646791
 20
525.353773
 11
118.646791
 21
521.353239
  0
LINE
  5
3A6
100
AcDbEntity
  8
M0
 62
     7
100
AcDbLine
 10
115.646791
 20
521.353239
 11
115.646791
 21
525.353773
  0
LINE
  5
3A7
100
AcDbEntity
  8
M0
 62
     7
100
AcDbLine
 10
118.646791
 20
521.353239
 11
115.646791
 21
521.353239
  0
LINE
  5
3A8
100
AcDbEntity
  8
M0
 62
     7
100
AcDbLine
 10
119.896791
 20
545.353239
 11
114.396791
 21
545.353239
  0
LINE
  5
3A9
100
AcDbEntity
  8
M0
 62
     7
100
AcDbLine
 10
117.146791
 20
544.653181
 11
117.646791
 21
545.353239
  0
LINE
  5
3AA
100
AcDbEntity
  8
M0
 62
     7
100
AcDbLine
 10
117.146791
 20
545.353239
 11
116.646791
 21
544.653181
  0
LINE
  5
3AB
100
AcDbEntity
  8
M0
 62
     7
100
AcDbLine
 10
79.896547
 20
545.353239
 11
79.822328
 21
546.200559
  0
LINE
  5
3AC
100
AcDbEntity
  8
M0
 62
     7
100
AcDbLine
 10
74.397035
 20
545.353254
 11
74.47101
 21
546.200559
  0
ARC
  5
3AD
100
AcDbEntity
  8
M0
 62
     7
100
AcDbCircle
 10
75.467348
 20
546.113416
 40
1.0
100
AcDbArc
 50
106.260869
 51
175.000684
  0
ARC
  5
3AE
100
AcDbEntity
  8
M0
 62
     7
100
AcDbCircle
 10
78.82599
 20
546.113416
 40
1.0
100
AcDbArc
 50
4.99924
 51
73.75186
  0
ARC
  5
3AF
100
AcDbEntity
  8
M0
 62
     7
100
AcDbCircle
 10
77.146791
 20
540.353239
 40
7.0
100
AcDbArc
 50
72.985009
 51
106.255434
  0
LINE
  5
3B0
100
AcDbEntity
  8
M0
 62
     7
100
AcDbLine
 10
79.896547
 20
544.653181
 11
74.396547
 21
544.653181
  0
LINE
  5
3B1
100
AcDbEntity
  8
M0
 62
     7
100
AcDbLine
 10
74.396547
 20
545.353132
 11
74.396547
 21
544.653181
  0
LINE
  5
3B2
100
AcDbEntity
  8
M0
 62
     7
100
AcDbLine
 10
79.896547
 20
545.353132
 11
79.896547
 21
544.653181
  0
LINE
  5
3B3
100
AcDbEntity
  8
M0
 62
     7
100
AcDbLine
 10
78.446596
 20
525.353773
 11
78.446596
 21
521.353239
  0
LINE
  5
3B4
100
AcDbEntity
  8
M0
 62
     7
100
AcDbLine
 10
75.846742
 20
525.353773
 11
75.846742
 21
521.353239
  0
LINE
  5
3B5
100
AcDbEntity
  8
M0
 62
     7
100
AcDbLine
 10
75.646791
 20
525.353773
 11
75.646791
 21
521.353239
  0
LINE
  5
3B6
100
AcDbEntity
  8
M0
 62
     7
100
AcDbLine
 10
78.646791
 20
521.353239
 11
78.646791
 21
525.353773
  0
LINE
  5
3B7
100
AcDbEntity
  8
M0
 62
     7
100
AcDbLine
 10
75.646791
 20
521.353239
 11
78.646791
 21
521.353239
  0
LINE
  5
3B8
100
AcDbEntity
  8
M0
 62
     7
100
AcDbLine
 10
74.396791
 20
545.353239
 11
79.896791
 21
545.353239
  0
LINE
  5
3B9
100
AcDbEntity
  8
M0
 62
     7
100
AcDbLine
 10
77.146791
 20
544.653181
 11
76.646791
 21
545.353239
  0
LINE
  5
3BA
100
AcDbEntity
  8
M0
 62
     7
100
AcDbLine
 10
77.146791
 20
545.353239
 11
77.646791
 21
544.653181
  0
LINE
  5
3BB
100
AcDbEntity
  8
M0
 62
   114
100
AcDbLine
 10
73.146791
 20
526.750829
 11
73.946611
 21
526.75083
  0
LINE
  5
3BC
100
AcDbEntity
  8
M0
 62
   114
100
AcDbLine
 10
121.146791
 20
526.750844
 11
121.146798
 21
504.750844
  0
LINE
  5
3BD
100
AcDbEntity
  8
M0
 62
   114
100
AcDbLine
 10
120.146798
 20
503.750844
 11
109.146798
 21
503.750841
  0
ARC
  5
3BE
100
AcDbEntity
  8
M0
 62
   114
100
AcDbCircle
 10
120.146798
 20
504.750844
 40
1.0
100
AcDbArc
 50
-90.0
 51
1.798609E-005
  0
LINE
  5
3BF
100
AcDbEntity
  8
M0
 62
   114
100
AcDbLine
 10
109.146798
 20
503.750841
 11
109.146802
 21
492.750841
  0
ARC
  5
3C0
100
AcDbEntity
  8
M0
 62
   114
100
AcDbCircle
 10
108.146802
 20
492.75084
 40
1.0
100
AcDbArc
 50
-59.999378
 51
1.798609E-005
  0
LINE
  5
3C1
100
AcDbEntity
  8
M0
 62
   114
100
AcDbLine
 10
85.146802
 20
492.750833
 11
85.146798
 21
503.750833
  0
ARC
  5
3C2
100
AcDbEntity
  8
M0
 62
   114
100
AcDbCircle
 10
86.146802
 20
492.750833
 40
1.0
100
AcDbArc
 50
179.999144
 51
239.999414
  0
LINE
  5
3C3
100
AcDbEntity
  8
M0
 62
   114
100
AcDbLine
 10
85.146798
 20
503.750833
 11
74.146798
 21
503.75083
  0
LINE
  5
3C4
100
AcDbEntity
  8
M0
 62
   114
100
AcDbLine
 10
73.146798
 20
504.750829
 11
73.146791
 21
526.750829
  0
ARC
  5
3C5
100
AcDbEntity
  8
M0
 62
   114
100
AcDbCircle
 10
74.146798
 20
504.75083
 40
1.0
100
AcDbArc
 50
179.999144
 51
270.0
  0
LINE
  5
3C6
100
AcDbEntity
  8
M0
  6
DASHDOT
 62
   114
100
AcDbLine
 10
79.146799
 20
502.250831
 11
79.146794
 21
515.250831
  0
LINE
  5
3C7
100
AcDbEntity
  8
M0
  6
DASHDOT
 62
   114
100
AcDbLine
 10
72.646797
 20
508.750829
 11
85.646797
 21
508.750833
  0
LINE
  5
3C8
100
AcDbEntity
  8
M0
  6
DASHDOT
 62
   114
100
AcDbLine
 10
115.146799
 20
502.250843
 11
115.146794
 21
515.250843
  0
LINE
  5
3C9
100
AcDbEntity
  8
M0
  6
DASHDOT
 62
   114
100
AcDbLine
 10
121.646797
 20
508.750845
 11
108.646797
 21
508.750841
  0
LINE
  5
3CA
100
AcDbEntity
  8
M0
 62
   114
100
AcDbLine
 10
80.346757
 20
526.750832
 11
84.646792
 21
526.750833
  0
LINE
  5
3CB
100
AcDbEntity
  8
M0
 62
   114
100
AcDbLine
 10
109.646791
 20
526.750841
 11
113.94658
 21
526.750842
  0
LINE
  5
3CC
100
AcDbEntity
  8
M0
 62
   114
100
AcDbLine
 10
120.346727
 20
526.750844
 11
121.146791
 21
526.750844
  0
LINE
  5
3CD
100
AcDbEntity
  8
M0
 62
     1
100
AcDbLine
 10
357.88138
 20
527.15318
 11
357.88138
 21
525.353766
  0
LINE
  5
3CE
100
AcDbEntity
  8
M0
 62
     1
100
AcDbLine
 10
357.88138
 20
525.353766
 11
364.281527
 21
525.353768
  0
LINE
  5
3CF
100
AcDbEntity
  8
M0
 62
     1
100
AcDbLine
 10
364.281527
 20
525.353768
 11
364.281526
 21
527.153182
  0
LINE
  5
3D0
100
AcDbEntity
  8
M0
 62
     1
100
AcDbLine
 10
364.281526
 20
527.153182
 11
357.88138
 21
527.15318
  0
LINE
  5
3D1
100
AcDbEntity
  8
M0
 62
     1
100
AcDbLine
 10
362.681185
 20
525.353768
 11
362.681184
 21
527.153181
  0
LINE
  5
3D2
100
AcDbEntity
  8
M0
 62
     1
100
AcDbLine
 10
359.481234
 20
525.353766
 11
359.481233
 21
527.15318
  0
LINE
  5
3D3
100
AcDbEntity
  8
M0
  6
DASHDOT
 62
     4
100
AcDbLine
 10
399.08159
 20
503.152952
 11
390.081575
 21
503.152937
  0
LINE
  5
3D4
100
AcDbEntity
  8
M0
  6
DASHED
 62
     4
100
AcDbLine
 10
397.081575
 20
497.402921
 11
392.081575
 21
497.402921
  0
LINE
  5
3D5
100
AcDbEntity
  8
M0
  6
DASHED
 62
     4
100
AcDbLine
 10
397.08159
 20
508.902906
 11
397.081575
 21
497.402921
  0
LINE
  5
3D6
100
AcDbEntity
  8
M0
  6
DASHED
 62
     4
100
AcDbLine
 10
392.081575
 20
497.402921
 11
392.081575
 21
508.902906
  0
LINE
  5
3D7
100
AcDbEntity
  8
M0
  6
DASHED
 62
     4
100
AcDbLine
 10
397.08159
 20
506.027906
 11
392.081575
 21
506.027906
  0
LINE
  5
3D8
100
AcDbEntity
  8
M0
  6
DASHED
 62
     4
100
AcDbLine
 10
397.081575
 20
500.277921
 11
392.081575
 21
500.277921
  0
LINE
  5
3D9
100
AcDbEntity
  8
M0
  6
DASHED
 62
     4
100
AcDbLine
 10
392.081575
 20
508.902906
 11
397.08159
 21
508.902891
  0
LINE
  5
3DA
100
AcDbEntity
  8
M0
 62
   253
100
AcDbLine
 10
428.481477
 20
504.750837
 11
428.481477
 21
512.750837
  0
LINE
  5
3DB
100
AcDbEntity
  8
M0
 62
   253
100
AcDbLine
 10
428.981477
 20
504.750837
 11
428.981477
 21
512.750837
  0
LINE
  5
3DC
100
AcDbEntity
  8
M0
 62
   253
100
AcDbLine
 10
427.481477
 20
512.250837
 11
428.481477
 21
512.250837
  0
LINE
  5
3DD
100
AcDbEntity
  8
M0
 62
   253
100
AcDbLine
 10
427.481477
 20
505.250837
 11
428.481477
 21
505.250837
  0
LINE
  5
3DE
100
AcDbEntity
  8
M0
 62
   253
100
AcDbLine
 10
428.481477
 20
512.750837
 11
428.981477
 21
512.750837
  0
LINE
  5
3DF
100
AcDbEntity
  8
M0
 62
   253
100
AcDbLine
 10
428.481477
 20
504.750837
 11
428.981477
 21
504.750837
  0
LINE
  5
3E0
100
AcDbEntity
  8
M0
 62
   253
100
AcDbLine
 10
427.481477
 20
505.250959
 11
427.481477
 21
512.250959
  0
LINE
  5
3E1
100
AcDbEntity
  8
M0
 62
   253
100
AcDbLine
 10
445.481477
 20
506.750959
 11
445.481477
 21
510.750959
  0
LINE
  5
3E2
100
AcDbEntity
  8
M0
 62
   253
100
AcDbLine
 10
445.481477
 20
510.750959
 11
443.281519
 21
510.750959
  0
LINE
  5
3E3
100
AcDbEntity
  8
M0
 62
   253
100
AcDbLine
 10
427.481477
 20
510.750959
 11
427.481477
 21
506.750959
  0
LINE
  5
3E4
100
AcDbEntity
  8
M0
 62
   253
100
AcDbLine
 10
443.281519
 20
506.750959
 11
445.481477
 21
506.750959
  0
LINE
  5
3E5
100
AcDbEntity
  8
M0
  6
DASHDOT
 62
   253
100
AcDbLine
 10
422.481477
 20
508.750959
 11
447.491975
 21
508.750959
  0
LINE
  5
3E6
100
AcDbEntity
  8
M0
 62
   253
100
AcDbLine
 10
427.481477
 20
512.250959
 11
426.502458
 21
512.250959
  0
ARC
  5
3E7
100
AcDbEntity
  8
M0
 62
   253
100
AcDbCircle
 10
426.502458
 20
510.950956
 40
1.299999
100
AcDbArc
 50
90.0
 51
163.398526
  0
LINE
  5
3E8
100
AcDbEntity
  8
M0
 62
   253
100
AcDbLine
 10
426.502458
 20
505.250959
 11
427.481477
 21
505.250959
  0
ARC
  5
3E9
100
AcDbEntity
  8
M0
 62
   253
100
AcDbCircle
 10
426.502458
 20
506.550962
 40
1.299999
100
AcDbArc
 50
196.601394
 51
270.0
  0
LINE
  5
3EA
100
AcDbEntity
  8
M0
 62
   253
100
AcDbLine
 10
443.281519
 20
510.450956
 11
445.481477
 21
510.450956
  0
LINE
  5
3EB
100
AcDbEntity
  8
M0
 62
   253
100
AcDbLine
 10
443.281519
 20
507.050962
 11
445.481477
 21
507.050962
  0
LINE
  5
3EC
100
AcDbEntity
  8
M0
 62
   253
100
AcDbLine
 10
424.895372
 20
509.250959
 11
426.295381
 21
509.250959
  0
LINE
  5
3ED
100
AcDbEntity
  8
M0
 62
   253
100
AcDbLine
 10
426.295381
 20
509.250959
 11
426.295381
 21
508.250959
  0
LINE
  5
3EE
100
AcDbEntity
  8
M0
 62
   253
100
AcDbLine
 10
426.295381
 20
508.250959
 11
424.895372
 21
508.250959
  0
ARC
  5
3EF
100
AcDbEntity
  8
M0
 62
   253
100
AcDbCircle
 10
433.881471
 20
508.750959
 40
9.0
100
AcDbArc
 50
163.398451
 51
176.815238
  0
ARC
  5
3F0
100
AcDbEntity
  8
M0
 62
   253
100
AcDbCircle
 10
433.881471
 20
508.750959
 40
9.0
100
AcDbArc
 50
183.18469
 51
196.60153
  0
LINE
  5
3F1
100
AcDbEntity
  8
M0
 62
   253
100
AcDbLine
 10
428.481477
 20
508.750959
 11
427.481477
 21
508.250959
  0
LINE
  5
3F2
100
AcDbEntity
  8
M0
 62
   253
100
AcDbLine
 10
427.481477
 20
508.750959
 11
428.481477
 21
509.250944
  0
LINE
  5
3F3
100
AcDbEntity
  8
M0
 62
   253
100
AcDbLine
 10
215.853623
 20
508.750593
 11
217.949556
 21
510.846525
  0
LINE
  5
3F4
100
AcDbEntity
  8
M0
 62
   253
100
AcDbLine
 10
213.050573
 20
505.947543
 11
215.146516
 21
508.043486
  0
LINE
  5
3F5
100
AcDbEntity
  8
M0
 62
   253
100
AcDbLine
 10
214.439409
 20
508.750593
 11
212.343466
 21
506.65465
  0
LINE
  5
3F6
100
AcDbEntity
  8
M0
 62
   253
100
AcDbLine
 10
217.242449
 20
511.553632
 11
215.146516
 21
509.4577
  0
LINE
  5
3F7
100
AcDbEntity
  8
M0
 62
   253
100
AcDbLine
 10
215.146516
 20
509.4577
 11
214.050466
 21
510.55375
  0
LINE
  5
3F8
100
AcDbEntity
  8
M0
 62
   253
100
AcDbLine
 10
216.949673
 20
507.654543
 11
215.853623
 21
508.750593
  0
LINE
  5
3F9
100
AcDbEntity
  8
M0
 62
   253
100
AcDbLine
 10
215.146516
 20
508.043486
 11
216.242566
 21
506.947436
  0
LINE
  5
3FA
100
AcDbEntity
  8
M0
 62
   253
100
AcDbLine
 10
213.343359
 20
509.846643
 11
214.439409
 21
508.750593
  0
CIRCLE
  5
3FB
100
AcDbEntity
  8
M0
 62
   253
100
AcDbCircle
 10
215.146516
 20
508.750593
 40
3.5
  0
LINE
  5
3FC
100
AcDbEntity
  8
M0
 62
   253
100
AcDbLine
 10
216.242566
 20
506.947436
 11
216.949673
 21
507.654543
  0
LINE
  5
3FD
100
AcDbEntity
  8
M0
 62
   253
100
AcDbLine
 10
214.050466
 20
510.55375
 11
213.343359
 21
509.846643
  0
CIRCLE
  5
3FE
100
AcDbEntity
  8
M0
 62
   253
100
AcDbCircle
 10
215.146516
 20
508.750593
 40
4.0
  0
LINE
  5
3FF
100
AcDbEntity
  8
M0
 62
   253
100
AcDbLine
 10
115.853898
 20
508.750837
 11
117.94983
 21
510.846769
  0
LINE
  5
400
100
AcDbEntity
  8
M0
 62
   253
100
AcDbLine
 10
113.050848
 20
505.947787
 11
115.146791
 21
508.04373
  0
LINE
  5
401
100
AcDbEntity
  8
M0
 62
   253
100
AcDbLine
 10
114.439684
 20
508.750837
 11
112.343741
 21
506.654894
  0
LINE
  5
402
100
AcDbEntity
  8
M0
 62
   253
100
AcDbLine
 10
117.242723
 20
511.553876
 11
115.146791
 21
509.457944
  0
LINE
  5
403
100
AcDbEntity
  8
M0
 62
   253
100
AcDbLine
 10
115.146791
 20
509.457944
 11
114.050741
 21
510.553994
  0
LINE
  5
404
100
AcDbEntity
  8
M0
 62
   253
100
AcDbLine
 10
116.949948
 20
507.654787
 11
115.853898
 21
508.750837
  0
LINE
  5
405
100
AcDbEntity
  8
M0
 62
   253
100
AcDbLine
 10
115.146791
 20
508.04373
 11
116.242841
 21
506.94768
  0
LINE
  5
406
100
AcDbEntity
  8
M0
 62
   253
100
AcDbLine
 10
113.343634
 20
509.846887
 11
114.439684
 21
508.750837
  0
CIRCLE
  5
407
100
AcDbEntity
  8
M0
 62
   253
100
AcDbCircle
 10
115.146791
 20
508.750837
 40
3.5
  0
LINE
  5
408
100
AcDbEntity
  8
M0
 62
   253
100
AcDbLine
 10
116.242841
 20
506.94768
 11
116.949948
 21
507.654787
  0
LINE
  5
409
100
AcDbEntity
  8
M0
 62
   253
100
AcDbLine
 10
114.050741
 20
510.553994
 11
113.343634
 21
509.846887
  0
CIRCLE
  5
40A
100
AcDbEntity
  8
M0
 62
   253
100
AcDbCircle
 10
115.146791
 20
508.750837
 40
4.0
  0
LINE
  5
40B
100
AcDbEntity
  8
M0
 62
   253
100
AcDbLine
 10
79.853898
 20
508.750593
 11
81.94983
 21
510.846525
  0
LINE
  5
40C
100
AcDbEntity
  8
M0
 62
   253
100
AcDbLine
 10
77.050848
 20
505.947543
 11
79.146791
 21
508.043486
  0
LINE
  5
40D
100
AcDbEntity
  8
M0
 62
   253
100
AcDbLine
 10
78.439684
 20
508.750593
 11
76.343741
 21
506.65465
  0
LINE
  5
40E
100
AcDbEntity
  8
M0
 62
   253
100
AcDbLine
 10
81.242723
 20
511.553632
 11
79.146791
 21
509.4577
  0
LINE
  5
40F
100
AcDbEntity
  8
M0
 62
   253
100
AcDbLine
 10
79.146791
 20
509.4577
 11
78.050741
 21
510.55375
  0
LINE
  5
410
100
AcDbEntity
  8
M0
 62
   253
100
AcDbLine
 10
80.949948
 20
507.654543
 11
79.853898
 21
508.750593
  0
LINE
  5
411
100
AcDbEntity
  8
M0
 62
   253
100
AcDbLine
 10
79.146791
 20
508.043486
 11
80.242841
 21
506.947436
  0
LINE
  5
412
100
AcDbEntity
  8
M0
 62
   253
100
AcDbLine
 10
77.343634
 20
509.846643
 11
78.439684
 21
508.750593
  0
CIRCLE
  5
413
100
AcDbEntity
  8
M0
 62
   253
100
AcDbCircle
 10
79.146791
 20
508.750593
 40
3.5
  0
LINE
  5
414
100
AcDbEntity
  8
M0
 62
   253
100
AcDbLine
 10
80.242841
 20
506.947436
 11
80.949948
 21
507.654543
  0
LINE
  5
415
100
AcDbEntity
  8
M0
 62
   253
100
AcDbLine
 10
78.050741
 20
510.55375
 11
77.343634
 21
509.846643
  0
CIRCLE
  5
416
100
AcDbEntity
  8
M0
 62
   253
100
AcDbCircle
 10
79.146791
 20
508.750593
 40
4.0
  0
LINE
  5
417
100
AcDbEntity
  8
M0
 62
     1
100
AcDbLine
 10
73.946596
 20
527.15318
 11
73.946596
 21
525.353766
  0
LINE
  5
418
100
AcDbEntity
  8
M0
 62
     1
100
AcDbLine
 10
73.946596
 20
525.353766
 11
80.346743
 21
525.353768
  0
LINE
  5
419
100
AcDbEntity
  8
M0
 62
     1
100
AcDbLine
 10
80.346743
 20
525.353768
 11
80.346742
 21
527.153182
  0
LINE
  5
41A
100
AcDbEntity
  8
M0
 62
     1
100
AcDbLine
 10
80.346742
 20
527.153182
 11
73.946596
 21
527.15318
  0
LINE
  5
41B
100
AcDbEntity
  8
M0
 62
     1
100
AcDbLine
 10
78.746401
 20
525.353768
 11
78.7464
 21
527.153181
  0
LINE
  5
41C
100
AcDbEntity
  8
M0
 62
     1
100
AcDbLine
 10
75.54645
 20
525.353766
 11
75.546449
 21
527.15318
  0
LINE
  5
41D
100
AcDbEntity
  8
M0
 62
     1
100
AcDbLine
 10
113.946596
 20
527.15318
 11
113.946596
 21
525.353766
  0
LINE
  5
41E
100
AcDbEntity
  8
M0
 62
     1
100
AcDbLine
 10
113.946596
 20
525.353766
 11
120.346743
 21
525.353768
  0
LINE
  5
41F
100
AcDbEntity
  8
M0
 62
     1
100
AcDbLine
 10
120.346743
 20
525.353768
 11
120.346742
 21
527.153182
  0
LINE
  5
420
100
AcDbEntity
  8
M0
 62
     1
100
AcDbLine
 10
120.346742
 20
527.153182
 11
113.946596
 21
527.15318
  0
LINE
  5
421
100
AcDbEntity
  8
M0
 62
     1
100
AcDbLine
 10
118.746401
 20
525.353768
 11
118.7464
 21
527.153181
  0
LINE
  5
422
100
AcDbEntity
  8
M0
 62
     1
100
AcDbLine
 10
115.54645
 20
525.353766
 11
115.546449
 21
527.15318
  0
LINE
  5
423
100
AcDbEntity
  8
M0
 62
     1
100
AcDbLine
 10
220.346956
 20
527.15318
 11
220.346955
 21
525.353766
  0
LINE
  5
424
100
AcDbEntity
  8
M0
 62
     1
100
AcDbLine
 10
220.346955
 20
525.353766
 11
213.946809
 21
525.353768
  0
LINE
  5
425
100
AcDbEntity
  8
M0
 62
     1
100
AcDbLine
 10
213.946809
 20
525.353768
 11
213.946809
 21
527.153182
  0
LINE
  5
426
100
AcDbEntity
  8
M0
 62
     1
100
AcDbLine
 10
213.946809
 20
527.153182
 11
220.346956
 21
527.15318
  0
LINE
  5
427
100
AcDbEntity
  8
M0
 62
     1
100
AcDbLine
 10
215.54715
 20
525.353768
 11
215.547151
 21
527.153181
  0
LINE
  5
428
100
AcDbEntity
  8
M0
 62
     1
100
AcDbLine
 10
218.747102
 20
525.353766
 11
218.747102
 21
527.15318
  0
LINE
  5
429
100
AcDbEntity
  8
M0
 62
     4
100
AcDbLine
 10
373.481584
 20
466.153181
 11
375.081575
 21
466.153181
  0
LINE
  5
42A
100
AcDbEntity
  8
M0
 62
     4
100
AcDbLine
 10
375.081575
 20
466.153181
 11
375.081575
 21
488.153181
  0
LINE
  5
42B
100
AcDbEntity
  8
M0
 62
     4
100
AcDbLine
 10
375.081575
 20
488.153181
 11
373.481584
 21
488.153181
  0
LINE
  5
42C
100
AcDbEntity
  8
M0
 62
     4
100
AcDbLine
 10
373.481584
 20
488.153181
 11
373.481584
 21
466.153181
  0
LINE
  5
42D
100
AcDbEntity
  8
M0
 62
     4
100
AcDbLine
 10
370.981584
 20
467.953175
 11
373.481584
 21
467.953175
  0
LINE
  5
42E
100
AcDbEntity
  8
M0
 62
     4
100
AcDbLine
 10
373.481584
 20
486.353168
 11
370.981584
 21
486.353168
  0
LINE
  5
42F
100
AcDbEntity
  8
M0
 62
     4
100
AcDbLine
 10
370.981584
 20
477.153187
 11
373.481584
 21
475.709813
  0
LINE
  5
430
100
AcDbEntity
  8
M0
 62
     4
100
AcDbLine
 10
370.981584
 20
478.596546
 11
373.481584
 21
477.153171
  0
LINE
  5
431
100
AcDbEntity
  8
M0
 62
     4
100
AcDbLine
 10
370.981569
 20
486.95322
 11
362.981553
 21
486.95322
  0
LINE
  5
432
100
AcDbEntity
  8
M0
 62
     4
100
AcDbLine
 10
362.981584
 20
486.953174
 11
362.981584
 21
467.3532
  0
LINE
  5
433
100
AcDbEntity
  8
M0
 62
     4
100
AcDbLine
 10
362.981569
 20
467.353215
 11
370.981569
 21
467.353215
  0
LINE
  5
434
100
AcDbEntity
  8
M0
 62
     4
100
AcDbLine
 10
370.981584
 20
467.35323
 11
370.981584
 21
486.953235
  0
LINE
  5
435
100
AcDbEntity
  8
M0
 62
     4
100
AcDbLine
 10
370.981569
 20
472.253209
 11
362.981569
 21
472.253209
  0
LINE
  5
436
100
AcDbEntity
  8
M0
 62
     4
100
AcDbLine
 10
370.981569
 20
482.053196
 11
362.981553
 21
482.053196
  0
CIRCLE
  5
437
100
AcDbEntity
  8
M0
 62
     4
100
AcDbCircle
 10
97.146791
 20
477.153181
 40
11.0
  0
ARC
  5
438
100
AcDbEntity
  8
M0
 62
     4
100
AcDbCircle
 10
97.146791
 20
477.153181
 40
9.199997
100
AcDbArc
 50
37.298384
 51
82.702826
  0
ARC
  5
439
100
AcDbEntity
  8
M0
 62
     4
100
AcDbCircle
 10
97.146791
 20
477.153181
 40
9.199997
100
AcDbArc
 50
337.299659
 51
382.700314
  0
ARC
  5
43A
100
AcDbEntity
  8
M0
 62
     4
100
AcDbCircle
 10
97.146791
 20
477.153181
 40
9.199997
100
AcDbArc
 50
277.294204
 51
322.704201
  0
ARC
  5
43B
100
AcDbEntity
  8
M0
 62
     4
100
AcDbCircle
 10
97.146791
 20
477.153181
 40
9.199997
100
AcDbArc
 50
217.291976
 51
262.706671
  0
ARC
  5
43C
100
AcDbEntity
  8
M0
 62
     4
100
AcDbCircle
 10
97.146791
 20
477.153181
 40
9.199997
100
AcDbArc
 50
97.296264
 51
142.705002
  0
ARC
  5
43D
100
AcDbEntity
  8
M0
 62
     4
100
AcDbCircle
 10
97.146791
 20
477.153181
 40
9.199997
100
AcDbArc
 50
157.291007
 51
202.708921
  0
LINE
  5
43E
100
AcDbEntity
  8
M0
 62
     4
100
AcDbLine
 10
97.146814
 20
467.353284
 11
88.659998
 21
472.253278
  0
LINE
  5
43F
100
AcDbEntity
  8
M0
 62
     4
100
AcDbLine
 10
88.659998
 20
472.253278
 11
88.659998
 21
482.053297
  0
LINE
  5
440
100
AcDbEntity
  8
M0
 62
     4
100
AcDbLine
 10
88.659998
 20
482.053297
 11
97.146814
 21
486.953291
  0
LINE
  5
441
100
AcDbEntity
  8
M0
 62
     4
100
AcDbLine
 10
97.146814
 20
486.953291
 11
105.634118
 21
482.053266
  0
LINE
  5
442
100
AcDbEntity
  8
M0
 62
     4
100
AcDbLine
 10
105.634118
 20
482.053266
 11
105.634118
 21
472.253278
  0
LINE
  5
443
100
AcDbEntity
  8
M0
 62
     4
100
AcDbLine
 10
105.634118
 20
472.253278
 11
97.146814
 21
467.353284
  0
CIRCLE
  5
444
100
AcDbEntity
  8
M0
 62
     4
100
AcDbCircle
 10
147.146791
 20
477.153181
 40
11.0
  0
ARC
  5
445
100
AcDbEntity
  8
M0
 62
     4
100
AcDbCircle
 10
147.146791
 20
477.153181
 40
9.199997
100
AcDbArc
 50
37.298384
 51
82.702826
  0
ARC
  5
446
100
AcDbEntity
  8
M0
 62
     4
100
AcDbCircle
 10
147.146791
 20
477.153181
 40
9.199997
100
AcDbArc
 50
337.299659
 51
382.700314
  0
ARC
  5
447
100
AcDbEntity
  8
M0
 62
     4
100
AcDbCircle
 10
147.146791
 20
477.153181
 40
9.199997
100
AcDbArc
 50
277.294204
 51
322.704201
  0
ARC
  5
448
100
AcDbEntity
  8
M0
 62
     4
100
AcDbCircle
 10
147.146791
 20
477.153181
 40
9.199997
100
AcDbArc
 50
217.291976
 51
262.706671
  0
ARC
  5
449
100
AcDbEntity
  8
M0
 62
     4
100
AcDbCircle
 10
147.146791
 20
477.153181
 40
9.199997
100
AcDbArc
 50
97.296264
 51
142.705002
  0
ARC
  5
44A
100
AcDbEntity
  8
M0
 62
     4
100
AcDbCircle
 10
147.146791
 20
477.153181
 40
9.199997
100
AcDbArc
 50
157.291007
 51
202.708921
  0
LINE
  5
44B
100
AcDbEntity
  8
M0
 62
     4
100
AcDbLine
 10
147.146814
 20
467.353284
 11
138.659998
 21
472.253278
  0
LINE
  5
44C
100
AcDbEntity
  8
M0
 62
     4
100
AcDbLine
 10
138.659998
 20
472.253278
 11
138.659998
 21
482.053297
  0
LINE
  5
44D
100
AcDbEntity
  8
M0
 62
     4
100
AcDbLine
 10
138.659998
 20
482.053297
 11
147.146814
 21
486.953291
  0
LINE
  5
44E
100
AcDbEntity
  8
M0
 62
     4
100
AcDbLine
 10
147.146814
 20
486.953291
 11
155.634118
 21
482.053266
  0
LINE
  5
44F
100
AcDbEntity
  8
M0
 62
     4
100
AcDbLine
 10
155.634118
 20
482.053266
 11
155.634118
 21
472.253278
  0
LINE
  5
450
100
AcDbEntity
  8
M0
 62
     4
100
AcDbLine
 10
155.634118
 20
472.253278
 11
147.146814
 21
467.353284
  0
CIRCLE
  5
451
100
AcDbEntity
  8
M0
 62
     4
100
AcDbCircle
 10
197.14676
 20
477.153181
 40
11.0
  0
ARC
  5
452
100
AcDbEntity
  8
M0
 62
     4
100
AcDbCircle
 10
197.14676
 20
477.153181
 40
9.199997
100
AcDbArc
 50
37.298384
 51
82.702826
  0
ARC
  5
453
100
AcDbEntity
  8
M0
 62
     4
100
AcDbCircle
 10
197.14676
 20
477.153181
 40
9.199997
100
AcDbArc
 50
337.299659
 51
382.700314
  0
ARC
  5
454
100
AcDbEntity
  8
M0
 62
     4
100
AcDbCircle
 10
197.14676
 20
477.153181
 40
9.199997
100
AcDbArc
 50
277.294204
 51
322.704201
  0
ARC
  5
455
100
AcDbEntity
  8
M0
 62
     4
100
AcDbCircle
 10
197.14676
 20
477.153181
 40
9.199997
100
AcDbArc
 50
217.291976
 51
262.706671
  0
ARC
  5
456
100
AcDbEntity
  8
M0
 62
     4
100
AcDbCircle
 10
197.14676
 20
477.153181
 40
9.199997
100
AcDbArc
 50
97.296264
 51
142.705002
  0
ARC
  5
457
100
AcDbEntity
  8
M0
 62
     4
100
AcDbCircle
 10
197.14676
 20
477.153181
 40
9.199997
100
AcDbArc
 50
157.291007
 51
202.708921
  0
LINE
  5
458
100
AcDbEntity
  8
M0
 62
     4
100
AcDbLine
 10
197.146783
 20
467.353284
 11
188.659968
 21
472.253278
  0
LINE
  5
459
100
AcDbEntity
  8
M0
 62
     4
100
AcDbLine
 10
188.659968
 20
472.253278
 11
188.659968
 21
482.053297
  0
LINE
  5
45A
100
AcDbEntity
  8
M0
 62
     4
100
AcDbLine
 10
188.659968
 20
482.053297
 11
197.146783
 21
486.953291
  0
LINE
  5
45B
100
AcDbEntity
  8
M0
 62
     4
100
AcDbLine
 10
197.146783
 20
486.953291
 11
205.634088
 21
482.053266
  0
LINE
  5
45C
100
AcDbEntity
  8
M0
 62
     4
100
AcDbLine
 10
205.634088
 20
482.053266
 11
205.634088
 21
472.253278
  0
LINE
  5
45D
100
AcDbEntity
  8
M0
 62
     4
100
AcDbLine
 10
205.634088
 20
472.253278
 11
197.146783
 21
467.353284
  0
LINE
  5
45E
100
AcDbEntity
  8
M1
 62
     2
100
AcDbLine
 10
25.0
 20
25.0
 11
25.0
 21
712.499989
  0
LINE
  5
45F
100
AcDbEntity
  8
M1
 62
     2
100
AcDbLine
 10
25.0
 20
712.499989
 11
499.999993
 21
712.499989
  0
LINE
  5
460
100
AcDbEntity
  8
M1
 62
     2
100
AcDbLine
 10
499.999993
 20
712.499989
 11
499.999993
 21
25.0
  0
LINE
  5
461
100
AcDbEntity
  8
M1
 62
     2
100
AcDbLine
 10
499.999993
 20
25.0
 11
25.0
 21
25.0
  0
LINE
  5
462
100
AcDbEntity
  8
M1
 62
     2
100
AcDbLine
 10
499.999993
 20
49.999999
 11
249.999996
 21
49.999999
  0
LINE
  5
463
100
AcDbEntity
  8
M1
 62
     2
100
AcDbLine
 10
499.999993
 20
74.999999
 11
249.999996
 21
74.999999
  0
LINE
  5
464
100
AcDbEntity
  8
M1
 62
     2
100
AcDbLine
 10
499.999993
 20
99.999999
 11
249.999996
 21
99.999999
  0
LINE
  5
465
100
AcDbEntity
  8
M1
 62
     2
100
AcDbLine
 10
249.999996
 20
25.0
 11
249.999996
 21
99.999999
  0
TEXT
  5
466
100
AcDbEntity
  8
M1
 62
     2
100
AcDbText
 10
256.249996
 20
31.25
 40
12.5
  1
適　用；
  7
STANDARD
100
AcDbText
  0
TEXT
  5
467
100
AcDbEntity
  8
M1
 62
     2
100
AcDbText
 10
256.249996
 20
81.249999
 40
12.5
  1
登録名：
  7
STANDARD
100
AcDbText
  0
TEXT
  5
468
100
AcDbEntity
  8
M1
 62
     2
100
AcDbText
 10
316.249995
 20
81.249999
 40
12.5
  1
ＤＭＴＲ２５０Ｂ１ＥＲ００
 41
0.5
  7
STANDARD
100
AcDbText
  0
TEXT
  5
469
100
AcDbEntity
  8
M1
 62
     2
100
AcDbText
 10
256.249996
 20
56.249999
 40
12.5
  1
形　式；
  7
STANDARD
100
AcDbText
  0
TEXT
  5
46A
100
AcDbEntity
  8
M1
 62
     2
100
AcDbText
 10
316.249995
 20
56.249999
 40
12.5
  1
ＴＲ２５０Ｂ－１Ｅ，ＴＲ２５０Ｂ－２Ｅ，ＴＲ２５０Ｂ－１ＥＳ
 41
0.25
  7
STANDARD
100
AcDbText
  0
LINE
  5
46B
100
AcDbEntity
  8
DN0
100
AcDbLine
 10
104.65288
 20
333.932833
 11
230.377881
 21
333.932833
  0
TEXT
  5
46C
100
AcDbEntity
  8
DN0
100
AcDbText
 10
106.057047
 20
335.182833
 40
12.5
  1
単独使用できません。
 41
0.833333
  7
STANDARD
100
AcDbText
  0
TEXT
  5
46D
100
AcDbEntity
  8
DN0
100
AcDbText
 10
107.529108
 20
316.641498
 40
7.875
  1
電磁接触器Ｈ８Ｃ，Ｈ１０Ｃ，
 41
0.833333
  7
STANDARD
100
AcDbText
  0
TEXT
  5
46E
100
AcDbEntity
  8
DN0
100
AcDbText
 10
107.529108
 20
305.26649
 40
7.875
  1
Ｈ１１，Ｈ１２，Ｈ１０Ｂ－Ｒ
 41
0.833333
  7
STANDARD
100
AcDbText
  0
TEXT
  5
46F
100
AcDbEntity
  8
DN0
100
AcDbText
 10
107.529108
 20
293.891483
 40
7.875
  1
と組み合わせ専用品です。
 41
0.833333
  7
STANDARD
100
AcDbText
  0
ENDSEC
  0
SECTION
  2
OBJECTS
  0
DICTIONARY
  5
C
100
AcDbDictionary
  3
ACAD_GROUP
350
D
  3
ACAD_MLINESTYLE
350
E
  0
DICTIONARY
  5
D
102
{ACAD_REACTORS
330
C
102
}
100
AcDbDictionary
  0
DICTIONARY
  5
E
102
{ACAD_REACTORS
330
C
102
}
100
AcDbDictionary
  3
STANDARD
350
13
  0
MLINESTYLE
  5
13
102
{ACAD_REACTORS
330
E
102
}
100
AcDbMlineStyle
  2
STANDARD
 70
     0
  3

 62
     0
 51
90.0
 52
90.0
 71
     2
 49
0.5
 62
   256
  6
BYLAYER
 49
-0.5
 62
   256
  6
BYLAYER
  0
ENDSEC
  0
EOF
