  0
SECTION
  2
HEADER
  9
$ACADVER
  1
AC1014
  9
$INSBASE
 10
0.000000
 20
0.000000
 30
0.0
  9
$VIEWCTR
 10
7.531722
 20
4.5
  9
$VIEWSIZE
 40
9.0
  9
$SNAPMODE
 70
     0
  9
$SNAPUNIT
 10
1.0
 20
1.0
  9
$SNAPBASE
 10
0.0
 20
0.0
  9
$SNAPANG
 50
0.0
  9
$SNAPSTYLE
 70
     0
  9
$SNAPISOPAIR
 70
     0
  9
$GRIDMODE
 70
     0
  9
$GRIDUNIT
 10
0.0
 20
0.0
  9
$ORTHOMODE
 70
     0
  9
$REGENMODE
 70
     1
  9
$FILLMODE
 70
     1
  9
$QTEXTMODE
 70
     0
  9
$DRAGMODE
 70
     2
  9
$LTSCALE
  40
     1.000000
  9
$OSMODE
 70
     0
  9
$ATTMODE
 70
     1
  9
$TEXTSIZE
 40
0.2
  9
$TRACEWID
 40
0.05
  9
$TEXTSTYLE
  7
STANDARD
  9
$CELTYPE
  6
BYLAYER
  9
$CECOLOR
 62
   256
  9
$DIMSCALE
 40
1.0
  9
$DIMASZ
 40
0.18
  9
$DIMEXO
 40
0.0625
  9
$DIMDLI
 40
0.38
  9
$DIMRND
 40
0.0
  9
$DIMDLE
 40
0.0
  9
$DIMEXE
 40
0.18
  9
$DIMTP
 40
0.0
  9
$DIMTM
 40
0.0
  9
$DIMTXT
 40
0.18
  9
$DIMCEN
 40
0.09
  9
$DIMTSZ
 40
0.0
  9
$DIMTOL
 70
     0
  9
$DIMLIM
 70
     0
  9
$DIMTIH
 70
     1
  9
$DIMTOH
 70
     1
  9
$DIMSE1
 70
     0
  9
$DIMSE2
 70
     0
  9
$DIMTAD
 70
     0
  9
$DIMZIN
 70
     0
  9
$DIMBLK
  1

  9
$LUNITS
 70
     2
  9
$LUPREC
 70
     4
  9
$AXISMODE
 70
     0
  9
$AXISUNIT
 10
0.0
 20
0.0
  9
$SKETCHINC
 40
0.1
  9
$FILLETRAD
 40
0.0
  9
$AUNITS
 70
     0
  9
$AUPREC
 70
     0
  9
$MENU
  1
ACAD
  9
$ELEVATION
 40
0.0
  9
$THICKNESS
 40
0.0
  9
$VIEWDIR
 10
0.0
 20
0.0
 30
1.0
  9
$LIMCHECK
 70
     0
  9
$BLIPMODE
 70
     1
  9
$CHAMFERA
 40
0.0
  9
$CHAMFERB
 40
0.0
  9
$FASTZOOM
 70
     1
  9
$SKPOLY
 70
     0
  9
$TDCREATE
 40
0000000.0000000000
  9
$TDUPDATE
 40
0000000.0000000000
  9
$TDINDWG
 40
0.0000000000
  9
$TDUSRTIMER
 40
0.0000000000
  9
$USRTIMER
 70
     1
  9
$ANGBASE
 50
0.0
  9
$ANGDIR
 70
     0
  9
$PDMODE
 70
     0
  9
$PDSIZE
 40
0.0
  9
$PLINEWID
 40
0.0
  9
$COORDS
 70
     0
  9
$USERI1
 70
     0
  9
$USERI2
 70
     0
  9
$USERI3
 70
     0
  9
$USERI4
 70
     0
  9
$USERI5
 70
     0
  9
$USERR1
 40
0.0
  9
$USERR2
 40
0.0
  9
$USERR3
 40
0.0
  9
$USERR4
 40
0.0
  9
$USERR5
 40
0.0
  9
$CLAYER
  8
M0
  9
$EXTMIN
 10
10.0
 20
10.0
  9
$EXTMAX
 10
200.0
 20
285.0
  9
$LIMMIN
 10
0.0
 20
0.0
  9
$LIMMAX
 10
210.0
 20
297.0
  9
$HANDSEED
  5
2EB
  0
ENDSEC
  0
SECTION
  2
CLASSES
  0
ENDSEC
  0
SECTION
  2
TABLES
  0
TABLE
  2
VPORT
  5
8
100
AcDbSymbolTable
 70
     2
  0
VPORT
  5
14
100
AcDbSymbolTableRecord
100
AcDbViewportTableRecord
  2
*ACTIVE
 70
     0
 10
0.0
 20
0.0
 11
1.0
 21
1.0
 12
484.0
 22
297.0
 13
0.0
 23
0.0
 14
1.0
 24
1.0
 15
0.0
 25
0.0
 16
0.0
 26
0.0
 36
1.0
 17
0.0
 27
0.0
 37
0.0
 40
594.0
 41
2.0
 42
50.0
 43
0.0
 44
0.0
 50
0.0
 51
0.0
 71
     0
 72
   100
 73
     1
 74
     1
 75
     0
 76
     0
 77
     0
 78
     0
  0
ENDTAB
  0
TABLE
  2
LTYPE
  5
5
100
AcDbSymbolTable
 70
     5
  0
LTYPE
  5
15
100
AcDbSymbolTableRecord
100
AcDbLinetypeTableRecord
  2
BYBLOCK
 70
     0
  3

 72
    65
 73
     0
 40
0.0
  0
LTYPE
  5
16
100
AcDbSymbolTableRecord
100
AcDbLinetypeTableRecord
  2
BYLAYER
 70
     0
  3

 72
    65
 73
     0
 40
0.0
  0
LTYPE
  5
17
100
AcDbSymbolTableRecord
100
AcDbLinetypeTableRecord
  2
CONTINUOUS
 70
    64
  3
Solid line
 72
    65
 73
     0
 40
0.0
  0
LTYPE
  5
18
100
AcDbSymbolTableRecord
100
AcDbLinetypeTableRecord
  2
DASHED
 70
    64
  3
__ __ __ __ __ __ __ __ __ __ __ __ __ __ __ __
 72
    65
 73
     2
 40
0.75
 49
0.5
 74
     0
 49
-0.25
 74
     0
  0
LTYPE
  5
19
100
AcDbSymbolTableRecord
100
AcDbLinetypeTableRecord
  2
DASHDOT
 70
    64
  3
__ . __ . __ . __ . __ . __ . __ . __ . __ . __
 72
    65
 73
     4
 40
1.0
 49
0.5
 74
     0
 49
-0.25
 74
     0
 49
0.0
 74
     0
 49
-0.25
 74
     0
  0
LTYPE
  5
1A
100
AcDbSymbolTableRecord
100
AcDbLinetypeTableRecord
  2
DIVIDE
 70
    64
  3
____ . . ____ . . ____ . . ____ . . ____ . . __
 72
    65
 73
     6
 40
1.25
 49
0.5
 74
     0
 49
-0.25
 74
     0
 49
0.0
 74
     0
 49
-0.25
 74
     0
 49
0.0
 74
     0
 49
-0.25
 74
     0
  0
LTYPE
  5
1B
100
AcDbSymbolTableRecord
100
AcDbLinetypeTableRecord
  2
DOT
 70
    64
  3
. . . . . . . . . . . . . . . . . . . . . . . .
 72
    65
 73
     2
 40
0.25
 49
0.0
 74
     0
 49
-0.25
 74
     0
  0
ENDTAB
  0
TABLE
  2
LAYER
  5
2
100
AcDbSymbolTable
 70
   102
  0
LAYER
  5
F
100
AcDbSymbolTableRecord
100
AcDbLayerTableRecord
  2
0
 70
     0
 62
     7
  6
CONTINUOUS
  0
LAYER
  5
1C
100
AcDbSymbolTableRecord
100
AcDbLayerTableRecord
  2
DEFPOINTS
 70
     0
 62
     7
  6
CONTINUOUS
  0
LAYER
  5
1D
100
AcDbSymbolTableRecord
100
AcDbLayerTableRecord
  2
M0
 70
     0
 62
     3
  6
CONTINUOUS
  0
LAYER
  5
1E
100
AcDbSymbolTableRecord
100
AcDbLayerTableRecord
  2
M1
 70
     0
 62
     3
  6
CONTINUOUS
  0
LAYER
  5
1F
100
AcDbSymbolTableRecord
100
AcDbLayerTableRecord
  2
DD0
 70
     0
 62
     4
  6
CONTINUOUS
  0
LAYER
  5
20
100
AcDbSymbolTableRecord
100
AcDbLayerTableRecord
  2
DN0
 70
     0
 62
     2
  6
CONTINUOUS
  0
ENDTAB
  0
TABLE
  2
STYLE
  5
3
100
AcDbSymbolTable
 70
     2
  0
STYLE
  5
10
100
AcDbSymbolTableRecord
100
AcDbTextStyleTableRecord
  2
STANDARD
 70
     0
 40
0.0
 41
1.0
 50
0.0
 71
     0
 42
0.2
  3
txt
  4
BIGFONT
  0
ENDTAB
  0
TABLE
  2
VIEW
  5
6
100
AcDbSymbolTable
 70
     0
  0
ENDTAB
  0
TABLE
  2
UCS
  5
7
100
AcDbSymbolTable
 70
     0
  0
ENDTAB
  0
TABLE
  2
APPID
  5
9
100
AcDbSymbolTable
 70
     1
  0
APPID
  5
11
100
AcDbSymbolTableRecord
100
AcDbRegAppTableRecord
  2
ACAD
 70
     0
  0
ENDTAB
  0
TABLE
  2
DIMSTYLE
  5
A
100
AcDbSymbolTable
 70
     2
  0
DIMSTYLE
105
27
100
AcDbSymbolTableRecord
100
AcDbDimStyleTableRecord
  2
STANDARD
 70
     0
  3

  4

  5

  6
_OPEN
  7
_OPEN
 40
1.0
 41
3.0
 42
1.0
 43
8.0
 44
1.0
 45
0.0
 46
0.0
 47
0.0
 48
0.0
140
3.15
141
0.09
142
0.0
143
0.03937
144
1.0
145
0.0
146
1.0
147
0.6
 71
     0
 72
     0
 73
     1
 74
     1
 75
     0
 76
     0
 77
     3
 78
     8
170
     0
171
     2
172
     0
173
     1
174
     0
175
     0
176
     0
177
     0
178
     0
270
     2
271
     2
272
     4
273
     2
274
     2
340
10
275
     0
280
     0
281
     0
282
     0
283
     1
284
     0
285
     0
286
     0
287
     3
288
     0
  0
DIMSTYLE
105
28
100
AcDbSymbolTableRecord
100
AcDbDimStyleTableRecord
  2
LEADSTYL
 70
     0
  3

  4

  5

  6
_OPEN
  7
_OPEN
 40
1.0
 41
3.0
 42
0.0625
 43
0.38
 44
0.18
 45
0.0
 46
0.0
 47
0.0
 48
0.0
140
3.15
141
0.09
142
0.0
143
25.4
144
1.0
145
0.0
146
1.0
147
0.6
 71
     0
 72
     0
 73
     1
 74
     1
 75
     0
 76
     0
 77
     0
 78
     0
170
     0
171
     2
172
     0
173
     1
174
     0
175
     0
176
     0
177
     0
178
     0
270
     2
271
     4
272
     4
273
     2
274
     2
340
10
275
     0
280
     0
281
     0
282
     0
283
     1
284
     0
285
     0
286
     0
287
     3
288
     0
  0
ENDTAB
  0
TABLE
  2
BLOCK_RECORD
  5
1
100
AcDbSymbolTable
 70
    10
  0
BLOCK_RECORD
  5
21
100
AcDbSymbolTableRecord
100
AcDbBlockTableRecord
  2
*MODEL_SPACE
  0
BLOCK_RECORD
  5
24
100
AcDbSymbolTableRecord
100
AcDbBlockTableRecord
  2
*PAPER_SPACE
  0
BLOCK_RECORD
  5
29
100
AcDbSymbolTableRecord
100
AcDbBlockTableRecord
  2
_NONE
  0
BLOCK_RECORD
  5
2D
100
AcDbSymbolTableRecord
100
AcDbBlockTableRecord
  2
_OPEN
  0
BLOCK_RECORD
  5
33
100
AcDbSymbolTableRecord
100
AcDbBlockTableRecord
  2
_CLOSED
  0
BLOCK_RECORD
  5
3A
100
AcDbSymbolTableRecord
100
AcDbBlockTableRecord
  2
_ORIGIN
  0
BLOCK_RECORD
  5
3F
100
AcDbSymbolTableRecord
100
AcDbBlockTableRecord
  2
_DOT
  0
BLOCK_RECORD
  5
47
100
AcDbSymbolTableRecord
100
AcDbBlockTableRecord
  2
_OBLIQUE
  0
BLOCK_RECORD
  5
4B
100
AcDbSymbolTableRecord
100
AcDbBlockTableRecord
  2
DIMS0
  0
BLOCK_RECORD
  5
57
100
AcDbSymbolTableRecord
100
AcDbBlockTableRecord
  2
DIMS1
  0
BLOCK_RECORD
  5
63
100
AcDbSymbolTableRecord
100
AcDbBlockTableRecord
  2
DIMS2
  0
BLOCK_RECORD
  5
6F
100
AcDbSymbolTableRecord
100
AcDbBlockTableRecord
  2
DIMS3
  0
ENDTAB
  0
ENDSEC
  0
SECTION
  2
BLOCKS
  0
BLOCK
  5
22
100
AcDbEntity
  8
0
100
AcDbBlockBegin
  2
*MODEL_SPACE
 70
     0
 10
0.0
 20
0.0
 30
0.0
  3
*MODEL_SPACE
  1

  0
ENDBLK
  5
23
100
AcDbEntity
  8
0
100
AcDbBlockEnd
  0
BLOCK
  5
25
100
AcDbEntity
 67
     1
  8
0
100
AcDbBlockBegin
  2
*PAPER_SPACE
 70
     0
 10
0.0
 20
0.0
 30
0.0
  3
*PAPER_SPACE
  1

  0
ENDBLK
  5
26
100
AcDbEntity
 67
     1
  8
0
100
AcDbBlockEnd
  0
BLOCK
  5
2A
100
AcDbEntity
  8
0
100
AcDbBlockBegin
  2
_NONE
 70
     0
 10
0.0
 20
0.0
  0
CIRCLE
  5
2B
100
AcDbEntity
  8
0
 62
     0
100
AcDbCircle
 10
0.0
 20
0.0
 40
0.25
  0
ENDBLK
  5
2C
100
AcDbEntity
  8
0
100
AcDbBlockEnd
  0
BLOCK
  5
2E
100
AcDbEntity
  8
0
100
AcDbBlockBegin
  2
_OPEN
 70
     0
 10
0.0
 20
0.0
  0
LINE
  5
2F
100
AcDbEntity
  8
0
 62
     0
100
AcDbLine
 10
-0.965926
 20
0.258819
 11
0.0
 21
0.0
  0
LINE
  5
30
100
AcDbEntity
  8
0
 62
     0
100
AcDbLine
 10
0.0
 20
0.0
 11
-0.965926
 21
-0.258819
  0
LINE
  5
31
100
AcDbEntity
  8
0
 62
     0
100
AcDbLine
 10
0.0
 20
0.0
 11
-1.0
 21
0.0
  0
ENDBLK
  5
32
100
AcDbEntity
  8
0
100
AcDbBlockEnd
  0
BLOCK
  5
34
100
AcDbEntity
  8
0
100
AcDbBlockBegin
  2
_CLOSED
 70
     0
 10
0.0
 20
0.0
  0
LINE
  5
35
100
AcDbEntity
  8
0
 62
     0
100
AcDbLine
 10
-0.965926
 20
0.258819
 11
0.0
 21
0.0
  0
LINE
  5
36
100
AcDbEntity
  8
0
 62
     0
100
AcDbLine
 10
0.0
 20
0.0
 11
-0.965926
 21
-0.258819
  0
LINE
  5
37
100
AcDbEntity
  8
0
 62
     0
100
AcDbLine
 10
-0.965926
 20
0.258819
 11
-0.965926
 21
-0.258819
  0
LINE
  5
38
100
AcDbEntity
  8
0
 62
     0
100
AcDbLine
 10
0.0
 20
0.0
 11
-1.0
 21
0.0
  0
ENDBLK
  5
39
100
AcDbEntity
  8
0
100
AcDbBlockEnd
  0
BLOCK
  5
3B
100
AcDbEntity
  8
0
100
AcDbBlockBegin
  2
_ORIGIN
 70
     0
 10
0.0
 20
0.0
  0
CIRCLE
  5
3C
100
AcDbEntity
  8
0
 62
     0
100
AcDbCircle
 10
0.0
 20
0.0
 40
0.5
  0
LINE
  5
3D
100
AcDbEntity
  8
0
 62
     0
100
AcDbLine
 10
0.0
 20
0.0
 11
-1.0
 21
0.0
  0
ENDBLK
  5
3E
100
AcDbEntity
  8
0
100
AcDbBlockEnd
  0
BLOCK
  5
40
100
AcDbEntity
  8
0
100
AcDbBlockBegin
  2
_DOT
 70
     0
 10
0.0
 20
0.0
  0
POLYLINE
  5
41
100
AcDbEntity
  8
0
 62
     0
100
AcDb2dPolyline
 66
     1
 70
     1
 40
0.5
 41
0.5
  0
VERTEX
  5
42
100
AcDbEntity
  8
0
 62
     0
100
AcDbVertex
100
AcDb2dVertex
 10
-0.25
 20
0.0
 42
1.0
  0
VERTEX
  5
43
100
AcDbEntity
  8
0
 62
     0
100
AcDbVertex
100
AcDb2dVertex
 10
0.25
 20
0.0
 42
1.0
  0
SEQEND
  5
44
100
AcDbEntity
  8
0
 62
     0
  0
LINE
  5
45
100
AcDbEntity
  8
0
 62
     0
100
AcDbLine
 10
-0.5
 20
0.0
 11
-1.0
 21
0.0
  0
ENDBLK
  5
46
100
AcDbEntity
  8
0
100
AcDbBlockEnd
  0
BLOCK
  5
48
100
AcDbEntity
  8
0
100
AcDbBlockBegin
  2
_OBLIQUE
 70
     0
 10
0.0
 20
0.0
  0
LINE
  5
49
100
AcDbEntity
  8
0
 62
     0
100
AcDbLine
 10
-0.353553
 20
-0.353553
 11
0.353553
 21
0.353553
  0
ENDBLK
  5
4A
100
AcDbEntity
  8
0
100
AcDbBlockEnd
  0
BLOCK
  5
4C
100
AcDbEntity
  8
DD0
100
AcDbBlockBegin
  2
DIMS0
 70
     0
 10
0.0
 20
0.0
  0
LINE
  5
4D
100
AcDbEntity
  8
DD0
100
AcDbLine
 10
32.04538
 20
231.154831
 11
32.04538
 21
242.397964
  0
LINE
  5
4E
100
AcDbEntity
  8
DD0
100
AcDbLine
 10
94.545364
 20
229.855026
 11
94.545364
 21
242.397964
  0
LINE
  5
4F
100
AcDbEntity
  8
DD0
100
AcDbLine
 10
34.943157
 20
242.174422
 11
32.04538
 21
241.397964
  0
LINE
  5
50
100
AcDbEntity
  8
DD0
100
AcDbLine
 10
32.04538
 20
241.397964
 11
34.943157
 21
240.621507
  0
LINE
  5
51
100
AcDbEntity
  8
DD0
100
AcDbLine
 10
91.647587
 20
240.621507
 11
94.545364
 21
241.397964
  0
LINE
  5
52
100
AcDbEntity
  8
DD0
100
AcDbLine
 10
94.545364
 20
241.397964
 11
91.647587
 21
242.174422
  0
LINE
  5
53
100
AcDbEntity
  8
DD0
100
AcDbLine
 10
32.04538
 20
241.397964
 11
94.545364
 21
241.397964
  0
TEXT
  5
54
100
AcDbEntity
  8
DD0
100
AcDbText
 10
57.252874
 20
241.997971
 40
3.15
  1
６２．５
 41
0.833333
  7
STANDARD
100
AcDbText
  0
ENDBLK
  5
55
100
AcDbEntity
  8
DD0
100
AcDbBlockEnd
  0
BLOCK
  5
58
100
AcDbEntity
  8
DD0
100
AcDbBlockBegin
  2
DIMS1
 70
     0
 10
0.0
 20
0.0
  0
LINE
  5
59
100
AcDbEntity
  8
DD0
100
AcDbLine
 10
188.452393
 20
229.855148
 11
188.452393
 21
242.397964
  0
LINE
  5
5A
100
AcDbEntity
  8
DD0
100
AcDbLine
 10
114.952827
 20
230.856094
 11
114.952827
 21
242.397964
  0
LINE
  5
5B
100
AcDbEntity
  8
DD0
100
AcDbLine
 10
185.554615
 20
240.621507
 11
188.452393
 21
241.397964
  0
LINE
  5
5C
100
AcDbEntity
  8
DD0
100
AcDbLine
 10
188.452393
 20
241.397964
 11
185.554615
 21
242.174422
  0
LINE
  5
5D
100
AcDbEntity
  8
DD0
100
AcDbLine
 10
117.850605
 20
242.174422
 11
114.952827
 21
241.397964
  0
LINE
  5
5E
100
AcDbEntity
  8
DD0
100
AcDbLine
 10
114.952827
 20
241.397964
 11
117.850605
 21
240.621507
  0
LINE
  5
5F
100
AcDbEntity
  8
DD0
100
AcDbLine
 10
188.452393
 20
241.397964
 11
114.952827
 21
241.397964
  0
TEXT
  5
60
100
AcDbEntity
  8
DD0
100
AcDbText
 10
148.810114
 20
241.997971
 40
3.15
  1
７５
 41
0.833333
  7
STANDARD
100
AcDbText
  0
ENDBLK
  5
61
100
AcDbEntity
  8
DD0
100
AcDbBlockEnd
  0
BLOCK
  5
64
100
AcDbEntity
  8
DD0
100
AcDbBlockBegin
  2
DIMS2
 70
     0
 10
0.0
 20
0.0
  0
LINE
  5
65
100
AcDbEntity
  8
DD0
100
AcDbLine
 10
188.451935
 20
192.855011
 11
188.451935
 21
168.947998
  0
LINE
  5
66
100
AcDbEntity
  8
DD0
100
AcDbLine
 10
181.451736
 20
196.870224
 11
181.451736
 21
168.947998
  0
LINE
  5
67
100
AcDbEntity
  8
DD0
100
AcDbLine
 10
191.349712
 20
170.724455
 11
188.451935
 21
169.947998
  0
LINE
  5
68
100
AcDbEntity
  8
DD0
100
AcDbLine
 10
188.451935
 20
169.947998
 11
191.349712
 21
169.171541
  0
LINE
  5
69
100
AcDbEntity
  8
DD0
100
AcDbLine
 10
178.553959
 20
169.171541
 11
181.451736
 21
169.947998
  0
LINE
  5
6A
100
AcDbEntity
  8
DD0
100
AcDbLine
 10
181.451736
 20
169.947998
 11
178.553959
 21
170.724455
  0
LINE
  5
6B
100
AcDbEntity
  8
DD0
100
AcDbLine
 10
191.751935
 20
169.947998
 11
158.251738
 21
169.947998
  0
TEXT
  5
6C
100
AcDbEntity
  8
DD0
100
AcDbText
 10
159.059244
 20
170.548004
 40
3.15
  1
７（取付足）
 41
0.833333
  7
STANDARD
100
AcDbText
  0
ENDBLK
  5
6D
100
AcDbEntity
  8
DD0
100
AcDbBlockEnd
  0
BLOCK
  5
70
100
AcDbEntity
  8
DD0
100
AcDbBlockBegin
  2
DIMS3
 70
     0
 10
0.0
 20
0.0
  0
LINE
  5
71
100
AcDbEntity
  8
DD0
100
AcDbLine
 10
31.045382
 20
230.154831
 11
22.453836
 21
230.154831
  0
LINE
  5
72
100
AcDbEntity
  8
DD0
100
AcDbLine
 10
32.545307
 20
178.654602
 11
22.453836
 21
178.654602
  0
LINE
  5
73
100
AcDbEntity
  8
DD0
100
AcDbLine
 10
24.230294
 20
227.257053
 11
23.453836
 21
230.154831
  0
LINE
  5
74
100
AcDbEntity
  8
DD0
100
AcDbLine
 10
23.453836
 20
230.154831
 11
22.677379
 21
227.257053
  0
LINE
  5
75
100
AcDbEntity
  8
DD0
100
AcDbLine
 10
22.677379
 20
181.55238
 11
23.453836
 21
178.654602
  0
LINE
  5
76
100
AcDbEntity
  8
DD0
100
AcDbLine
 10
23.453836
 20
178.654602
 11
24.230294
 21
181.55238
  0
LINE
  5
77
100
AcDbEntity
  8
DD0
100
AcDbLine
 10
23.453836
 20
230.154831
 11
23.453836
 21
178.654602
  0
TEXT
  5
78
100
AcDbEntity
  8
DD0
100
AcDbText
 10
22.853836
 20
198.362222
 40
3.15
  1
５１．５
 50
90.000003
 41
0.833333
  7
STANDARD
100
AcDbText
  0
ENDBLK
  5
79
100
AcDbEntity
  8
DD0
100
AcDbBlockEnd
  0
ENDSEC
  0
SECTION
  2
ENTITIES
  0
INSERT
  5
56
100
AcDbEntity
  8
DD0
100
AcDbBlockReference
  2
DIMS0
 10
0.0
 20
0.0
  0
INSERT
  5
62
100
AcDbEntity
  8
DD0
100
AcDbBlockReference
  2
DIMS1
 10
0.0
 20
0.0
  0
INSERT
  5
6E
100
AcDbEntity
  8
DD0
100
AcDbBlockReference
  2
DIMS2
 10
0.0
 20
0.0
  0
INSERT
  5
7A
100
AcDbEntity
  8
DD0
100
AcDbBlockReference
  2
DIMS3
 10
0.0
 20
0.0
  0
LINE
  5
7B
100
AcDbEntity
  8
M0
  6
DASHED
100
AcDbLine
 10
118.952861
 20
222.055032
 11
118.952861
 21
208.655033
  0
LINE
  5
7C
100
AcDbEntity
  8
M0
  6
DASHED
100
AcDbLine
 10
118.952861
 20
208.655033
 11
125.65286
 21
208.655033
  0
LINE
  5
7D
100
AcDbEntity
  8
M0
  6
DASHED
100
AcDbLine
 10
125.65286
 20
208.655033
 11
125.65286
 21
222.055032
  0
LINE
  5
7E
100
AcDbEntity
  8
M0
  6
DASHED
100
AcDbLine
 10
125.65286
 20
222.055032
 11
118.952861
 21
222.055032
  0
LINE
  5
7F
100
AcDbEntity
  8
M0
100
AcDbLine
 10
78.404652
 20
228.005667
 11
78.404652
 21
228.005179
  0
LINE
  5
80
100
AcDbEntity
  8
M0
 62
     2
100
AcDbLine
 10
39.083333
 20
207.316123
 11
40.928181
 21
205.471289
  0
LINE
  5
81
100
AcDbEntity
  8
M0
 62
     2
100
AcDbLine
 10
41.055058
 20
208.073233
 11
38.479985
 21
205.49816
  0
LINE
  5
82
100
AcDbEntity
  8
M0
 62
     2
100
AcDbLine
 10
41.762166
 20
207.366126
 11
39.187092
 21
204.791053
  0
LINE
  5
83
100
AcDbEntity
  8
M0
 62
     2
100
AcDbLine
 10
44.1442
 20
202.555259
 11
44.1442
 21
210.155234
  0
LINE
  5
84
100
AcDbEntity
  8
M0
 62
     2
100
AcDbLine
 10
35.944203
 20
210.155249
 11
35.944203
 21
202.555274
  0
CIRCLE
  5
85
100
AcDbEntity
  8
M0
 62
     2
100
AcDbCircle
 10
40.044209
 20
206.355277
 40
3.499993
  0
ARC
  5
86
100
AcDbEntity
  8
M0
 62
     2
100
AcDbCircle
 10
43.1442
 20
202.555274
 40
1.0
100
AcDbArc
 50
270.0
 51
360.0
  0
ARC
  5
87
100
AcDbEntity
  8
M0
 62
     2
100
AcDbCircle
 10
43.1442
 20
210.155081
 40
1.0
100
AcDbArc
 50
0.0
 51
90.0
  0
ARC
  5
88
100
AcDbEntity
  8
M0
 62
     2
100
AcDbCircle
 10
36.944203
 20
210.155081
 40
1.0
100
AcDbArc
 50
90.0
 51
180.0
  0
ARC
  5
89
100
AcDbEntity
  8
M0
 62
     2
100
AcDbCircle
 10
36.944203
 20
202.555274
 40
1.0
100
AcDbArc
 50
179.999945
 51
270.0
  0
LINE
  5
8A
100
AcDbEntity
  8
M0
  6
DASHDOT
 62
     2
100
AcDbLine
 10
40.044194
 20
212.014701
 11
40.044209
 21
200.695838
  0
LINE
  5
8B
100
AcDbEntity
  8
M0
 62
     2
100
AcDbLine
 10
36.944203
 20
211.155265
 11
43.1442
 21
211.155265
  0
ARC
  5
8C
100
AcDbEntity
  8
M0
 62
     2
100
AcDbCircle
 10
36.944203
 20
217.055426
 40
1.0
100
AcDbArc
 50
180.0
 51
270.0
  0
LINE
  5
8D
100
AcDbEntity
  8
M0
 62
     2
100
AcDbLine
 10
35.944203
 20
217.055259
 11
35.944203
 21
224.655234
  0
ARC
  5
8E
100
AcDbEntity
  8
M0
 62
     2
100
AcDbCircle
 10
36.944203
 20
224.655234
 40
1.0
100
AcDbArc
 50
90.0
 51
180.0
  0
LINE
  5
8F
100
AcDbEntity
  8
M0
 62
     2
100
AcDbLine
 10
36.944203
 20
225.655234
 11
43.1442
 21
225.655234
  0
ARC
  5
90
100
AcDbEntity
  8
M0
 62
     2
100
AcDbCircle
 10
43.1442
 20
224.655234
 40
1.0
100
AcDbArc
 50
0.0
 51
90.0
  0
LINE
  5
91
100
AcDbEntity
  8
M0
 62
     2
100
AcDbLine
 10
44.1442
 20
224.655249
 11
44.1442
 21
217.055274
  0
ARC
  5
92
100
AcDbEntity
  8
M0
 62
     2
100
AcDbCircle
 10
43.1442
 20
217.055426
 40
1.0
100
AcDbArc
 50
-90.0
 51
0.0
  0
LINE
  5
93
100
AcDbEntity
  8
M0
 62
     2
100
AcDbLine
 10
36.944203
 20
216.055243
 11
43.1442
 21
216.055243
  0
ARC
  5
94
100
AcDbEntity
  8
M0
 62
     2
100
AcDbCircle
 10
68.144124
 20
224.655219
 40
1.0
100
AcDbArc
 50
0.0
 51
90.0
  0
LINE
  5
95
100
AcDbEntity
  8
M0
 62
     2
100
AcDbLine
 10
69.144124
 20
217.055228
 11
69.144124
 21
224.655204
  0
ARC
  5
96
100
AcDbEntity
  8
M0
 62
     2
100
AcDbCircle
 10
68.144124
 20
217.055411
 40
1.0
100
AcDbArc
 50
269.999126
 51
360.0
  0
LINE
  5
97
100
AcDbEntity
  8
M0
 62
     2
100
AcDbLine
 10
68.144124
 20
216.055228
 11
61.944127
 21
216.055228
  0
ARC
  5
98
100
AcDbEntity
  8
M0
 62
     2
100
AcDbCircle
 10
61.944127
 20
217.055411
 40
1.0
100
AcDbArc
 50
180.0
 51
269.999126
  0
LINE
  5
99
100
AcDbEntity
  8
M0
 62
     2
100
AcDbLine
 10
60.944127
 20
224.655234
 11
60.944127
 21
217.055259
  0
ARC
  5
9A
100
AcDbEntity
  8
M0
 62
     2
100
AcDbCircle
 10
61.944127
 20
224.655219
 40
1.0
100
AcDbArc
 50
90.0
 51
180.0
  0
LINE
  5
9B
100
AcDbEntity
  8
M0
 62
     2
100
AcDbLine
 10
68.144124
 20
225.655219
 11
61.944127
 21
225.655219
  0
LINE
  5
9C
100
AcDbEntity
  8
M0
 62
     2
100
AcDbLine
 10
51.583333
 20
207.316123
 11
53.428181
 21
205.471289
  0
LINE
  5
9D
100
AcDbEntity
  8
M0
 62
     2
100
AcDbLine
 10
53.555058
 20
208.073233
 11
50.979985
 21
205.49816
  0
LINE
  5
9E
100
AcDbEntity
  8
M0
 62
     2
100
AcDbLine
 10
54.262166
 20
207.366126
 11
51.687092
 21
204.791053
  0
LINE
  5
9F
100
AcDbEntity
  8
M0
 62
     2
100
AcDbLine
 10
49.444203
 20
201.555274
 11
55.6442
 21
201.555274
  0
LINE
  5
A0
100
AcDbEntity
  8
M0
 62
     2
100
AcDbLine
 10
56.6442
 20
202.555259
 11
56.6442
 21
210.155234
  0
LINE
  5
A1
100
AcDbEntity
  8
M0
 62
     2
100
AcDbLine
 10
48.444203
 20
210.155249
 11
48.444203
 21
202.555274
  0
CIRCLE
  5
A2
100
AcDbEntity
  8
M0
 62
     2
100
AcDbCircle
 10
52.544209
 20
206.355277
 40
3.499993
  0
ARC
  5
A3
100
AcDbEntity
  8
M0
 62
     2
100
AcDbCircle
 10
55.6442
 20
202.555274
 40
1.0
100
AcDbArc
 50
270.0
 51
360.0
  0
ARC
  5
A4
100
AcDbEntity
  8
M0
 62
     2
100
AcDbCircle
 10
55.6442
 20
210.155081
 40
1.0
100
AcDbArc
 50
0.0
 51
90.0
  0
ARC
  5
A5
100
AcDbEntity
  8
M0
 62
     2
100
AcDbCircle
 10
49.444203
 20
210.155081
 40
1.0
100
AcDbArc
 50
90.0
 51
180.0
  0
ARC
  5
A6
100
AcDbEntity
  8
M0
 62
     2
100
AcDbCircle
 10
49.444203
 20
202.555274
 40
1.0
100
AcDbArc
 50
179.999945
 51
270.0
  0
LINE
  5
A7
100
AcDbEntity
  8
M0
  6
DASHDOT
 62
     2
100
AcDbLine
 10
52.544194
 20
212.014701
 11
52.544209
 21
200.695838
  0
LINE
  5
A8
100
AcDbEntity
  8
M0
 62
     2
100
AcDbLine
 10
49.444203
 20
211.155265
 11
55.6442
 21
211.155265
  0
ARC
  5
A9
100
AcDbEntity
  8
M0
 62
     2
100
AcDbCircle
 10
49.444203
 20
217.055426
 40
1.0
100
AcDbArc
 50
180.0
 51
270.0
  0
LINE
  5
AA
100
AcDbEntity
  8
M0
 62
     2
100
AcDbLine
 10
48.444203
 20
217.055259
 11
48.444203
 21
224.655234
  0
ARC
  5
AB
100
AcDbEntity
  8
M0
 62
     2
100
AcDbCircle
 10
49.444203
 20
224.655234
 40
1.0
100
AcDbArc
 50
90.0
 51
180.0
  0
LINE
  5
AC
100
AcDbEntity
  8
M0
 62
     2
100
AcDbLine
 10
49.444203
 20
225.655234
 11
55.6442
 21
225.655234
  0
ARC
  5
AD
100
AcDbEntity
  8
M0
 62
     2
100
AcDbCircle
 10
55.6442
 20
224.655234
 40
1.0
100
AcDbArc
 50
0.0
 51
90.0
  0
LINE
  5
AE
100
AcDbEntity
  8
M0
 62
     2
100
AcDbLine
 10
56.6442
 20
224.655249
 11
56.6442
 21
217.055274
  0
ARC
  5
AF
100
AcDbEntity
  8
M0
 62
     2
100
AcDbCircle
 10
55.6442
 20
217.055426
 40
1.0
100
AcDbArc
 50
-90.0
 51
0.0
  0
LINE
  5
B0
100
AcDbEntity
  8
M0
 62
     2
100
AcDbLine
 10
49.444203
 20
216.055243
 11
55.6442
 21
216.055243
  0
LINE
  5
B1
100
AcDbEntity
  8
M0
 62
     2
100
AcDbLine
 10
39.083333
 20
221.816123
 11
40.928181
 21
219.971289
  0
LINE
  5
B2
100
AcDbEntity
  8
M0
 62
     2
100
AcDbLine
 10
41.055058
 20
222.573233
 11
38.479985
 21
219.99816
  0
LINE
  5
B3
100
AcDbEntity
  8
M0
 62
     2
100
AcDbLine
 10
41.762166
 20
221.866126
 11
39.187092
 21
219.291053
  0
CIRCLE
  5
B4
100
AcDbEntity
  8
M0
 62
     2
100
AcDbCircle
 10
40.044209
 20
220.855277
 40
3.499993
  0
LINE
  5
B5
100
AcDbEntity
  8
M0
  6
DASHDOT
 62
     2
100
AcDbLine
 10
45.703633
 20
220.855277
 11
34.38477
 21
220.855277
  0
LINE
  5
B6
100
AcDbEntity
  8
M0
  6
DASHDOT
 62
     2
100
AcDbLine
 10
40.044194
 20
226.514701
 11
40.044209
 21
215.195838
  0
CIRCLE
  5
B7
100
AcDbEntity
  8
M0
 62
     6
100
AcDbCircle
 10
76.544194
 20
203.355033
 40
2.999997
  0
LINE
  5
B8
100
AcDbEntity
  8
M0
 62
     6
100
AcDbLine
 10
73.323983
 20
206.45506
 11
72.769047
 21
204.655081
  0
LINE
  5
B9
100
AcDbEntity
  8
M0
 62
     6
100
AcDbLine
 10
73.58521
 20
199.407782
 11
72.769047
 21
202.055106
  0
LINE
  5
BA
100
AcDbEntity
  8
M0
 62
     6
100
AcDbLine
 10
79.50269
 20
199.407767
 11
80.319096
 21
202.055106
  0
LINE
  5
BB
100
AcDbEntity
  8
M0
 62
     6
100
AcDbLine
 10
74.063237
 20
199.055106
 11
79.024907
 21
199.055106
  0
LINE
  5
BC
100
AcDbEntity
  8
M0
 62
     6
100
AcDbLine
 10
80.319096
 20
202.055106
 11
80.319096
 21
205.15506
  0
LINE
  5
BD
100
AcDbEntity
  8
M0
 62
     6
100
AcDbLine
 10
72.769047
 20
204.655081
 11
72.769047
 21
202.055106
  0
LINE
  5
BE
100
AcDbEntity
  8
M0
 62
     6
100
AcDbLine
 10
78.13477
 20
201.764212
 11
74.953129
 21
204.945975
  0
LINE
  5
BF
100
AcDbEntity
  8
M0
 62
     6
100
AcDbLine
 10
76.897465
 20
204.769217
 11
75.129887
 21
203.001517
  0
LINE
  5
C0
100
AcDbEntity
  8
M0
 62
     6
100
AcDbLine
 10
77.958012
 20
203.708548
 11
76.190434
 21
201.94097
  0
ARC
  5
C1
100
AcDbEntity
  8
M0
 62
     6
100
AcDbCircle
 10
74.063237
 20
199.555106
 40
0.5
100
AcDbArc
 50
197.128737
 51
270.0
  0
ARC
  5
C2
100
AcDbEntity
  8
M0
 62
     6
100
AcDbCircle
 10
79.024907
 20
199.555106
 40
0.5
100
AcDbArc
 50
270.0
 51
342.861308
  0
LINE
  5
C3
100
AcDbEntity
  8
M0
  6
DASHDOT
 62
     6
100
AcDbLine
 10
80.044194
 20
203.355033
 11
73.044194
 21
203.355033
  0
LINE
  5
C4
100
AcDbEntity
  8
M0
  6
DASHDOT
 62
     6
100
AcDbLine
 10
76.544179
 20
206.855033
 11
76.544194
 21
199.855033
  0
CIRCLE
  5
C5
100
AcDbEntity
  8
M0
 62
     6
100
AcDbCircle
 10
87.544194
 20
203.355033
 40
2.999997
  0
LINE
  5
C6
100
AcDbEntity
  8
M0
 62
     6
100
AcDbLine
 10
84.58521
 20
199.407782
 11
83.769047
 21
202.055106
  0
LINE
  5
C7
100
AcDbEntity
  8
M0
 62
     6
100
AcDbLine
 10
90.763999
 20
206.45506
 11
91.319096
 21
204.655081
  0
LINE
  5
C8
100
AcDbEntity
  8
M0
 62
     6
100
AcDbLine
 10
90.50269
 20
199.407767
 11
91.319096
 21
202.055106
  0
LINE
  5
C9
100
AcDbEntity
  8
M0
 62
     6
100
AcDbLine
 10
85.063237
 20
199.055106
 11
90.024907
 21
199.055106
  0
LINE
  5
CA
100
AcDbEntity
  8
M0
 62
     6
100
AcDbLine
 10
91.319096
 20
202.055106
 11
91.319096
 21
204.655081
  0
LINE
  5
CB
100
AcDbEntity
  8
M0
 62
     6
100
AcDbLine
 10
83.769047
 20
205.15506
 11
83.769047
 21
202.055106
  0
LINE
  5
CC
100
AcDbEntity
  8
M0
 62
     6
100
AcDbLine
 10
89.13477
 20
201.764212
 11
85.953129
 21
204.945975
  0
LINE
  5
CD
100
AcDbEntity
  8
M0
 62
     6
100
AcDbLine
 10
87.897465
 20
204.769217
 11
86.129887
 21
203.001517
  0
LINE
  5
CE
100
AcDbEntity
  8
M0
 62
     6
100
AcDbLine
 10
88.958012
 20
203.708548
 11
87.190434
 21
201.94097
  0
ARC
  5
CF
100
AcDbEntity
  8
M0
 62
     6
100
AcDbCircle
 10
85.063237
 20
199.555106
 40
0.5
100
AcDbArc
 50
197.128737
 51
270.0
  0
ARC
  5
D0
100
AcDbEntity
  8
M0
 62
     6
100
AcDbCircle
 10
90.024907
 20
199.555106
 40
0.5
100
AcDbArc
 50
270.0
 51
342.861308
  0
LINE
  5
D1
100
AcDbEntity
  8
M0
  6
DASHDOT
 62
     6
100
AcDbLine
 10
91.044194
 20
203.355033
 11
84.044194
 21
203.355033
  0
LINE
  5
D2
100
AcDbEntity
  8
M0
  6
DASHDOT
 62
     6
100
AcDbLine
 10
87.544179
 20
206.855033
 11
87.544194
 21
199.855033
  0
LINE
  5
D3
100
AcDbEntity
  8
M0
  6
DASHDOT
 62
     4
100
AcDbLine
 10
72.703648
 20
201.355277
 11
61.384785
 21
201.355277
  0
LINE
  5
D4
100
AcDbEntity
  8
M0
 62
     2
100
AcDbLine
 10
51.583317
 20
221.816123
 11
53.428166
 21
219.971289
  0
LINE
  5
D5
100
AcDbEntity
  8
M0
 62
     2
100
AcDbLine
 10
53.555043
 20
222.573233
 11
50.97997
 21
219.99816
  0
LINE
  5
D6
100
AcDbEntity
  8
M0
 62
     2
100
AcDbLine
 10
54.26215
 20
221.866126
 11
51.687077
 21
219.291053
  0
CIRCLE
  5
D7
100
AcDbEntity
  8
M0
 62
     2
100
AcDbCircle
 10
52.544194
 20
220.855277
 40
3.499993
  0
LINE
  5
D8
100
AcDbEntity
  8
M0
  6
DASHDOT
 62
     2
100
AcDbLine
 10
58.203618
 20
220.855277
 11
46.884755
 21
220.855277
  0
LINE
  5
D9
100
AcDbEntity
  8
M0
  6
DASHDOT
 62
     2
100
AcDbLine
 10
52.544179
 20
226.514701
 11
52.544194
 21
215.195838
  0
LINE
  5
DA
100
AcDbEntity
  8
M0
 62
     2
100
AcDbLine
 10
64.083302
 20
207.316123
 11
65.928151
 21
205.471289
  0
LINE
  5
DB
100
AcDbEntity
  8
M0
 62
     2
100
AcDbLine
 10
66.055028
 20
208.073233
 11
63.479954
 21
205.49816
  0
LINE
  5
DC
100
AcDbEntity
  8
M0
 62
     2
100
AcDbLine
 10
66.762135
 20
207.366126
 11
64.187062
 21
204.791053
  0
LINE
  5
DD
100
AcDbEntity
  8
M0
 62
     2
100
AcDbLine
 10
61.944173
 20
201.555274
 11
68.14417
 21
201.555274
  0
LINE
  5
DE
100
AcDbEntity
  8
M0
 62
     2
100
AcDbLine
 10
69.14417
 20
202.555259
 11
69.14417
 21
210.155234
  0
LINE
  5
DF
100
AcDbEntity
  8
M0
 62
     2
100
AcDbLine
 10
60.944173
 20
210.155249
 11
60.944173
 21
202.555274
  0
CIRCLE
  5
E0
100
AcDbEntity
  8
M0
 62
     2
100
AcDbCircle
 10
65.044179
 20
206.355277
 40
3.499993
  0
ARC
  5
E1
100
AcDbEntity
  8
M0
 62
     2
100
AcDbCircle
 10
68.14417
 20
202.555274
 40
1.0
100
AcDbArc
 50
270.0
 51
360.0
  0
ARC
  5
E2
100
AcDbEntity
  8
M0
 62
     2
100
AcDbCircle
 10
68.14417
 20
210.155081
 40
1.0
100
AcDbArc
 50
0.0
 51
90.0
  0
ARC
  5
E3
100
AcDbEntity
  8
M0
 62
     2
100
AcDbCircle
 10
61.944173
 20
210.155081
 40
1.0
100
AcDbArc
 50
90.0
 51
180.0
  0
ARC
  5
E4
100
AcDbEntity
  8
M0
 62
     2
100
AcDbCircle
 10
61.944173
 20
202.555274
 40
1.0
100
AcDbArc
 50
179.999945
 51
270.0
  0
LINE
  5
E5
100
AcDbEntity
  8
M0
  6
DASHDOT
 62
     2
100
AcDbLine
 10
65.044163
 20
212.014701
 11
65.044179
 21
200.695838
  0
LINE
  5
E6
100
AcDbEntity
  8
M0
 62
     2
100
AcDbLine
 10
61.944173
 20
211.155265
 11
68.14417
 21
211.155265
  0
LINE
  5
E7
100
AcDbEntity
  8
M0
 62
     2
100
AcDbLine
 10
64.083287
 20
221.816123
 11
65.928136
 21
219.971289
  0
LINE
  5
E8
100
AcDbEntity
  8
M0
 62
     2
100
AcDbLine
 10
66.055012
 20
222.573233
 11
63.479939
 21
219.99816
  0
LINE
  5
E9
100
AcDbEntity
  8
M0
 62
     2
100
AcDbLine
 10
66.76212
 20
221.866126
 11
64.187047
 21
219.291053
  0
CIRCLE
  5
EA
100
AcDbEntity
  8
M0
 62
     2
100
AcDbCircle
 10
65.044163
 20
220.855277
 40
3.499993
  0
LINE
  5
EB
100
AcDbEntity
  8
M0
  6
DASHDOT
 62
     2
100
AcDbLine
 10
70.703587
 20
220.855277
 11
59.384724
 21
220.855277
  0
LINE
  5
EC
100
AcDbEntity
  8
M0
  6
DASHDOT
 62
     2
100
AcDbLine
 10
65.044148
 20
226.514701
 11
65.044163
 21
215.195838
  0
LINE
  5
ED
100
AcDbEntity
  8
M0
100
AcDbLine
 10
82.894276
 20
225.205277
 11
86.894276
 21
225.205277
  0
LINE
  5
EE
100
AcDbEntity
  8
M0
100
AcDbLine
 10
86.894276
 20
225.205277
 11
86.894276
 21
228.005276
  0
LINE
  5
EF
100
AcDbEntity
  8
M0
100
AcDbLine
 10
86.894276
 20
228.005276
 11
82.894276
 21
228.005276
  0
LINE
  5
F0
100
AcDbEntity
  8
M0
100
AcDbLine
 10
82.894276
 20
228.005276
 11
82.894276
 21
225.205277
  0
LINE
  5
F1
100
AcDbEntity
  8
M0
100
AcDbLine
 10
83.303175
 20
215.270803
 11
83.303175
 21
217.659963
  0
LINE
  5
F2
100
AcDbEntity
  8
M0
100
AcDbLine
 10
83.30319
 20
217.660207
 11
81.600446
 21
217.660207
  0
LINE
  5
F3
100
AcDbEntity
  8
M0
100
AcDbLine
 10
81.600446
 20
217.659963
 11
81.600446
 21
215.271291
  0
LINE
  5
F4
100
AcDbEntity
  8
M0
100
AcDbLine
 10
82.451811
 20
212.881643
 11
80.797559
 21
215.27178
  0
LINE
  5
F5
100
AcDbEntity
  8
M0
100
AcDbLine
 10
82.451811
 20
212.881643
 11
84.106077
 21
215.271047
  0
LINE
  5
F6
100
AcDbEntity
  8
M0
100
AcDbLine
 10
80.797559
 20
215.27178
 11
81.600431
 21
215.271536
  0
LINE
  5
F7
100
AcDbEntity
  8
M0
100
AcDbLine
 10
84.106077
 20
215.271047
 11
83.303175
 21
215.271047
  0
LINE
  5
F8
100
AcDbEntity
  8
M0
 62
     4
100
AcDbLine
 10
188.452797
 20
228.855153
 11
186.951726
 21
228.854775
  0
LINE
  5
F9
100
AcDbEntity
  8
M0
 62
     4
100
AcDbLine
 10
114.952825
 20
229.856087
 11
114.952637
 21
213.856011
  0
LINE
  5
FA
100
AcDbEntity
  8
M0
 62
     4
100
AcDbLine
 10
132.87164
 20
194.355859
 11
156.488262
 21
194.355559
  0
ARC
  5
FB
100
AcDbEntity
  8
M0
 62
     4
100
AcDbCircle
 10
116.95284
 20
229.856061
 40
2.0
100
AcDbArc
 50
89.999272
 51
179.999272
  0
LINE
  5
FC
100
AcDbEntity
  8
M0
 62
     4
100
AcDbLine
 10
117.952606
 20
207.856049
 11
117.952648
 21
211.106049
  0
LINE
  5
FD
100
AcDbEntity
  8
M0
 62
     4
100
AcDbLine
 10
139.752853
 20
231.855772
 11
116.952866
 21
231.856061
  0
LINE
  5
FE
100
AcDbEntity
  8
M0
 62
     4
100
AcDbLine
 10
130.27359
 20
195.855892
 11
124.969834
 21
195.85596
  0
LINE
  5
FF
100
AcDbEntity
  8
M0
 62
     4
100
AcDbLine
 10
119.774475
 20
206.654778
 11
122.072081
 21
198.079538
  0
ARC
  5
100
100
AcDbEntity
  8
M0
 62
     4
100
AcDbCircle
 10
124.969872
 20
198.85596
 40
3.0
100
AcDbArc
 50
194.99934
 51
269.999272
  0
LINE
  5
101
100
AcDbEntity
  8
M0
 62
     4
100
AcDbLine
 10
127.274384
 20
206.654778
 11
129.973886
 21
196.579437
  0
ARC
  5
102
100
AcDbEntity
  8
M0
 62
     4
100
AcDbCircle
 10
132.871678
 20
197.355859
 40
3.0
100
AcDbArc
 50
194.999334
 51
269.999272
  0
LINE
  5
103
100
AcDbEntity
  8
M0
 62
     4
100
AcDbLine
 10
117.952756
 20
219.606049
 11
117.952861
 21
227.856049
  0
ARC
  5
104
100
AcDbEntity
  8
M0
 62
     4
100
AcDbCircle
 10
118.952861
 20
227.856036
 40
1.0
100
AcDbArc
 50
89.999272
 51
179.999272
  0
LINE
  5
105
100
AcDbEntity
  8
M0
 62
     4
100
AcDbLine
 10
114.952693
 20
215.855797
 11
115.956309
 21
215.855784
  0
LINE
  5
106
100
AcDbEntity
  8
M0
 62
     4
100
AcDbLine
 10
114.952667
 20
213.855797
 11
115.956299
 21
213.855784
  0
LINE
  5
107
100
AcDbEntity
  8
M0
 62
     4
100
AcDbLine
 10
131.799913
 20
198.355873
 11
141.452425
 21
198.35575
  0
ARC
  5
108
100
AcDbEntity
  8
M0
 62
     4
100
AcDbCircle
 10
131.799951
 20
201.355873
 40
3.0
100
AcDbArc
 50
194.99934
 51
269.999272
  0
LINE
  5
109
100
AcDbEntity
  8
M0
 62
     4
100
AcDbLine
 10
144.452414
 20
196.355712
 11
155.952384
 21
196.355566
  0
LINE
  5
10A
100
AcDbEntity
  8
M0
 62
     4
100
AcDbLine
 10
158.826725
 20
191.355529
 11
162.652317
 21
191.355481
  0
LINE
  5
10B
100
AcDbEntity
  8
M0
 62
     4
100
AcDbLine
 10
159.728621
 20
187.355518
 11
176.046142
 21
187.35531
  0
ARC
  5
10C
100
AcDbEntity
  8
M0
 62
     4
100
AcDbCircle
 10
139.752828
 20
229.855695
 40
2.0
100
AcDbArc
 50
14.332797
 51
89.999272
  0
LINE
  5
10D
100
AcDbEntity
  8
M0
 62
     4
100
AcDbLine
 10
177.778186
 20
188.355289
 11
180.953702
 21
193.855249
  0
ARC
  5
10E
100
AcDbEntity
  8
M0
 62
     4
100
AcDbCircle
 10
176.046158
 20
189.355311
 40
2.0
100
AcDbArc
 50
269.999244
 51
329.999151
  0
ARC
  5
10F
100
AcDbEntity
  8
M0
 62
     4
100
AcDbCircle
 10
158.826751
 20
193.355529
 40
2.0
100
AcDbArc
 50
194.999712
 51
269.999272
  0
LINE
  5
110
100
AcDbEntity
  8
M0
 62
     4
100
AcDbLine
 10
165.652292
 20
189.355442
 11
177.200876
 21
189.355296
  0
ARC
  5
111
100
AcDbEntity
  8
M0
 62
     4
100
AcDbCircle
 10
177.200893
 20
191.355297
 40
2.0
100
AcDbArc
 50
269.999244
 51
329.999151
  0
LINE
  5
112
100
AcDbEntity
  8
M0
 62
     4
100
AcDbLine
 10
156.452398
 20
193.855559
 11
144.452367
 21
193.855712
  0
LINE
  5
113
100
AcDbEntity
  8
M0
 62
     4
100
AcDbLine
 10
143.702374
 20
194.355721
 11
144.452367
 21
193.855712
  0
LINE
  5
114
100
AcDbEntity
  8
M0
 62
     4
100
AcDbLine
 10
141.452425
 20
198.35575
 11
144.452414
 21
196.355712
  0
LINE
  5
115
100
AcDbEntity
  8
M0
 62
     4
100
AcDbLine
 10
180.95371
 20
193.855248
 11
188.452352
 21
193.855153
  0
LINE
  5
116
100
AcDbEntity
  8
M0
 62
     4
100
AcDbLine
 10
177.77821
 20
188.355288
 11
183.452282
 21
188.355216
  0
LINE
  5
117
100
AcDbEntity
  8
M0
 62
     4
100
AcDbLine
 10
185.452308
 20
190.355191
 11
185.452352
 21
193.855191
  0
ARC
  5
118
100
AcDbEntity
  8
M0
 62
     4
100
AcDbCircle
 10
183.452308
 20
190.355216
 40
2.0
100
AcDbArc
 50
269.999244
 51
359.999244
  0
LINE
  5
119
100
AcDbEntity
  8
M0
 62
     4
100
AcDbLine
 10
162.652317
 20
191.355481
 11
165.652292
 21
189.355442
  0
LINE
  5
11A
100
AcDbEntity
  8
M0
 62
     4
100
AcDbLine
 10
123.31153
 20
196.355981
 11
121.943442
 21
196.355998
  0
LINE
  5
11B
100
AcDbEntity
  8
M0
 62
     4
100
AcDbLine
 10
114.952622
 20
213.856026
 11
116.560562
 21
207.854778
  0
ARC
  5
11C
100
AcDbEntity
  8
M0
 62
     4
100
AcDbCircle
 10
121.94348
 20
199.355998
 40
3.0
100
AcDbArc
 50
194.999393
 51
269.999272
  0
LINE
  5
11D
100
AcDbEntity
  8
M0
 62
     4
100
AcDbLine
 10
156.452367
 20
193.85562
 11
157.796786
 21
188.837903
  0
LINE
  5
11E
100
AcDbEntity
  8
M0
 62
     4
100
AcDbLine
 10
155.952399
 20
196.355566
 11
156.894905
 21
192.837915
  0
ARC
  5
11F
100
AcDbEntity
  8
M0
 62
     4
100
AcDbCircle
 10
159.728647
 20
189.355518
 40
2.0
100
AcDbArc
 50
194.999369
 51
269.999272
  0
LINE
  5
120
100
AcDbEntity
  8
M0
 62
     4
100
AcDbLine
 10
188.45194
 20
193.855015
 11
188.452385
 21
228.855152
  0
LINE
  5
121
100
AcDbEntity
  8
M0
  6
DASHED
 62
     4
100
AcDbLine
 10
181.451704
 20
193.855087
 11
181.451742
 21
197.870223
  0
LINE
  5
122
100
AcDbEntity
  8
M0
  6
DASHED
 62
     4
100
AcDbLine
 10
178.451771
 20
200.87074
 11
175.451771
 21
200.870768
  0
ARC
  5
123
100
AcDbEntity
  8
M0
  6
DASHED
 62
     4
100
AcDbCircle
 10
178.451742
 20
197.870496
 40
3.0
100
AcDbArc
 50
359.999217
 51
449.999272
  0
LINE
  5
124
100
AcDbEntity
  8
M0
 62
     4
100
AcDbLine
 10
186.951726
 20
230.354775
 11
131.451779
 21
230.354534
  0
LINE
  5
125
100
AcDbEntity
  8
M0
 62
     4
100
AcDbLine
 10
186.951791
 20
230.355019
 11
186.951788
 21
228.854775
  0
LINE
  5
126
100
AcDbEntity
  8
M0
 62
     4
100
AcDbLine
 10
131.451779
 20
230.354779
 11
130.95179
 21
228.854297
  0
LINE
  5
127
100
AcDbEntity
  8
M0
 62
     4
100
AcDbLine
 10
130.952126
 20
228.854785
 11
118.952873
 21
228.856036
  0
LINE
  5
128
100
AcDbEntity
  8
M0
 62
     4
100
AcDbLine
 10
116.882096
 20
206.654778
 11
119.045704
 21
198.579576
  0
ARC
  5
129
100
AcDbEntity
  8
M0
 62
     6
100
AcDbCircle
 10
87.545399
 20
196.355033
 40
2.999997
100
AcDbArc
 50
115.844051
 51
424.156194
  0
LINE
  5
12A
100
AcDbEntity
  8
M0
 62
     6
100
AcDbLine
 10
84.447911
 20
199.852835
 11
83.770253
 21
197.655081
  0
LINE
  5
12B
100
AcDbEntity
  8
M0
 62
     6
100
AcDbLine
 10
84.586415
 20
192.407782
 11
83.770253
 21
195.055106
  0
LINE
  5
12C
100
AcDbEntity
  8
M0
 62
     6
100
AcDbLine
 10
90.641225
 20
199.856986
 11
91.320302
 21
197.655081
  0
LINE
  5
12D
100
AcDbEntity
  8
M0
 62
     6
100
AcDbLine
 10
90.503895
 20
192.407767
 11
91.320302
 21
195.055106
  0
LINE
  5
12E
100
AcDbEntity
  8
M0
 62
     6
100
AcDbLine
 10
85.064442
 20
192.055106
 11
90.026112
 21
192.055106
  0
LINE
  5
12F
100
AcDbEntity
  8
M0
 62
     6
100
AcDbLine
 10
91.320302
 20
195.055106
 11
91.320302
 21
197.655081
  0
LINE
  5
130
100
AcDbEntity
  8
M0
 62
     6
100
AcDbLine
 10
83.770253
 20
197.655081
 11
83.770253
 21
195.055106
  0
LINE
  5
131
100
AcDbEntity
  8
M0
  6
DASHDOT
 62
     6
100
AcDbLine
 10
81.270253
 20
196.355033
 11
93.820302
 21
196.355033
  0
LINE
  5
132
100
AcDbEntity
  8
M0
  6
DASHDOT
 62
     6
100
AcDbLine
 10
87.545399
 20
189.555121
 11
87.545399
 21
198.831069
  0
LINE
  5
133
100
AcDbEntity
  8
M0
 62
     6
100
AcDbLine
 10
89.135976
 20
194.764212
 11
85.954335
 21
197.945975
  0
LINE
  5
134
100
AcDbEntity
  8
M0
 62
     6
100
AcDbLine
 10
87.898671
 20
197.769217
 11
86.131093
 21
196.001517
  0
LINE
  5
135
100
AcDbEntity
  8
M0
 62
     6
100
AcDbLine
 10
88.959218
 20
196.708548
 11
87.19164
 21
194.94097
  0
ARC
  5
136
100
AcDbEntity
  8
M0
 62
     6
100
AcDbCircle
 10
85.064442
 20
192.555106
 40
0.5
100
AcDbArc
 50
197.128737
 51
270.0
  0
ARC
  5
137
100
AcDbEntity
  8
M0
 62
     6
100
AcDbCircle
 10
90.026112
 20
192.555106
 40
0.5
100
AcDbArc
 50
270.0
 51
342.861308
  0
ARC
  5
138
100
AcDbEntity
  8
M0
 62
     6
100
AcDbCircle
 10
77.545415
 20
196.355033
 40
2.999997
100
AcDbArc
 50
115.844051
 51
424.156194
  0
LINE
  5
139
100
AcDbEntity
  8
M0
 62
     6
100
AcDbLine
 10
74.201894
 20
199.054984
 11
73.770268
 21
197.655081
  0
LINE
  5
13A
100
AcDbEntity
  8
M0
 62
     6
100
AcDbLine
 10
74.58643
 20
192.407782
 11
73.770268
 21
195.055106
  0
LINE
  5
13B
100
AcDbEntity
  8
M0
 62
     6
100
AcDbLine
 10
80.503911
 20
192.407767
 11
81.132085
 21
194.444632
  0
LINE
  5
13C
100
AcDbEntity
  8
M0
 62
     6
100
AcDbLine
 10
75.064458
 20
192.055106
 11
80.026128
 21
192.055106
  0
LINE
  5
13D
100
AcDbEntity
  8
M0
 62
     6
100
AcDbLine
 10
73.770268
 20
197.655081
 11
73.770268
 21
195.055106
  0
LINE
  5
13E
100
AcDbEntity
  8
M0
  6
DASHDOT
 62
     6
100
AcDbLine
 10
71.270268
 20
196.355033
 11
83.820317
 21
196.355033
  0
LINE
  5
13F
100
AcDbEntity
  8
M0
  6
DASHDOT
 62
     6
100
AcDbLine
 10
77.545415
 20
189.555121
 11
77.545415
 21
203.155081
  0
LINE
  5
140
100
AcDbEntity
  8
M0
 62
     6
100
AcDbLine
 10
79.135991
 20
194.764212
 11
75.95435
 21
197.945975
  0
LINE
  5
141
100
AcDbEntity
  8
M0
 62
     6
100
AcDbLine
 10
77.898686
 20
197.769217
 11
76.131108
 21
196.001517
  0
LINE
  5
142
100
AcDbEntity
  8
M0
 62
     6
100
AcDbLine
 10
78.959233
 20
196.708548
 11
77.191655
 21
194.94097
  0
ARC
  5
143
100
AcDbEntity
  8
M0
 62
     6
100
AcDbCircle
 10
75.064458
 20
192.555106
 40
0.5
100
AcDbArc
 50
197.128737
 51
270.0
  0
ARC
  5
144
100
AcDbEntity
  8
M0
 62
     6
100
AcDbCircle
 10
80.026128
 20
192.555106
 40
0.5
100
AcDbArc
 50
270.0
 51
342.861308
  0
ARC
  5
145
100
AcDbEntity
  8
M0
 62
     4
100
AcDbCircle
 10
82.5453
 20
188.355052
 40
1.0
100
AcDbArc
 50
179.999909
 51
270.0
  0
ARC
  5
146
100
AcDbEntity
  8
M0
 62
     4
100
AcDbCircle
 10
82.5453
 20
188.355052
 40
1.0
100
AcDbArc
 50
270.0
 51
359.999909
  0
LINE
  5
147
100
AcDbEntity
  8
M0
 62
     4
100
AcDbLine
 10
73.545331
 20
188.355066
 11
70.545331
 21
188.355071
  0
LINE
  5
148
100
AcDbEntity
  8
M0
 62
     4
100
AcDbLine
 10
51.795381
 20
229.854808
 11
51.795382
 21
230.6551
  0
ARC
  5
149
100
AcDbEntity
  8
M0
 62
     4
100
AcDbCircle
 10
50.795382
 20
230.655102
 40
1.0
100
AcDbArc
 50
359.999909
 51
449.999035
  0
LINE
  5
14A
100
AcDbEntity
  8
M0
 62
     4
100
AcDbLine
 10
94.545349
 20
228.855033
 11
62.545395
 21
228.854839
  0
LINE
  5
14B
100
AcDbEntity
  8
M0
 62
     4
100
AcDbLine
 10
32.045381
 20
230.154838
 11
32.045326
 21
194.85504
  0
LINE
  5
14C
100
AcDbEntity
  8
M0
 62
     4
100
AcDbLine
 10
73.545322
 20
192.355066
 11
74.602618
 21
192.355064
  0
LINE
  5
14D
100
AcDbEntity
  8
M0
 62
     4
100
AcDbLine
 10
94.545302
 20
189.855033
 11
94.545364
 21
228.855034
  0
LINE
  5
14E
100
AcDbEntity
  8
M0
 62
     4
100
AcDbLine
 10
57.545345
 20
197.355091
 11
57.545398
 21
230.855091
  0
LINE
  5
14F
100
AcDbEntity
  8
M0
 62
     4
100
AcDbLine
 10
60.045345
 20
197.355087
 11
60.045398
 21
230.855087
  0
LINE
  5
150
100
AcDbEntity
  8
M0
 62
     4
100
AcDbLine
 10
47.545345
 20
197.355107
 11
47.545398
 21
230.855107
  0
LINE
  5
151
100
AcDbEntity
  8
M0
 62
     4
100
AcDbLine
 10
45.045345
 20
197.355111
 11
45.045398
 21
230.855111
  0
LINE
  5
152
100
AcDbEntity
  8
M0
 62
     4
100
AcDbLine
 10
59.045399
 20
231.855089
 11
58.545399
 21
231.85509
  0
ARC
  5
153
100
AcDbEntity
  8
M0
 62
     4
100
AcDbCircle
 10
59.045398
 20
230.855089
 40
1.0
100
AcDbArc
 50
359.999909
 51
449.999035
  0
LINE
  5
154
100
AcDbEntity
  8
M0
 62
     4
100
AcDbLine
 10
50.795384
 20
231.655102
 11
47.145329
 21
231.655082
  0
ARC
  5
155
100
AcDbEntity
  8
M0
 62
     4
100
AcDbCircle
 10
58.545398
 20
230.85509
 40
1.0
100
AcDbArc
 50
89.999035
 51
179.999909
  0
LINE
  5
156
100
AcDbEntity
  8
M0
 62
     4
100
AcDbLine
 10
68.545367
 20
211.355074
 11
61.545367
 21
211.355085
  0
LINE
  5
157
100
AcDbEntity
  8
M0
 62
     4
100
AcDbLine
 10
68.545374
 20
215.855074
 11
61.545374
 21
215.855085
  0
LINE
  5
158
100
AcDbEntity
  8
M0
 62
     4
100
AcDbLine
 10
68.545371
 20
213.855074
 11
61.545371
 21
213.855085
  0
LINE
  5
159
100
AcDbEntity
  8
M0
 62
     4
100
AcDbLine
 10
62.045374
 20
215.855084
 11
62.045374
 21
216.055035
  0
LINE
  5
15A
100
AcDbEntity
  8
M0
 62
     4
100
AcDbLine
 10
68.045374
 20
215.855075
 11
68.045374
 21
216.055026
  0
LINE
  5
15B
100
AcDbEntity
  8
M0
 62
     4
100
AcDbLine
 10
67.54539
 20
225.65488
 11
67.545395
 21
228.855075
  0
LINE
  5
15C
100
AcDbEntity
  8
M0
 62
     4
100
AcDbLine
 10
62.54539
 20
225.654888
 11
62.545395
 21
228.855083
  0
LINE
  5
15D
100
AcDbEntity
  8
M0
 62
     4
100
AcDbLine
 10
55.04539
 20
225.655144
 11
55.045395
 21
228.855095
  0
LINE
  5
15E
100
AcDbEntity
  8
M0
 62
     4
100
AcDbLine
 10
50.04539
 20
225.655152
 11
50.045395
 21
228.855103
  0
LINE
  5
15F
100
AcDbEntity
  8
M0
 62
     4
100
AcDbLine
 10
37.54539
 20
225.655172
 11
37.545395
 21
228.855123
  0
LINE
  5
160
100
AcDbEntity
  8
M0
 62
     4
100
AcDbLine
 10
42.54539
 20
225.655164
 11
42.545395
 21
228.855115
  0
LINE
  5
161
100
AcDbEntity
  8
M0
 62
     4
100
AcDbLine
 10
49.545374
 20
215.855104
 11
49.545374
 21
216.055299
  0
LINE
  5
162
100
AcDbEntity
  8
M0
 62
     4
100
AcDbLine
 10
55.545374
 20
215.855094
 11
55.545374
 21
216.05529
  0
LINE
  5
163
100
AcDbEntity
  8
M0
 62
     4
100
AcDbLine
 10
37.045374
 20
215.855124
 11
37.045374
 21
216.055319
  0
LINE
  5
164
100
AcDbEntity
  8
M0
 62
     4
100
AcDbLine
 10
43.045374
 20
215.855114
 11
43.045374
 21
216.055309
  0
LINE
  5
165
100
AcDbEntity
  8
M0
 62
     4
100
AcDbLine
 10
62.545395
 20
228.855083
 11
60.045395
 21
228.855087
  0
LINE
  5
166
100
AcDbEntity
  8
M0
 62
     4
100
AcDbLine
 10
50.045395
 20
228.855103
 11
47.545395
 21
228.855107
  0
LINE
  5
167
100
AcDbEntity
  8
M0
 62
     4
100
AcDbLine
 10
37.545395
 20
228.855123
 11
35.045395
 21
228.855127
  0
LINE
  5
168
100
AcDbEntity
  8
M0
 62
     4
100
AcDbLine
 10
56.045374
 20
215.855094
 11
49.045374
 21
215.855105
  0
LINE
  5
169
100
AcDbEntity
  8
M0
 62
     4
100
AcDbLine
 10
43.545374
 20
215.855113
 11
36.545374
 21
215.855124
  0
LINE
  5
16A
100
AcDbEntity
  8
M0
 62
     4
100
AcDbLine
 10
69.545376
 20
216.855072
 11
69.545393
 21
227.855072
  0
LINE
  5
16B
100
AcDbEntity
  8
M0
 62
     4
100
AcDbLine
 10
60.545376
 20
216.855086
 11
60.545393
 21
227.855086
  0
LINE
  5
16C
100
AcDbEntity
  8
M0
 62
     4
100
AcDbLine
 10
57.045376
 20
216.855092
 11
57.045393
 21
227.855092
  0
LINE
  5
16D
100
AcDbEntity
  8
M0
 62
     4
100
AcDbLine
 10
48.045376
 20
216.855106
 11
48.045393
 21
227.855106
  0
LINE
  5
16E
100
AcDbEntity
  8
M0
 62
     4
100
AcDbLine
 10
44.545376
 20
216.855112
 11
44.545393
 21
227.855112
  0
LINE
  5
16F
100
AcDbEntity
  8
M0
 62
     4
100
AcDbLine
 10
35.545376
 20
216.855126
 11
35.545393
 21
227.855126
  0
LINE
  5
170
100
AcDbEntity
  8
M0
 62
     4
100
AcDbLine
 10
57.545395
 20
228.855091
 11
50.045395
 21
228.854859
  0
LINE
  5
171
100
AcDbEntity
  8
M0
 62
     4
100
AcDbLine
 10
45.045395
 20
228.855111
 11
37.545395
 21
228.854879
  0
LINE
  5
172
100
AcDbEntity
  8
M0
 62
     4
100
AcDbLine
 10
70.045339
 20
193.855071
 11
70.045369
 21
212.355071
  0
ARC
  5
173
100
AcDbEntity
  8
M0
 62
     4
100
AcDbCircle
 10
70.545393
 20
227.855071
 40
1.0
100
AcDbArc
 50
119.99911
 51
179.999909
  0
ARC
  5
174
100
AcDbEntity
  8
M0
 62
     4
100
AcDbCircle
 10
58.045393
 20
227.85509
 40
1.0
100
AcDbArc
 50
119.99911
 51
179.999909
  0
ARC
  5
175
100
AcDbEntity
  8
M0
 62
     4
100
AcDbCircle
 10
45.545393
 20
227.85511
 40
1.0
100
AcDbArc
 50
119.99911
 51
179.999909
  0
ARC
  5
176
100
AcDbEntity
  8
M0
 62
     4
100
AcDbCircle
 10
59.545393
 20
227.855088
 40
1.0
100
AcDbArc
 50
359.999909
 51
419.999952
  0
ARC
  5
177
100
AcDbEntity
  8
M0
 62
     4
100
AcDbCircle
 10
47.045393
 20
227.855108
 40
1.0
100
AcDbArc
 50
359.999909
 51
419.999952
  0
LINE
  5
178
100
AcDbEntity
  8
M0
 62
     4
100
AcDbLine
 10
35.045376
 20
216.855127
 11
35.045395
 21
228.855127
  0
ARC
  5
179
100
AcDbEntity
  8
M0
 62
     4
100
AcDbCircle
 10
34.545393
 20
227.855128
 40
1.0
100
AcDbArc
 50
359.999909
 51
419.999952
  0
LINE
  5
17A
100
AcDbEntity
  8
M0
 62
     4
100
AcDbLine
 10
42.295412
 20
230.17367
 11
42.295413
 21
230.655115
  0
ARC
  5
17B
100
AcDbEntity
  8
M0
 62
     4
100
AcDbCircle
 10
43.295413
 20
230.655114
 40
1.0
100
AcDbArc
 50
89.999035
 51
179.999909
  0
ARC
  5
17C
100
AcDbEntity
  8
M0
 62
     4
100
AcDbCircle
 10
46.545398
 20
230.855109
 40
1.0
100
AcDbArc
 50
359.999909
 51
449.999035
  0
ARC
  5
17D
100
AcDbEntity
  8
M0
 62
     4
100
AcDbCircle
 10
46.045398
 20
230.855109
 40
1.0
100
AcDbArc
 50
89.999035
 51
179.999909
  0
LINE
  5
17E
100
AcDbEntity
  8
M0
 62
     4
100
AcDbLine
 10
45.045412
 20
230.154837
 11
32.045381
 21
230.154838
  0
LINE
  5
17F
100
AcDbEntity
  8
M0
 62
     4
100
AcDbLine
 10
43.545371
 20
213.855113
 11
32.04534
 21
213.855132
  0
LINE
  5
180
100
AcDbEntity
  8
M0
 62
     4
100
AcDbLine
 10
56.045371
 20
213.855094
 11
49.045371
 21
213.855105
  0
ARC
  5
181
100
AcDbEntity
  8
M0
 62
     4
100
AcDbCircle
 10
56.045376
 20
217.355094
 40
1.499996
100
AcDbArc
 50
270.0
 51
359.999909
  0
ARC
  5
182
100
AcDbEntity
  8
M0
 62
     4
100
AcDbCircle
 10
43.545376
 20
217.355113
 40
1.499996
100
AcDbArc
 50
270.0
 51
359.999909
  0
ARC
  5
183
100
AcDbEntity
  8
M0
 62
     4
100
AcDbCircle
 10
43.545376
 20
216.855113
 40
1.0
100
AcDbArc
 50
270.0
 51
359.999909
  0
ARC
  5
184
100
AcDbEntity
  8
M0
 62
     4
100
AcDbCircle
 10
56.045376
 20
216.855094
 40
1.0
100
AcDbArc
 50
270.0
 51
359.999909
  0
ARC
  5
185
100
AcDbEntity
  8
M0
 62
     4
100
AcDbCircle
 10
68.545376
 20
217.355074
 40
1.499996
100
AcDbArc
 50
270.0
 51
359.999909
  0
ARC
  5
186
100
AcDbEntity
  8
M0
 62
     4
100
AcDbCircle
 10
68.545376
 20
216.855074
 40
1.0
100
AcDbArc
 50
270.0
 51
359.999909
  0
ARC
  5
187
100
AcDbEntity
  8
M0
 62
     4
100
AcDbCircle
 10
61.545376
 20
217.355085
 40
1.499996
100
AcDbArc
 50
179.999909
 51
270.0
  0
ARC
  5
188
100
AcDbEntity
  8
M0
 62
     4
100
AcDbCircle
 10
49.045376
 20
217.355105
 40
1.499996
100
AcDbArc
 50
179.999909
 51
270.0
  0
ARC
  5
189
100
AcDbEntity
  8
M0
 62
     4
100
AcDbCircle
 10
61.545376
 20
216.855085
 40
1.0
100
AcDbArc
 50
179.999909
 51
270.0
  0
ARC
  5
18A
100
AcDbEntity
  8
M0
 62
     4
100
AcDbCircle
 10
49.045376
 20
216.855105
 40
1.0
100
AcDbArc
 50
179.999909
 51
270.0
  0
ARC
  5
18B
100
AcDbEntity
  8
M0
 62
     4
100
AcDbCircle
 10
36.545376
 20
216.855124
 40
1.0
100
AcDbArc
 50
179.999909
 51
270.0
  0
ARC
  5
18C
100
AcDbEntity
  8
M0
 62
     4
100
AcDbCircle
 10
36.545376
 20
217.355124
 40
1.499996
100
AcDbArc
 50
179.999909
 51
270.0
  0
ARC
  5
18D
100
AcDbEntity
  8
M0
 62
     4
100
AcDbCircle
 10
34.045376
 20
216.855128
 40
1.0
100
AcDbArc
 50
270.0
 51
359.999909
  0
LINE
  5
18E
100
AcDbEntity
  8
M0
 62
     4
100
AcDbLine
 10
34.045374
 20
215.855128
 11
32.045344
 21
215.855132
  0
LINE
  5
18F
100
AcDbEntity
  8
M0
 62
     4
100
AcDbLine
 10
70.045351
 20
201.355071
 11
60.045351
 21
201.355087
  0
LINE
  5
190
100
AcDbEntity
  8
M0
 62
     4
100
AcDbLine
 10
70.045376
 20
217.355071
 11
70.045395
 21
228.855071
  0
ARC
  5
191
100
AcDbEntity
  8
M0
 62
     4
100
AcDbCircle
 10
61.545369
 20
212.355085
 40
1.499996
100
AcDbArc
 50
89.999327
 51
179.999909
  0
ARC
  5
192
100
AcDbEntity
  8
M0
 62
     4
100
AcDbCircle
 10
68.545369
 20
212.355074
 40
1.499996
100
AcDbArc
 50
359.999909
 51
449.999327
  0
ARC
  5
193
100
AcDbEntity
  8
M0
 62
     4
100
AcDbCircle
 10
56.045369
 20
212.355094
 40
1.499996
100
AcDbArc
 50
359.999909
 51
449.999327
  0
ARC
  5
194
100
AcDbEntity
  8
M0
 62
     4
100
AcDbCircle
 10
49.045369
 20
212.355105
 40
1.499996
100
AcDbArc
 50
89.999327
 51
179.999909
  0
ARC
  5
195
100
AcDbEntity
  8
M0
 62
     4
100
AcDbCircle
 10
43.545369
 20
212.355113
 40
1.499996
100
AcDbArc
 50
359.999909
 51
449.999327
  0
LINE
  5
196
100
AcDbEntity
  8
M0
 62
     4
100
AcDbLine
 10
35.04535
 20
200.855127
 11
35.045369
 21
212.855127
  0
ARC
  5
197
100
AcDbEntity
  8
M0
 62
     4
100
AcDbCircle
 10
36.545369
 20
212.355124
 40
1.499996
100
AcDbArc
 50
89.999327
 51
179.999909
  0
ARC
  5
198
100
AcDbEntity
  8
M0
 62
     4
100
AcDbCircle
 10
34.045369
 20
212.855128
 40
1.0
100
AcDbArc
 50
359.999909
 51
449.999035
  0
LINE
  5
199
100
AcDbEntity
  8
M0
 62
     4
100
AcDbLine
 10
57.545351
 20
201.355091
 11
47.545351
 21
201.355107
  0
LINE
  5
19A
100
AcDbEntity
  8
M0
 62
     4
100
AcDbLine
 10
45.045351
 20
201.355111
 11
35.045351
 21
201.355127
  0
ARC
  5
19B
100
AcDbEntity
  8
M0
 62
     4
100
AcDbCircle
 10
68.545365
 20
209.855074
 40
1.499996
100
AcDbArc
 50
359.999909
 51
449.999327
  0
LINE
  5
19C
100
AcDbEntity
  8
M0
 62
     4
100
AcDbLine
 10
56.045367
 20
211.355094
 11
49.045367
 21
211.355105
  0
LINE
  5
19D
100
AcDbEntity
  8
M0
 62
     4
100
AcDbLine
 10
43.545367
 20
211.355113
 11
36.545367
 21
211.355124
  0
ARC
  5
19E
100
AcDbEntity
  8
M0
 62
     4
100
AcDbCircle
 10
61.545365
 20
209.855085
 40
1.499996
100
AcDbArc
 50
89.999327
 51
179.999909
  0
ARC
  5
19F
100
AcDbEntity
  8
M0
 62
     4
100
AcDbCircle
 10
49.045365
 20
209.855105
 40
1.499996
100
AcDbArc
 50
89.999327
 51
179.999909
  0
ARC
  5
1A0
100
AcDbEntity
  8
M0
 62
     4
100
AcDbCircle
 10
36.545365
 20
209.855124
 40
1.499996
100
AcDbArc
 50
89.999327
 51
179.999909
  0
ARC
  5
1A1
100
AcDbEntity
  8
M0
 62
     4
100
AcDbCircle
 10
56.045365
 20
209.855094
 40
1.499996
100
AcDbArc
 50
359.999909
 51
449.999327
  0
ARC
  5
1A2
100
AcDbEntity
  8
M0
 62
     4
100
AcDbCircle
 10
43.545365
 20
209.855113
 40
1.499996
100
AcDbArc
 50
359.999909
 51
449.999327
  0
LINE
  5
1A3
100
AcDbEntity
  8
M0
 62
     4
100
AcDbLine
 10
69.545353
 20
202.355072
 11
69.545365
 21
210.355072
  0
LINE
  5
1A4
100
AcDbEntity
  8
M0
 62
     4
100
AcDbLine
 10
60.545353
 20
202.355086
 11
60.545365
 21
210.355086
  0
LINE
  5
1A5
100
AcDbEntity
  8
M0
 62
     4
100
AcDbLine
 10
57.045353
 20
202.355092
 11
57.045365
 21
210.355092
  0
LINE
  5
1A6
100
AcDbEntity
  8
M0
 62
     4
100
AcDbLine
 10
48.045353
 20
202.355106
 11
48.045365
 21
210.355106
  0
LINE
  5
1A7
100
AcDbEntity
  8
M0
 62
     4
100
AcDbLine
 10
44.545353
 20
202.355112
 11
44.545365
 21
210.355112
  0
LINE
  5
1A8
100
AcDbEntity
  8
M0
 62
     4
100
AcDbLine
 10
35.545353
 20
202.355126
 11
35.545365
 21
210.355126
  0
ARC
  5
1A9
100
AcDbEntity
  8
M0
 62
     4
100
AcDbCircle
 10
68.545365
 20
210.355074
 40
1.0
100
AcDbArc
 50
359.999909
 51
449.999035
  0
ARC
  5
1AA
100
AcDbEntity
  8
M0
 62
     4
100
AcDbCircle
 10
56.045365
 20
210.355094
 40
1.0
100
AcDbArc
 50
359.999909
 51
449.999035
  0
ARC
  5
1AB
100
AcDbEntity
  8
M0
 62
     4
100
AcDbCircle
 10
43.545365
 20
210.355113
 40
1.0
100
AcDbArc
 50
359.999909
 51
449.999035
  0
ARC
  5
1AC
100
AcDbEntity
  8
M0
 62
     4
100
AcDbCircle
 10
61.545365
 20
210.355085
 40
1.0
100
AcDbArc
 50
89.999035
 51
179.999909
  0
ARC
  5
1AD
100
AcDbEntity
  8
M0
 62
     4
100
AcDbCircle
 10
49.045365
 20
210.355105
 40
1.0
100
AcDbArc
 50
89.999035
 51
179.999909
  0
ARC
  5
1AE
100
AcDbEntity
  8
M0
 62
     4
100
AcDbCircle
 10
36.545365
 20
210.355124
 40
1.0
100
AcDbArc
 50
89.999035
 51
179.999909
  0
ARC
  5
1AF
100
AcDbEntity
  8
M0
 62
     4
100
AcDbCircle
 10
70.545353
 20
202.355071
 40
1.0
100
AcDbArc
 50
179.999909
 51
239.999542
  0
ARC
  5
1B0
100
AcDbEntity
  8
M0
 62
     4
100
AcDbCircle
 10
58.045353
 20
202.35509
 40
1.0
100
AcDbArc
 50
179.999909
 51
239.999542
  0
ARC
  5
1B1
100
AcDbEntity
  8
M0
 62
     4
100
AcDbCircle
 10
45.545353
 20
202.35511
 40
1.0
100
AcDbArc
 50
179.999909
 51
239.999542
  0
ARC
  5
1B2
100
AcDbEntity
  8
M0
 62
     4
100
AcDbCircle
 10
34.545353
 20
202.355128
 40
1.0
100
AcDbArc
 50
300.001034
 51
359.999909
  0
ARC
  5
1B3
100
AcDbEntity
  8
M0
 62
     4
100
AcDbCircle
 10
47.045353
 20
202.355108
 40
1.0
100
AcDbArc
 50
300.001034
 51
359.999909
  0
ARC
  5
1B4
100
AcDbEntity
  8
M0
 62
     4
100
AcDbCircle
 10
59.545353
 20
202.355088
 40
1.0
100
AcDbArc
 50
300.001034
 51
359.999909
  0
LINE
  5
1B5
100
AcDbEntity
  8
M0
 62
     4
100
AcDbLine
 10
59.045343
 20
196.355089
 11
58.545343
 21
196.35509
  0
LINE
  5
1B6
100
AcDbEntity
  8
M0
 62
     4
100
AcDbLine
 10
46.545343
 20
196.355109
 11
46.045343
 21
196.355109
  0
ARC
  5
1B7
100
AcDbEntity
  8
M0
 62
     4
100
AcDbCircle
 10
46.045345
 20
197.355109
 40
1.0
100
AcDbArc
 50
179.999909
 51
270.0
  0
ARC
  5
1B8
100
AcDbEntity
  8
M0
 62
     4
100
AcDbCircle
 10
46.545345
 20
197.355109
 40
1.0
100
AcDbArc
 50
270.0
 51
359.999909
  0
ARC
  5
1B9
100
AcDbEntity
  8
M0
 62
     4
100
AcDbCircle
 10
58.545345
 20
197.35509
 40
1.0
100
AcDbArc
 50
179.999909
 51
270.0
  0
ARC
  5
1BA
100
AcDbEntity
  8
M0
 62
     4
100
AcDbCircle
 10
59.045345
 20
197.355089
 40
1.0
100
AcDbArc
 50
270.0
 51
359.999909
  0
LINE
  5
1BB
100
AcDbEntity
  8
M0
 62
     4
100
AcDbLine
 10
70.045341
 20
194.855071
 11
68.545326
 21
194.855074
  0
LINE
  5
1BC
100
AcDbEntity
  8
M0
 62
     4
100
AcDbLine
 10
43.795342
 20
195.454875
 11
43.795351
 21
201.355113
  0
LINE
  5
1BD
100
AcDbEntity
  8
M0
 62
     4
100
AcDbLine
 10
68.795341
 20
194.855073
 11
68.795351
 21
201.355073
  0
LINE
  5
1BE
100
AcDbEntity
  8
M0
 62
     4
100
AcDbLine
 10
34.045349
 20
199.855128
 11
32.045318
 21
199.855132
  0
ARC
  5
1BF
100
AcDbEntity
  8
M0
 62
     4
100
AcDbCircle
 10
34.04535
 20
200.855128
 40
1.0
100
AcDbArc
 50
270.0
 51
359.999909
  0
LINE
  5
1C0
100
AcDbEntity
  8
M0
 62
     4
100
AcDbLine
 10
91.545303
 20
190.355037
 11
91.545329
 21
206.455074
  0
LINE
  5
1C1
100
AcDbEntity
  8
M0
 62
     4
100
AcDbLine
 10
94.045301
 20
198.355033
 11
92.545301
 21
198.355036
  0
ARC
  5
1C2
100
AcDbEntity
  8
M0
 62
     4
100
AcDbCircle
 10
94.045301
 20
198.855033
 40
0.5
100
AcDbArc
 50
270.0
 51
359.999909
  0
ARC
  5
1C3
100
AcDbEntity
  8
M0
 62
     4
100
AcDbCircle
 10
92.545302
 20
199.355036
 40
1.0
100
AcDbArc
 50
179.999909
 51
270.0
  0
LINE
  5
1C4
100
AcDbEntity
  8
M0
 62
     4
100
AcDbLine
 10
94.045305
 20
191.355033
 11
92.545305
 21
191.355036
  0
LINE
  5
1C5
100
AcDbEntity
  8
M0
 62
     4
100
AcDbLine
 10
94.045302
 20
189.355033
 11
92.545302
 21
189.355036
  0
ARC
  5
1C6
100
AcDbEntity
  8
M0
 62
     4
100
AcDbCircle
 10
94.045302
 20
189.855033
 40
0.5
100
AcDbArc
 50
270.0
 51
359.999909
  0
ARC
  5
1C7
100
AcDbEntity
  8
M0
 62
     4
100
AcDbCircle
 10
92.545303
 20
190.355036
 40
1.0
100
AcDbArc
 50
179.999909
 51
270.0
  0
ARC
  5
1C8
100
AcDbEntity
  8
M0
 62
     4
100
AcDbCircle
 10
94.045306
 20
191.855033
 40
0.5
100
AcDbArc
 50
270.0
 51
359.999909
  0
ARC
  5
1C9
100
AcDbEntity
  8
M0
 62
     4
100
AcDbCircle
 10
92.545306
 20
192.355036
 40
1.0
100
AcDbArc
 50
179.999909
 51
270.0
  0
LINE
  5
1CA
100
AcDbEntity
  8
M0
 62
     4
100
AcDbLine
 10
94.045313
 20
196.355033
 11
92.545313
 21
196.355036
  0
ARC
  5
1CB
100
AcDbEntity
  8
M0
 62
     4
100
AcDbCircle
 10
92.545314
 20
197.355036
 40
1.0
100
AcDbArc
 50
179.999909
 51
270.0
  0
ARC
  5
1CC
100
AcDbEntity
  8
M0
 62
     4
100
AcDbCircle
 10
94.045313
 20
196.855033
 40
0.5
100
AcDbArc
 50
270.0
 51
359.999909
  0
LINE
  5
1CD
100
AcDbEntity
  8
M0
 62
     4
100
AcDbLine
 10
83.5453
 20
188.35505
 11
83.545327
 21
205.155068
  0
LINE
  5
1CE
100
AcDbEntity
  8
M0
 62
     4
100
AcDbLine
 10
90.487567
 20
192.355039
 11
91.545276
 21
192.355037
  0
LINE
  5
1CF
100
AcDbEntity
  8
M0
 62
     4
100
AcDbLine
 10
91.545287
 20
199.355037
 11
90.795974
 21
199.354794
  0
LINE
  5
1D0
100
AcDbEntity
  8
M0
 62
     4
100
AcDbLine
 10
84.294356
 20
199.354805
 11
83.545287
 21
199.35505
  0
LINE
  5
1D1
100
AcDbEntity
  8
M0
 62
     4
100
AcDbLine
 10
80.545281
 20
195.355055
 11
80.54531
 21
205.155073
  0
LINE
  5
1D2
100
AcDbEntity
  8
M0
 62
     4
100
AcDbLine
 10
82.54531
 20
194.355052
 11
81.54531
 21
194.355053
  0
ARC
  5
1D3
100
AcDbEntity
  8
M0
 62
     4
100
AcDbCircle
 10
82.545311
 20
195.355052
 40
1.0
100
AcDbArc
 50
270.0
 51
359.999909
  0
ARC
  5
1D4
100
AcDbEntity
  8
M0
 62
     4
100
AcDbCircle
 10
81.545311
 20
195.355053
 40
1.0
100
AcDbArc
 50
179.999909
 51
270.0
  0
LINE
  5
1D5
100
AcDbEntity
  8
M0
 62
     4
100
AcDbLine
 10
72.545344
 20
196.855083
 11
72.545361
 21
207.855067
  0
LINE
  5
1D6
100
AcDbEntity
  8
M0
 62
     4
100
AcDbLine
 10
79.486373
 20
199.355056
 11
80.545317
 21
199.355055
  0
LINE
  5
1D7
100
AcDbEntity
  8
M0
 62
     4
100
AcDbLine
 10
74.545322
 20
192.355064
 11
74.545322
 21
192.540855
  0
LINE
  5
1D8
100
AcDbEntity
  8
M0
 62
     4
100
AcDbLine
 10
73.545331
 20
188.355066
 11
73.545333
 21
199.536951
  0
LINE
  5
1D9
100
AcDbEntity
  8
M0
 62
     4
100
AcDbLine
 10
81.5453
 20
188.355053
 11
81.54531
 21
194.355053
  0
LINE
  5
1DA
100
AcDbEntity
  8
M0
 62
     4
100
AcDbLine
 10
83.545276
 20
192.35505
 11
84.602603
 21
192.355048
  0
LINE
  5
1DB
100
AcDbEntity
  8
M0
 62
     4
100
AcDbLine
 10
73.545339
 20
193.855066
 11
70.045339
 21
193.855071
  0
LINE
  5
1DC
100
AcDbEntity
  8
M0
 62
     4
100
AcDbLine
 10
73.545342
 20
195.855066
 11
70.045342
 21
195.855071
  0
LINE
  5
1DD
100
AcDbEntity
  8
M0
 62
     4
100
AcDbLine
 10
72.545345
 20
197.355067
 11
72.545361
 21
207.855067
  0
ARC
  5
1DE
100
AcDbEntity
  8
M0
 62
     4
100
AcDbCircle
 10
71.045344
 20
196.85507
 40
1.0
100
AcDbArc
 50
179.999909
 51
270.0
  0
ARC
  5
1DF
100
AcDbEntity
  8
M0
 62
     4
100
AcDbCircle
 10
71.545344
 20
196.855069
 40
1.0
100
AcDbArc
 50
270.0
 51
359.999909
  0
LINE
  5
1E0
100
AcDbEntity
  8
M0
 62
     4
100
AcDbLine
 10
70.545331
 20
188.355071
 11
70.545339
 21
193.855071
  0
ARC
  5
1E1
100
AcDbEntity
  8
M0
 62
     4
100
AcDbCircle
 10
74.045359
 20
206.355065
 40
1.499996
100
AcDbArc
 50
89.999327
 51
119.925452
  0
LINE
  5
1E2
100
AcDbEntity
  8
M0
 62
     4
100
AcDbLine
 10
72.395349
 20
215.355068
 11
70.895346
 21
213.855085
  0
LINE
  5
1E3
100
AcDbEntity
  8
M0
 62
     4
100
AcDbLine
 10
72.395349
 20
215.355068
 11
70.895351
 21
216.85507
  0
LINE
  5
1E4
100
AcDbEntity
  8
M0
 62
     4
100
AcDbLine
 10
70.045371
 20
213.855071
 11
70.045376
 21
217.355071
  0
LINE
  5
1E5
100
AcDbEntity
  8
M0
 62
     4
100
AcDbLine
 10
72.395385
 20
228.855033
 11
72.395377
 21
213.854793
  0
LINE
  5
1E6
100
AcDbEntity
  8
M0
 62
     4
100
AcDbLine
 10
70.895346
 20
213.854795
 11
70.045386
 21
213.855041
  0
LINE
  5
1E7
100
AcDbEntity
  8
M0
 62
     4
100
AcDbLine
 10
70.895366
 20
216.854789
 11
70.045391
 21
216.855033
  0
LINE
  5
1E8
100
AcDbEntity
  8
M0
 62
     4
100
AcDbLine
 10
72.395344
 20
212.105068
 11
70.045368
 21
212.105071
  0
LINE
  5
1E9
100
AcDbEntity
  8
M0
 62
     4
100
AcDbLine
 10
72.395354
 20
218.605068
 11
70.045378
 21
218.605071
  0
LINE
  5
1EA
100
AcDbEntity
  8
M0
 62
     4
100
AcDbLine
 10
56.545371
 20
213.769308
 11
56.545374
 21
215.940893
  0
LINE
  5
1EB
100
AcDbEntity
  8
M0
 62
     4
100
AcDbLine
 10
61.045371
 20
213.769301
 11
61.045374
 21
215.940886
  0
LINE
  5
1EC
100
AcDbEntity
  8
M0
 62
     4
100
AcDbLine
 10
67.045371
 20
213.855076
 11
67.045374
 21
215.855076
  0
ARC
  5
1ED
100
AcDbEntity
  8
M0
 62
     4
100
AcDbCircle
 10
41.545348
 20
199.355116
 40
2.249995
100
AcDbArc
 50
296.387367
 51
359.999909
  0
ARC
  5
1EE
100
AcDbEntity
  8
M0
 62
     4
100
AcDbCircle
 10
66.545348
 20
199.355077
 40
2.249995
100
AcDbArc
 50
296.387367
 51
359.999909
  0
LINE
  5
1EF
100
AcDbEntity
  8
M0
 62
     4
100
AcDbLine
 10
57.045365
 20
209.855092
 11
56.644165
 21
209.854848
  0
LINE
  5
1F0
100
AcDbEntity
  8
M0
 62
     4
100
AcDbLine
 10
44.545365
 20
209.855112
 11
44.144165
 21
209.854868
  0
ARC
  5
1F1
100
AcDbEntity
  8
M0
 62
     4
100
AcDbCircle
 10
34.995374
 20
208.355127
 40
1.499996
100
AcDbArc
 50
50.75881
 51
68.489749
  0
ARC
  5
1F2
100
AcDbEntity
  8
M0
 62
     4
100
AcDbCircle
 10
45.09535
 20
208.355111
 40
1.499996
100
AcDbArc
 50
111.509527
 51
129.35899
  0
ARC
  5
1F3
100
AcDbEntity
  8
M0
 62
     4
100
AcDbCircle
 10
47.495405
 20
208.355107
 40
1.499996
100
AcDbArc
 50
50.759631
 51
68.489749
  0
ARC
  5
1F4
100
AcDbEntity
  8
M0
 62
     4
100
AcDbCircle
 10
70.09535
 20
208.355071
 40
1.499996
100
AcDbArc
 50
111.509527
 51
129.359811
  0
ARC
  5
1F5
100
AcDbEntity
  8
M0
 62
     4
100
AcDbCircle
 10
59.995374
 20
208.355087
 40
1.499996
100
AcDbArc
 50
50.759631
 51
68.489749
  0
LINE
  5
1F6
100
AcDbEntity
  8
M0
 62
     4
100
AcDbLine
 10
69.545365
 20
209.855072
 11
69.144135
 21
209.854829
  0
LINE
  5
1F7
100
AcDbEntity
  8
M0
 62
     4
100
AcDbLine
 10
80.487582
 20
192.355055
 11
81.545276
 21
192.355053
  0
LINE
  5
1F8
100
AcDbEntity
  8
M0
 62
     4
100
AcDbLine
 10
60.295342
 20
195.454864
 11
60.295348
 21
199.355087
  0
LINE
  5
1F9
100
AcDbEntity
  8
M0
 62
     4
100
AcDbLine
 10
57.54535
 20
200.355091
 11
55.945618
 21
200.355094
  0
ARC
  5
1FA
100
AcDbEntity
  8
M0
 62
     4
100
AcDbCircle
 10
59.295348
 20
199.355088
 40
1.0
100
AcDbArc
 50
359.999909
 51
401.40896
  0
LINE
  5
1FB
100
AcDbEntity
  8
M0
 62
     4
100
AcDbLine
 10
34.045396
 20
229.855128
 11
32.045366
 21
229.855132
  0
ARC
  5
1FC
100
AcDbEntity
  8
M0
 62
     4
100
AcDbCircle
 10
34.045395
 20
228.855128
 40
1.0
100
AcDbArc
 50
359.999909
 51
449.999035
  0
LINE
  5
1FD
100
AcDbEntity
  8
M0
 62
     4
100
AcDbLine
 10
85.045367
 20
229.85506
 11
60.045411
 21
229.8551
  0
LINE
  5
1FE
100
AcDbEntity
  8
M0
 62
     4
100
AcDbLine
 10
57.545411
 20
229.855043
 11
47.545396
 21
229.854814
  0
LINE
  5
1FF
100
AcDbEntity
  8
M0
 62
     4
100
AcDbLine
 10
71.545335
 20
191.355069
 11
71.545339
 21
193.855069
  0
LINE
  5
200
100
AcDbEntity
  8
M0
 62
     4
100
AcDbLine
 10
73.545349
 20
190.355066
 11
70.545334
 21
190.355071
  0
ARC
  5
201
100
AcDbEntity
  8
M0
 62
     4
100
AcDbCircle
 10
72.545335
 20
191.355067
 40
1.0
100
AcDbArc
 50
179.999909
 51
270.0
  0
ARC
  5
202
100
AcDbEntity
  8
M0
 62
     4
100
AcDbCircle
 10
72.545335
 20
191.355067
 40
1.0
100
AcDbArc
 50
270.0
 51
359.999909
  0
TEXT
  5
203
100
AcDbEntity
  8
M0
 62
     4
100
AcDbText
 10
39.395594
 20
211.205493
 40
2.800003
  1
２
 50
359.999928
 41
0.535719
  7
STANDARD
100
AcDbText
  0
TEXT
  5
204
100
AcDbEntity
  8
M0
 62
     4
100
AcDbText
 10
51.895594
 20
211.205473
 40
2.800003
  1
４
 50
359.999928
 41
0.535719
  7
STANDARD
100
AcDbText
  0
TEXT
  5
205
100
AcDbEntity
  8
M0
 62
     4
100
AcDbText
 10
64.395426
 20
211.205453
 40
2.800003
  1
６
 50
359.999928
 41
0.535719
  7
STANDARD
100
AcDbText
  0
LINE
  5
206
100
AcDbEntity
  8
M0
 62
     4
100
AcDbLine
 10
35.944168
 20
209.854881
 11
35.545365
 21
209.855126
  0
LINE
  5
207
100
AcDbEntity
  8
M0
 62
     4
100
AcDbLine
 10
48.444168
 20
209.854861
 11
48.045365
 21
209.855106
  0
LINE
  5
208
100
AcDbEntity
  8
M0
 62
     4
100
AcDbLine
 10
60.944138
 20
209.854842
 11
60.545365
 21
209.855086
  0
ARC
  5
209
100
AcDbEntity
  8
M0
 62
     4
100
AcDbCircle
 10
57.592878
 20
208.354847
 40
1.499994
100
AcDbArc
 50
111.509527
 51
129.239737
  0
LINE
  5
20A
100
AcDbEntity
  8
M0
 62
     4
100
AcDbLine
 10
75.045735
 20
231.850376
 11
71.045735
 21
231.850382
  0
ARC
  5
20B
100
AcDbEntity
  8
M0
 62
     4
100
AcDbCircle
 10
71.045733
 20
230.850383
 40
1.0
100
AcDbArc
 50
89.999035
 51
179.999909
  0
ARC
  5
20C
100
AcDbEntity
  8
M0
 62
     4
100
AcDbCircle
 10
75.045733
 20
230.850376
 40
1.0
100
AcDbArc
 50
359.999909
 51
449.999035
  0
LINE
  5
20D
100
AcDbEntity
  8
M0
 62
     4
100
AcDbLine
 10
70.045733
 20
230.850384
 11
70.045732
 21
229.850384
  0
LINE
  5
20E
100
AcDbEntity
  8
M0
 62
     4
100
AcDbLine
 10
76.045733
 20
230.850375
 11
76.045732
 21
229.850375
  0
LINE
  5
20F
100
AcDbEntity
  8
M0
 62
     4
100
AcDbLine
 10
46.045415
 20
231.855033
 11
46.545415
 21
231.855033
  0
LINE
  5
210
100
AcDbEntity
  8
M0
 62
     4
100
AcDbLine
 10
45.445454
 20
231.655082
 11
43.295414
 21
231.655114
  0
LINE
  5
211
100
AcDbEntity
  8
M0
 62
     4
100
AcDbLine
 10
72.395377
 20
213.854793
 11
72.395337
 21
207.855068
  0
LINE
  5
212
100
AcDbEntity
  8
M0
 62
     4
100
AcDbLine
 10
75.045377
 20
207.855064
 11
70.045361
 21
207.855071
  0
LINE
  5
213
100
AcDbEntity
  8
M0
 62
     4
100
AcDbLine
 10
36.545326
 20
194.855124
 11
32.04531
 21
194.855132
  0
LINE
  5
214
100
AcDbEntity
  8
M0
100
AcDbLine
 10
116.456227
 20
212.105277
 11
117.952873
 21
212.105277
  0
LINE
  5
215
100
AcDbEntity
  8
M0
100
AcDbLine
 10
117.952747
 20
218.605277
 11
116.456227
 21
218.605277
  0
LINE
  5
216
100
AcDbEntity
  8
M0
100
AcDbLine
 10
115.956227
 20
218.105032
 11
115.956227
 21
212.605277
  0
ARC
  5
217
100
AcDbEntity
  8
M0
100
AcDbCircle
 10
116.456241
 20
218.105032
 40
0.5
100
AcDbArc
 50
90.0
 51
180.0
  0
ARC
  5
218
100
AcDbEntity
  8
M0
100
AcDbCircle
 10
116.456241
 20
212.605277
 40
0.5
100
AcDbArc
 50
179.999891
 51
270.0
  0
LINE
  5
219
100
AcDbEntity
  8
M0
  6
DASHDOT
100
AcDbLine
 10
108.143193
 20
215.355033
 11
126.850224
 21
215.355033
  0
CIRCLE
  5
21A
100
AcDbEntity
  8
M0
  6
DASHED
100
AcDbCircle
 10
82.394307
 20
215.355277
 40
8.299999
  0
LINE
  5
21B
100
AcDbEntity
  8
M0
  6
DASHDOT
100
AcDbLine
 10
73.132996
 20
215.355277
 11
94.245713
 21
215.355277
  0
LINE
  5
21C
100
AcDbEntity
  8
M0
  6
DASHDOT
100
AcDbLine
 10
82.394307
 20
199.54777
 11
82.394307
 21
231.162783
  0
LINE
  5
21D
100
AcDbEntity
  8
M0
 62
    34
100
AcDbLine
 10
72.845384
 20
210.355035
 11
72.845374
 21
225.95502
  0
LINE
  5
21E
100
AcDbEntity
  8
M0
 62
    34
100
AcDbLine
 10
69.545369
 20
229.855017
 11
69.54537
 21
228.655017
  0
LINE
  5
21F
100
AcDbEntity
  8
M0
 62
    34
100
AcDbLine
 10
69.545383
 20
207.65502
 11
69.545384
 21
206.455023
  0
LINE
  5
220
100
AcDbEntity
  8
M0
 62
    34
100
AcDbLine
 10
69.545383
 20
207.65502
 11
75.045383
 21
207.655024
  0
LINE
  5
221
100
AcDbEntity
  8
M0
 62
    34
100
AcDbLine
 10
69.54537
 20
228.655017
 11
75.04537
 21
228.655021
  0
LINE
  5
222
100
AcDbEntity
  8
M0
 62
    34
100
AcDbLine
 10
80.345385
 20
205.155027
 11
84.345385
 21
205.15503
  0
LINE
  5
223
100
AcDbEntity
  8
M0
 62
    34
100
AcDbLine
 10
86.545384
 20
206.455034
 11
84.345385
 21
205.15503
  0
LINE
  5
224
100
AcDbEntity
  8
M0
 62
    34
100
AcDbLine
 10
80.345385
 20
205.155027
 11
77.545384
 21
206.455028
  0
LINE
  5
225
100
AcDbEntity
  8
M0
 62
    34
100
AcDbLine
 10
77.545384
 20
206.455028
 11
69.545384
 21
206.455023
  0
LINE
  5
226
100
AcDbEntity
  8
M0
 62
    34
100
AcDbLine
 10
94.045384
 20
206.455039
 11
86.545384
 21
206.455034
  0
ARC
  5
227
100
AcDbEntity
  8
M0
 62
    34
100
AcDbCircle
 10
94.045383
 20
206.955039
 40
0.5
100
AcDbArc
 50
270.0
 51
360.000036
  0
LINE
  5
228
100
AcDbEntity
  8
M0
 62
    34
100
AcDbLine
 10
94.545383
 20
206.955039
 11
94.545369
 21
229.355033
  0
LINE
  5
229
100
AcDbEntity
  8
M0
 62
    34
100
AcDbLine
 10
94.045369
 20
229.855033
 11
69.545369
 21
229.855017
  0
ARC
  5
22A
100
AcDbEntity
  8
M0
 62
    34
100
AcDbCircle
 10
94.045369
 20
229.355033
 40
0.5
100
AcDbArc
 50
1.821226E-006
 51
90.0
  0
LINE
  5
22B
100
AcDbEntity
  8
M0
 62
    34
100
AcDbLine
 10
75.045383
 20
207.655024
 11
75.045382
 21
209.355036
  0
LINE
  5
22C
100
AcDbEntity
  8
M0
 62
    34
100
AcDbLine
 10
72.845384
 20
210.355035
 11
74.045381
 21
210.355035
  0
ARC
  5
22D
100
AcDbEntity
  8
M0
 62
    34
100
AcDbCircle
 10
74.045382
 20
209.355035
 40
1.0
100
AcDbArc
 50
3.597218E-005
 51
89.999162
  0
LINE
  5
22E
100
AcDbEntity
  8
M0
 62
    34
100
AcDbLine
 10
72.845374
 20
225.95502
 11
74.045371
 21
225.95502
  0
LINE
  5
22F
100
AcDbEntity
  8
M0
 62
    34
100
AcDbLine
 10
75.045371
 20
226.955021
 11
75.04537
 21
228.655021
  0
ARC
  5
230
100
AcDbEntity
  8
M0
 62
    34
100
AcDbCircle
 10
74.045371
 20
226.95502
 40
1.0
100
AcDbArc
 50
270.0
 51
360.000036
  0
CIRCLE
  5
231
100
AcDbEntity
  8
M0
 62
    34
100
AcDbCircle
 10
82.345378
 20
215.155026
 40
4.25
  0
LINE
  5
232
100
AcDbEntity
  8
M0
 62
    34
100
AcDbLine
 10
114.952885
 20
206.654738
 11
114.952885
 21
207.854738
  0
LINE
  5
233
100
AcDbEntity
  8
M0
 62
    34
100
AcDbLine
 10
114.952885
 20
228.854727
 11
114.952885
 21
230.054724
  0
LINE
  5
234
100
AcDbEntity
  8
M0
 62
    34
100
AcDbLine
 10
130.452872
 20
206.654738
 11
114.952885
 21
206.654738
  0
LINE
  5
235
100
AcDbEntity
  8
M0
 62
    34
100
AcDbLine
 10
130.452872
 20
230.054724
 11
114.952885
 21
230.054724
  0
LINE
  5
236
100
AcDbEntity
  8
M0
 62
    34
100
AcDbLine
 10
130.452872
 20
207.854738
 11
126.652872
 21
207.854738
  0
LINE
  5
237
100
AcDbEntity
  8
M0
 62
    34
100
AcDbLine
 10
130.452872
 20
207.854738
 11
130.452872
 21
206.654738
  0
LINE
  5
238
100
AcDbEntity
  8
M0
 62
    34
100
AcDbLine
 10
117.952872
 20
208.554738
 11
122.102873
 21
208.554738
  0
LINE
  5
239
100
AcDbEntity
  8
M0
 62
    34
100
AcDbLine
 10
117.952872
 20
228.154731
 11
122.102873
 21
228.154731
  0
LINE
  5
23A
100
AcDbEntity
  8
M0
 62
    34
100
AcDbLine
 10
117.952872
 20
228.154731
 11
117.952872
 21
208.554738
  0
LINE
  5
23B
100
AcDbEntity
  8
M0
 62
    34
100
AcDbLine
 10
126.652872
 20
230.854727
 11
126.652872
 21
206.654738
  0
LINE
  5
23C
100
AcDbEntity
  8
M0
 62
    34
100
AcDbLine
 10
130.452872
 20
230.054724
 11
130.452872
 21
228.854727
  0
LINE
  5
23D
100
AcDbEntity
  8
M0
 62
    34
100
AcDbLine
 10
117.652872
 20
230.054724
 11
117.652872
 21
231.354727
  0
LINE
  5
23E
100
AcDbEntity
  8
M0
 62
    34
100
AcDbLine
 10
117.652872
 20
231.354727
 11
126.152872
 21
231.354727
  0
LINE
  5
23F
100
AcDbEntity
  8
M0
 62
    34
100
AcDbLine
 10
130.452872
 20
228.854727
 11
126.652872
 21
228.854727
  0
LINE
  5
240
100
AcDbEntity
  8
M0
 62
    34
100
AcDbLine
 10
122.102873
 20
207.854738
 11
114.952885
 21
207.854738
  0
LINE
  5
241
100
AcDbEntity
  8
M0
 62
    34
100
AcDbLine
 10
122.102873
 20
228.854727
 11
114.952885
 21
228.854727
  0
ARC
  5
242
100
AcDbEntity
  8
M0
 62
    34
100
AcDbCircle
 10
122.102873
 20
228.504737
 40
0.35
100
AcDbArc
 50
270.0
 51
360.0
  0
ARC
  5
243
100
AcDbEntity
  8
M0
 62
    34
100
AcDbCircle
 10
122.102873
 20
228.504737
 40
0.35
100
AcDbArc
 50
0.0
 51
90.0
  0
ARC
  5
244
100
AcDbEntity
  8
M0
 62
    34
100
AcDbCircle
 10
122.102873
 20
208.204738
 40
0.35
100
AcDbArc
 50
270.0
 51
360.0
  0
ARC
  5
245
100
AcDbEntity
  8
M0
 62
    34
100
AcDbCircle
 10
122.102873
 20
208.204738
 40
0.35
100
AcDbArc
 50
0.0
 51
90.0
  0
ARC
  5
246
100
AcDbEntity
  8
M0
 62
    34
100
AcDbCircle
 10
126.152872
 20
230.854727
 40
0.5
100
AcDbArc
 50
0.0
 51
90.0
  0
LINE
  5
247
100
AcDbEntity
  8
M0
  6
DASHDOT
 62
     1
100
AcDbLine
 10
74.902854
 20
206.654594
 11
55.187812
 21
206.654607
  0
LINE
  5
248
100
AcDbEntity
  8
M0
  6
DASHDOT
 62
     1
100
AcDbLine
 10
62.402854
 20
206.654602
 11
42.687813
 21
206.654615
  0
LINE
  5
249
100
AcDbEntity
  8
M0
  6
DASHDOT
 62
     1
100
AcDbLine
 10
49.902855
 20
206.65461
 11
30.188026
 21
206.654623
  0
LINE
  5
24A
100
AcDbEntity
  8
M0
 62
     1
100
AcDbLine
 10
68.545359
 20
211.154507
 11
61.545373
 21
211.154511
  0
LINE
  5
24B
100
AcDbEntity
  8
M0
 62
     1
100
AcDbLine
 10
33.545312
 20
184.654849
 11
33.545308
 21
178.654605
  0
LINE
  5
24C
100
AcDbEntity
  8
M0
 62
     1
100
AcDbLine
 10
33.545308
 20
178.654605
 11
71.545308
 21
178.654581
  0
LINE
  5
24D
100
AcDbEntity
  8
M0
 62
     1
100
AcDbLine
 10
71.545308
 20
178.654581
 11
71.545312
 21
184.654825
  0
LINE
  5
24E
100
AcDbEntity
  8
M0
  6
DASHDOT
 62
     1
100
AcDbLine
 10
52.545334
 20
218.412055
 11
52.545304
 21
172.647025
  0
LINE
  5
24F
100
AcDbEntity
  8
M0
  6
DASHDOT
 62
     1
100
AcDbLine
 10
40.045334
 20
218.412063
 11
40.045304
 21
172.647033
  0
LINE
  5
250
100
AcDbEntity
  8
M0
  6
DASHDOT
 62
     1
100
AcDbLine
 10
65.045333
 20
218.412047
 11
65.045304
 21
172.647017
  0
LINE
  5
251
100
AcDbEntity
  8
M0
 62
     1
100
AcDbLine
 10
58.545308
 20
178.654589
 11
58.545312
 21
184.654589
  0
LINE
  5
252
100
AcDbEntity
  8
M0
 62
     1
100
AcDbLine
 10
46.545308
 20
178.654597
 11
46.545312
 21
184.654597
  0
LINE
  5
253
100
AcDbEntity
  8
M0
 62
     1
100
AcDbLine
 10
35.045315
 20
189.654619
 11
45.045315
 21
189.654628
  0
LINE
  5
254
100
AcDbEntity
  8
M0
 62
     1
100
AcDbLine
 10
60.045312
 20
184.654589
 11
60.045315
 21
190.154619
  0
LINE
  5
255
100
AcDbEntity
  8
M0
 62
     1
100
AcDbLine
 10
70.045312
 20
184.654582
 11
70.045315
 21
189.654582
  0
LINE
  5
256
100
AcDbEntity
  8
M0
 62
     1
100
AcDbLine
 10
57.545312
 20
184.65459
 11
57.545315
 21
189.65459
  0
LINE
  5
257
100
AcDbEntity
  8
M0
 62
     1
100
AcDbLine
 10
47.545312
 20
184.654596
 11
47.545315
 21
189.654596
  0
LINE
  5
258
100
AcDbEntity
  8
M0
 62
     1
100
AcDbLine
 10
35.045312
 20
184.654604
 11
35.045315
 21
189.654604
  0
LINE
  5
259
100
AcDbEntity
  8
M0
 62
     1
100
AcDbLine
 10
45.045312
 20
184.654598
 11
45.045315
 21
190.154628
  0
LINE
  5
25A
100
AcDbEntity
  8
M0
 62
     1
100
AcDbLine
 10
36.545319
 20
196.454622
 11
43.545319
 21
196.454617
  0
LINE
  5
25B
100
AcDbEntity
  8
M0
  6
DASHED
 62
     1
100
AcDbLine
 10
36.545318
 20
194.154634
 11
43.545318
 21
194.154629
  0
LINE
  5
25C
100
AcDbEntity
  8
M0
 62
     1
100
AcDbLine
 10
61.545315
 20
189.654588
 11
61.545319
 21
196.454591
  0
LINE
  5
25D
100
AcDbEntity
  8
M0
 62
     1
100
AcDbLine
 10
68.545315
 20
189.654583
 11
68.545319
 21
196.454586
  0
LINE
  5
25E
100
AcDbEntity
  8
M0
 62
     1
100
AcDbLine
 10
36.545315
 20
189.654603
 11
36.545319
 21
196.454606
  0
LINE
  5
25F
100
AcDbEntity
  8
M0
 62
     1
100
AcDbLine
 10
43.545315
 20
189.654599
 11
43.545319
 21
196.454602
  0
LINE
  5
260
100
AcDbEntity
  8
M0
 62
     1
100
AcDbLine
 10
49.045315
 20
189.654595
 11
49.045315
 21
190.154641
  0
LINE
  5
261
100
AcDbEntity
  8
M0
 62
     1
100
AcDbLine
 10
56.045315
 20
189.654591
 11
56.045315
 21
190.154637
  0
LINE
  5
262
100
AcDbEntity
  8
M0
 62
     1
100
AcDbLine
 10
62.545319
 20
196.45459
 11
62.545321
 21
199.454621
  0
LINE
  5
263
100
AcDbEntity
  8
M0
 62
     1
100
AcDbLine
 10
67.545319
 20
196.454587
 11
67.545321
 21
199.454602
  0
LINE
  5
264
100
AcDbEntity
  8
M0
 62
     1
100
AcDbLine
 10
50.045318
 20
195.454628
 11
50.045321
 21
199.454628
  0
LINE
  5
265
100
AcDbEntity
  8
M0
 62
     1
100
AcDbLine
 10
55.045318
 20
195.454625
 11
55.045321
 21
199.45461
  0
LINE
  5
266
100
AcDbEntity
  8
M0
 62
     1
100
AcDbLine
 10
37.545319
 20
196.454606
 11
37.545321
 21
199.454651
  0
LINE
  5
267
100
AcDbEntity
  8
M0
 62
     1
100
AcDbLine
 10
42.545319
 20
196.454603
 11
42.545321
 21
199.454618
  0
LINE
  5
268
100
AcDbEntity
  8
M0
  6
DASHED
 62
     1
100
AcDbLine
 10
61.545318
 20
194.154618
 11
68.545318
 21
194.154629
  0
LINE
  5
269
100
AcDbEntity
  8
M0
  6
DASHED
 62
     1
100
AcDbLine
 10
49.045318
 20
194.154626
 11
56.045318
 21
194.154622
  0
LINE
  5
26A
100
AcDbEntity
  8
M0
 62
     1
100
AcDbLine
 10
61.545319
 20
196.454606
 11
68.545319
 21
196.454617
  0
LINE
  5
26B
100
AcDbEntity
  8
M0
 62
     1
100
AcDbLine
 10
49.045319
 20
196.454614
 11
50.045319
 21
196.454628
  0
LINE
  5
26C
100
AcDbEntity
  8
M0
 62
     1
100
AcDbLine
 10
56.045373
 20
211.154515
 11
49.045375
 21
211.154519
  0
LINE
  5
26D
100
AcDbEntity
  8
M0
 62
     1
100
AcDbLine
 10
43.545375
 20
211.154523
 11
36.545375
 21
211.154527
  0
LINE
  5
26E
100
AcDbEntity
  8
M0
 62
     1
100
AcDbLine
 10
62.545319
 20
196.454621
 11
62.545321
 21
199.454605
  0
LINE
  5
26F
100
AcDbEntity
  8
M0
 62
     1
100
AcDbLine
 10
67.545319
 20
196.454617
 11
67.545321
 21
199.454602
  0
LINE
  5
270
100
AcDbEntity
  8
M0
 62
     1
100
AcDbLine
 10
68.545367
 20
200.454434
 11
68.545374
 21
211.154141
  0
LINE
  5
271
100
AcDbEntity
  8
M0
 62
     1
100
AcDbLine
 10
61.545367
 20
200.454438
 11
61.545374
 21
211.154145
  0
LINE
  5
272
100
AcDbEntity
  8
M0
 62
     1
100
AcDbLine
 10
56.045367
 20
200.454441
 11
56.045374
 21
211.154149
  0
LINE
  5
273
100
AcDbEntity
  8
M0
 62
     1
100
AcDbLine
 10
49.045367
 20
200.454446
 11
49.045374
 21
211.154153
  0
LINE
  5
274
100
AcDbEntity
  8
M0
 62
     1
100
AcDbLine
 10
43.545367
 20
200.454449
 11
43.545374
 21
211.154156
  0
LINE
  5
275
100
AcDbEntity
  8
M0
 62
     1
100
AcDbLine
 10
36.545367
 20
200.454454
 11
36.545374
 21
211.154161
  0
LINE
  5
276
100
AcDbEntity
  8
M0
 62
     1
100
AcDbLine
 10
67.545321
 20
199.454602
 11
68.545367
 21
200.454601
  0
LINE
  5
277
100
AcDbEntity
  8
M0
 62
     1
100
AcDbLine
 10
62.545321
 20
199.454605
 11
61.545367
 21
200.454606
  0
LINE
  5
278
100
AcDbEntity
  8
M0
 62
     1
100
AcDbLine
 10
55.045321
 20
199.45461
 11
56.045367
 21
200.454609
  0
LINE
  5
279
100
AcDbEntity
  8
M0
 62
     1
100
AcDbLine
 10
50.045321
 20
199.454613
 11
49.045367
 21
200.454614
  0
LINE
  5
27A
100
AcDbEntity
  8
M0
 62
     1
100
AcDbLine
 10
42.545321
 20
199.454618
 11
43.545367
 21
200.454617
  0
LINE
  5
27B
100
AcDbEntity
  8
M0
 62
     1
100
AcDbLine
 10
37.545321
 20
199.454636
 11
36.545276
 21
200.454637
  0
LINE
  5
27C
100
AcDbEntity
  8
M0
 62
     1
100
AcDbLine
 10
55.045319
 20
196.454625
 11
56.045319
 21
196.454609
  0
LINE
  5
27D
100
AcDbEntity
  8
M0
 62
     1
100
AcDbLine
 10
61.545318
 20
195.454621
 11
43.545318
 21
195.454632
  0
LINE
  5
27E
100
AcDbEntity
  8
M0
 62
     1
100
AcDbLine
 10
61.545318
 20
194.154618
 11
43.545318
 21
194.154629
  0
LINE
  5
27F
100
AcDbEntity
  8
M0
 62
     1
100
AcDbLine
 10
61.545317
 20
193.154618
 11
52.545317
 21
193.154624
  0
LINE
  5
280
100
AcDbEntity
  8
M0
 62
     1
100
AcDbLine
 10
52.545317
 20
193.154624
 11
43.545317
 21
193.154629
  0
LINE
  5
281
100
AcDbEntity
  8
M0
 62
     1
100
AcDbLine
 10
69.445311
 20
194.154613
 11
69.445309
 21
189.654598
  0
LINE
  5
282
100
AcDbEntity
  8
M0
 62
     1
100
AcDbLine
 10
68.545318
 20
194.154629
 11
69.445311
 21
194.154628
  0
LINE
  5
283
100
AcDbEntity
  8
M0
 62
     1
100
AcDbLine
 10
45.045315
 20
190.154628
 11
60.045315
 21
190.154619
  0
LINE
  5
284
100
AcDbEntity
  8
M0
 62
     1
100
AcDbLine
 10
60.045315
 20
189.654619
 11
70.045315
 21
189.654597
  0
LINE
  5
285
100
AcDbEntity
  8
M0
 62
     1
100
AcDbLine
 10
47.545315
 20
189.654627
 11
57.545315
 21
189.654621
  0
LINE
  5
286
100
AcDbEntity
  8
M0
 62
     1
100
AcDbLine
 10
56.045318
 20
195.454625
 11
56.045319
 21
196.454594
  0
LINE
  5
287
100
AcDbEntity
  8
M0
 62
     1
100
AcDbLine
 10
49.045318
 20
195.454629
 11
49.045319
 21
196.454598
  0
LINE
  5
288
100
AcDbEntity
  8
M0
 62
     1
100
AcDbLine
 10
35.645324
 20
194.15465
 11
35.645321
 21
189.654634
  0
LINE
  5
289
100
AcDbEntity
  8
M0
 62
     1
100
AcDbLine
 10
36.545318
 20
194.154664
 11
35.645324
 21
194.154665
  0
CIRCLE
  5
28A
100
AcDbEntity
  8
M0
 62
     1
100
AcDbCircle
 10
65.045312
 20
184.65483
 40
4.499997
  0
CIRCLE
  5
28B
100
AcDbEntity
  8
M0
 62
     1
100
AcDbCircle
 10
52.545312
 20
184.654837
 40
4.499997
  0
CIRCLE
  5
28C
100
AcDbEntity
  8
M0
 62
     1
100
AcDbCircle
 10
40.045312
 20
184.654845
 40
4.499997
  0
LINE
  5
28D
100
AcDbEntity
  8
M0
 62
     1
100
AcDbLine
 10
71.545312
 20
184.654825
 11
70.045312
 21
184.654582
  0
LINE
  5
28E
100
AcDbEntity
  8
M0
 62
     1
100
AcDbLine
 10
60.045312
 20
184.654589
 11
58.545312
 21
184.654589
  0
LINE
  5
28F
100
AcDbEntity
  8
M0
 62
     1
100
AcDbLine
 10
58.545312
 20
184.654589
 11
57.545312
 21
184.65459
  0
LINE
  5
290
100
AcDbEntity
  8
M0
 62
     1
100
AcDbLine
 10
47.545312
 20
184.654596
 11
45.045312
 21
184.654598
  0
LINE
  5
291
100
AcDbEntity
  8
M0
 62
     1
100
AcDbLine
 10
35.045312
 20
184.654604
 11
33.545312
 21
184.654849
  0
LINE
  5
292
100
AcDbEntity
  8
M0
 62
     1
100
AcDbLine
 10
38.668907
 20
184.22345
 11
40.362573
 21
186.47499
  0
LINE
  5
293
100
AcDbEntity
  8
M0
 62
     1
100
AcDbLine
 10
39.867668
 20
183.321838
 11
41.561303
 21
185.573362
  0
LINE
  5
294
100
AcDbEntity
  8
M0
 62
     1
100
AcDbLine
 10
38.284006
 20
186.340286
 11
42.498848
 21
183.203412
  0
LINE
  5
295
100
AcDbEntity
  8
M0
 62
     1
100
AcDbLine
 10
50.784006
 20
186.340279
 11
54.998848
 21
183.203405
  0
LINE
  5
296
100
AcDbEntity
  8
M0
 62
     1
100
AcDbLine
 10
52.367668
 20
183.32183
 11
54.061303
 21
185.573354
  0
LINE
  5
297
100
AcDbEntity
  8
M0
 62
     1
100
AcDbLine
 10
51.168907
 20
184.223442
 11
52.862573
 21
186.474982
  0
LINE
  5
298
100
AcDbEntity
  8
M0
 62
     1
100
AcDbLine
 10
64.867668
 20
183.321822
 11
66.561303
 21
185.573347
  0
LINE
  5
299
100
AcDbEntity
  8
M0
 62
     1
100
AcDbLine
 10
63.668907
 20
184.223434
 11
65.362573
 21
186.474974
  0
LINE
  5
29A
100
AcDbEntity
  8
M0
 62
     1
100
AcDbLine
 10
63.284006
 20
186.340271
 11
67.498848
 21
183.203397
  0
LINE
  5
29B
100
AcDbEntity
  8
M0
  6
DASHDOT
 62
     1
100
AcDbLine
 10
35.545327
 20
184.654845
 11
44.545309
 21
184.654844
  0
LINE
  5
29C
100
AcDbEntity
  8
M0
  6
DASHDOT
 62
     1
100
AcDbLine
 10
40.045312
 20
180.154848
 11
40.045312
 21
189.154841
  0
LINE
  5
29D
100
AcDbEntity
  8
M0
 62
     1
100
AcDbLine
 10
126.952061
 20
178.056205
 11
120.951863
 21
178.055472
  0
LINE
  5
29E
100
AcDbEntity
  8
M0
 62
     1
100
AcDbLine
 10
121.952073
 20
184.055915
 11
121.95209
 21
192.555732
  0
LINE
  5
29F
100
AcDbEntity
  8
M0
 62
     1
100
AcDbLine
 10
125.251897
 20
193.555747
 11
132.952092
 21
193.555747
  0
LINE
  5
2A0
100
AcDbEntity
  8
M0
 62
     1
100
AcDbLine
 10
125.2519
 20
195.85571
 11
130.167752
 21
195.855702
  0
LINE
  5
2A1
100
AcDbEntity
  8
M0
 62
     1
100
AcDbLine
 10
124.251877
 20
184.055915
 11
124.251895
 21
192.555747
  0
ARC
  5
2A2
100
AcDbEntity
  8
M0
 62
     1
100
AcDbCircle
 10
125.251895
 20
192.555747
 40
1.0
100
AcDbArc
 50
90.0
 51
179.999126
  0
ARC
  5
2A3
100
AcDbEntity
  8
M0
 62
     1
100
AcDbCircle
 10
125.251895
 20
192.555732
 40
3.299994
100
AcDbArc
 50
90.0
 51
179.999735
  0
LINE
  5
2A4
100
AcDbEntity
  8
M0
 62
     1
100
AcDbLine
 10
120.951863
 20
184.055716
 11
126.952061
 21
184.055716
  0
LINE
  5
2A5
100
AcDbEntity
  8
M0
 62
     1
100
AcDbLine
 10
126.952073
 20
184.055915
 11
126.952061
 21
178.056403
  0
LINE
  5
2A6
100
AcDbEntity
  8
M0
 62
     1
100
AcDbLine
 10
144.951848
 20
184.055716
 11
150.952061
 21
184.055716
  0
LINE
  5
2A7
100
AcDbEntity
  8
M0
 62
     1
100
AcDbLine
 10
134.101739
 20
187.555793
 11
134.101742
 21
189.555793
  0
LINE
  5
2A8
100
AcDbEntity
  8
M0
 62
     1
100
AcDbLine
 10
144.951848
 20
178.05596
 11
150.952046
 21
178.055472
  0
LINE
  5
2A9
100
AcDbEntity
  8
M0
 62
     1
100
AcDbLine
 10
148.251876
 20
184.055884
 11
148.251893
 21
192.555747
  0
LINE
  5
2AA
100
AcDbEntity
  8
M0
 62
     1
100
AcDbLine
 10
144.95209
 20
193.555762
 11
140.101748
 21
193.555777
  0
LINE
  5
2AB
100
AcDbEntity
  8
M0
 62
     1
100
AcDbLine
 10
145.952071
 20
184.055884
 11
145.952088
 21
192.555762
  0
ARC
  5
2AC
100
AcDbEntity
  8
M0
 62
     1
100
AcDbCircle
 10
144.952088
 20
192.555762
 40
1.0
100
AcDbArc
 50
0.0
 51
90.0
  0
ARC
  5
2AD
100
AcDbEntity
  8
M0
 62
     1
100
AcDbCircle
 10
144.952088
 20
192.555747
 40
3.299994
100
AcDbArc
 50
0.0
 51
23.195051
  0
LINE
  5
2AE
100
AcDbEntity
  8
M0
 62
     1
100
AcDbLine
 10
120.951863
 20
189.055716
 11
124.251881
 21
189.055716
  0
LINE
  5
2AF
100
AcDbEntity
  8
M0
 62
     1
100
AcDbLine
 10
150.952071
 20
184.055884
 11
150.952059
 21
178.05564
  0
LINE
  5
2B0
100
AcDbEntity
  8
M0
 62
     1
100
AcDbLine
 10
144.951848
 20
189.055472
 11
148.251881
 21
189.055472
  0
LINE
  5
2B1
100
AcDbEntity
  8
M0
  6
DASHDOT
 62
     1
100
AcDbLine
 10
116.403264
 20
184.058142
 11
130.009934
 21
184.058112
  0
LINE
  5
2B2
100
AcDbEntity
  8
M0
 62
     1
100
AcDbLine
 10
118.190236
 20
179.686072
 11
119.651875
 21
179.558356
  0
ARC
  5
2B3
100
AcDbEntity
  8
M0
 62
     1
100
AcDbCircle
 10
128.351586
 20
184.058112
 40
11.999993
100
AcDbArc
 50
164.507611
 51
195.491948
  0
ARC
  5
2B4
100
AcDbEntity
  8
M0
 62
     1
100
AcDbCircle
 10
118.329396
 20
181.280066
 40
1.599995
100
AcDbArc
 50
195.486497
 51
265.010875
  0
LINE
  5
2B5
100
AcDbEntity
  8
M0
 62
     1
100
AcDbLine
 10
118.189992
 20
188.430121
 11
119.651646
 21
188.557776
  0
ARC
  5
2B6
100
AcDbEntity
  8
M0
 62
     1
100
AcDbCircle
 10
118.329152
 20
186.836127
 40
1.599992
100
AcDbArc
 50
94.989077
 51
164.512831
  0
LINE
  5
2B7
100
AcDbEntity
  8
M0
 62
     1
100
AcDbLine
 10
124.251881
 20
186.557914
 11
130.751866
 21
186.557914
  0
LINE
  5
2B8
100
AcDbEntity
  8
M0
 62
     1
100
AcDbLine
 10
126.952061
 20
181.557914
 11
130.751866
 21
181.557914
  0
LINE
  5
2B9
100
AcDbEntity
  8
M0
 62
     1
100
AcDbLine
 10
142.1902
 20
179.686011
 11
143.651869
 21
179.558326
  0
ARC
  5
2BA
100
AcDbEntity
  8
M0
 62
     1
100
AcDbCircle
 10
152.351567
 20
184.058051
 40
11.999993
100
AcDbArc
 50
164.507992
 51
195.490801
  0
ARC
  5
2BB
100
AcDbEntity
  8
M0
 62
     1
100
AcDbCircle
 10
142.329364
 20
181.280005
 40
1.599995
100
AcDbArc
 50
195.477969
 51
265.009582
  0
LINE
  5
2BC
100
AcDbEntity
  8
M0
 62
     1
100
AcDbLine
 10
142.189973
 20
188.43006
 11
143.651642
 21
188.557746
  0
ARC
  5
2BD
100
AcDbEntity
  8
M0
 62
     1
100
AcDbCircle
 10
142.329129
 20
186.836066
 40
1.599992
100
AcDbArc
 50
94.989418
 51
164.51354
  0
LINE
  5
2BE
100
AcDbEntity
  8
M0
 62
     1
100
AcDbLine
 10
148.251881
 20
186.557914
 11
154.751851
 21
186.557914
  0
LINE
  5
2BF
100
AcDbEntity
  8
M0
 62
     1
100
AcDbLine
 10
150.952061
 20
181.557914
 11
154.751851
 21
181.557914
  0
LINE
  5
2C0
100
AcDbEntity
  8
M0
 62
     1
100
AcDbLine
 10
125.751897
 20
193.555793
 11
136.601749
 21
193.555762
  0
LINE
  5
2C1
100
AcDbEntity
  8
M0
 62
     1
100
AcDbLine
 10
145.251895
 20
193.855521
 11
145.251887
 21
189.555762
  0
LINE
  5
2C2
100
AcDbEntity
  8
M0
 62
     1
100
AcDbLine
 10
145.251887
 20
189.555762
 11
134.101742
 21
189.555808
  0
LINE
  5
2C3
100
AcDbEntity
  8
M0
 62
     1
100
AcDbLine
 10
124.251889
 20
189.555793
 11
124.251893
 21
192.055808
  0
LINE
  5
2C4
100
AcDbEntity
  8
M0
 62
     1
100
AcDbLine
 10
134.101739
 20
187.555808
 11
124.251885
 21
187.555793
  0
LINE
  5
2C5
100
AcDbEntity
  8
M0
 62
     1
100
AcDbLine
 10
136.601747
 20
192.555762
 11
145.251893
 21
192.555762
  0
LINE
  5
2C6
100
AcDbEntity
  8
M0
 62
     1
100
AcDbLine
 10
136.601747
 20
192.555762
 11
136.60175
 21
194.355643
  0
LINE
  5
2C7
100
AcDbEntity
  8
M0
 62
     1
100
AcDbLine
 10
140.101748
 20
193.555762
 11
140.101749
 21
194.355597
  0
LINE
  5
2C8
100
AcDbEntity
  8
M0
 62
     1
100
AcDbLine
 10
140.101748
 20
193.555762
 11
145.251895
 21
193.555762
  0
LINE
  5
2C9
100
AcDbEntity
  8
M0
  6
DASHDOT
 62
     1
100
AcDbLine
 10
139.439864
 20
184.05857
 11
160.764561
 21
184.058539
  0
LINE
  5
2CA
100
AcDbEntity
  8
M0
 62
     1
100
AcDbLine
 10
130.751866
 20
186.557914
 11
130.751866
 21
181.557914
  0
LINE
  5
2CB
100
AcDbEntity
  8
M0
 62
     1
100
AcDbLine
 10
154.751851
 20
186.557914
 11
154.751851
 21
181.557914
  0
LINE
  5
2CC
100
AcDbEntity
  8
M0
 62
     1
100
AcDbLine
 10
144.951848
 20
178.055716
 11
144.951848
 21
189.055472
  0
LINE
  5
2CD
100
AcDbEntity
  8
M0
 62
     1
100
AcDbLine
 10
120.951863
 20
178.055472
 11
120.951863
 21
189.055716
  0
LINE
  5
2CE
100
AcDbEntity
  8
M0
 62
     1
100
AcDbLine
 10
143.651845
 20
179.458304
 11
143.651845
 21
188.658255
  0
LINE
  5
2CF
100
AcDbEntity
  8
M0
 62
     1
100
AcDbLine
 10
119.65186
 20
179.457816
 11
119.65186
 21
188.657767
  0
LINE
  5
2D0
100
AcDbEntity
  8
M0
 62
     1
100
AcDbLine
 10
143.651845
 20
188.658255
 11
144.951848
 21
188.658255
  0
LINE
  5
2D1
100
AcDbEntity
  8
M0
 62
     1
100
AcDbLine
 10
143.651845
 20
179.458304
 11
144.951848
 21
179.458304
  0
LINE
  5
2D2
100
AcDbEntity
  8
M0
 62
     1
100
AcDbLine
 10
119.65186
 20
188.657767
 11
120.951863
 21
188.657767
  0
LINE
  5
2D3
100
AcDbEntity
  8
M0
 62
     1
100
AcDbLine
 10
119.65186
 20
179.457816
 11
120.951863
 21
179.457816
  0
LINE
  5
2D4
100
AcDbEntity
  8
M0
100
AcDbLine
 10
77.772786
 20
228.00513
 11
77.772786
 21
225.20513
  0
LINE
  5
2D5
100
AcDbEntity
  8
M0
100
AcDbLine
 10
77.772786
 20
225.20513
 11
79.772786
 21
225.20513
  0
LINE
  5
2D6
100
AcDbEntity
  8
M0
100
AcDbLine
 10
79.772786
 20
228.00513
 11
79.772786
 21
225.20513
  0
LINE
  5
2D7
100
AcDbEntity
  8
M0
100
AcDbLine
 10
77.772786
 20
228.005663
 11
79.772786
 21
228.005663
  0
LINE
  5
2D8
100
AcDbEntity
  8
M1
 62
     2
100
AcDbLine
 10
10.0
 20
10.0
 11
10.0
 21
285.0
  0
LINE
  5
2D9
100
AcDbEntity
  8
M1
 62
     2
100
AcDbLine
 10
10.0
 20
285.0
 11
200.0
 21
285.0
  0
LINE
  5
2DA
100
AcDbEntity
  8
M1
 62
     2
100
AcDbLine
 10
200.0
 20
285.0
 11
200.0
 21
10.0
  0
LINE
  5
2DB
100
AcDbEntity
  8
M1
 62
     2
100
AcDbLine
 10
200.0
 20
10.0
 11
10.0
 21
10.0
  0
LINE
  5
2DC
100
AcDbEntity
  8
M1
 62
     2
100
AcDbLine
 10
200.0
 20
20.0
 11
100.0
 21
20.0
  0
LINE
  5
2DD
100
AcDbEntity
  8
M1
 62
     2
100
AcDbLine
 10
200.0
 20
30.0
 11
100.0
 21
30.0
  0
LINE
  5
2DE
100
AcDbEntity
  8
M1
 62
     2
100
AcDbLine
 10
200.0
 20
40.0
 11
100.0
 21
40.0
  0
LINE
  5
2DF
100
AcDbEntity
  8
M1
 62
     2
100
AcDbLine
 10
100.0
 20
10.0
 11
100.0
 21
40.0
  0
TEXT
  5
2E0
100
AcDbEntity
  8
M1
 62
     2
100
AcDbText
 10
102.5
 20
12.5
 40
5.0
  1
適　用；
  7
STANDARD
100
AcDbText
  0
TEXT
  5
2E1
100
AcDbEntity
  8
M1
 62
     2
100
AcDbText
 10
102.5
 20
32.5
 40
5.0
  1
登録名：
  7
STANDARD
100
AcDbText
  0
TEXT
  5
2E2
100
AcDbEntity
  8
M1
 62
     2
100
AcDbText
 10
126.5
 20
32.5
 40
5.0
  1
ＤＭＴＲ２５Ｂ１ＥＲ００
 41
0.5
  7
STANDARD
100
AcDbText
  0
TEXT
  5
2E3
100
AcDbEntity
  8
M1
 62
     2
100
AcDbText
 10
102.5
 20
22.5
 40
5.0
  1
形　式；
  7
STANDARD
100
AcDbText
  0
TEXT
  5
2E4
100
AcDbEntity
  8
M1
 62
     2
100
AcDbText
 10
126.5
 20
22.5
 40
5.0
  1
ＴＲ２５Ｂ－１Ｅ，ＴＲ２５Ｂ－１ＥＦ，ＴＲ２５Ｂ－２Ｅ，ＴＲ２５Ｂ－２ＥＦ
 41
0.25
  7
STANDARD
100
AcDbText
  0
LINE
  5
2E5
100
AcDbEntity
  8
DN0
100
AcDbLine
 10
32.381153
 20
129.446503
 11
82.67115
 21
129.446503
  0
TEXT
  5
2E6
100
AcDbEntity
  8
DN0
100
AcDbText
 10
32.94282
 20
129.946503
 40
5.0
  1
単独使用できません。
 41
0.833333
  7
STANDARD
100
AcDbText
  0
TEXT
  5
2E7
100
AcDbEntity
  8
DN0
100
AcDbText
 10
33.531644
 20
122.529961
 40
3.15
  1
電磁接触器Ｈ８Ｃ，Ｈ１０Ｃ，
 41
0.833333
  7
STANDARD
100
AcDbText
  0
TEXT
  5
2E8
100
AcDbEntity
  8
DN0
100
AcDbText
 10
33.531644
 20
117.979958
 40
3.15
  1
Ｈ１１，Ｈ１２，Ｈ１０Ｂ－Ｒ
 41
0.833333
  7
STANDARD
100
AcDbText
  0
TEXT
  5
2E9
100
AcDbEntity
  8
DN0
100
AcDbText
 10
33.531644
 20
113.429955
 40
3.15
  1
と組み合わせ専用品です。
 41
0.833333
  7
STANDARD
100
AcDbText
  0
ENDSEC
  0
SECTION
  2
OBJECTS
  0
DICTIONARY
  5
C
100
AcDbDictionary
  3
ACAD_GROUP
350
D
  3
ACAD_MLINESTYLE
350
E
  0
DICTIONARY
  5
D
102
{ACAD_REACTORS
330
C
102
}
100
AcDbDictionary
  0
DICTIONARY
  5
E
102
{ACAD_REACTORS
330
C
102
}
100
AcDbDictionary
  3
STANDARD
350
13
  0
MLINESTYLE
  5
13
102
{ACAD_REACTORS
330
E
102
}
100
AcDbMlineStyle
  2
STANDARD
 70
     0
  3

 62
     0
 51
90.0
 52
90.0
 71
     2
 49
0.5
 62
   256
  6
BYLAYER
 49
-0.5
 62
   256
  6
BYLAYER
  0
ENDSEC
  0
EOF
