  0
SECTION
  2
HEADER
  9
$ACADVER
  1
AC1014
  9
$INSBASE
 10
0.000000
 20
0.000000
 30
0.0
  9
$VIEWCTR
 10
7.531722
 20
4.5
  9
$VIEWSIZE
 40
9.0
  9
$SNAPMODE
 70
     0
  9
$SNAPUNIT
 10
1.0
 20
1.0
  9
$SNAPBASE
 10
0.0
 20
0.0
  9
$SNAPANG
 50
0.0
  9
$SNAPSTYLE
 70
     0
  9
$SNAPISOPAIR
 70
     0
  9
$GRIDMODE
 70
     0
  9
$GRIDUNIT
 10
0.0
 20
0.0
  9
$ORTHOMODE
 70
     0
  9
$REGENMODE
 70
     1
  9
$FILLMODE
 70
     1
  9
$QTEXTMODE
 70
     0
  9
$DRAGMODE
 70
     2
  9
$LTSCALE
  40
     1.000000
  9
$OSMODE
 70
     0
  9
$ATTMODE
 70
     1
  9
$TEXTSIZE
 40
0.2
  9
$TRACEWID
 40
0.05
  9
$TEXTSTYLE
  7
STANDARD
  9
$CELTYPE
  6
BYLAYER
  9
$CECOLOR
 62
   256
  9
$DIMSCALE
 40
1.0
  9
$DIMASZ
 40
0.18
  9
$DIMEXO
 40
0.0625
  9
$DIMDLI
 40
0.38
  9
$DIMRND
 40
0.0
  9
$DIMDLE
 40
0.0
  9
$DIMEXE
 40
0.18
  9
$DIMTP
 40
0.0
  9
$DIMTM
 40
0.0
  9
$DIMTXT
 40
0.18
  9
$DIMCEN
 40
0.09
  9
$DIMTSZ
 40
0.0
  9
$DIMTOL
 70
     0
  9
$DIMLIM
 70
     0
  9
$DIMTIH
 70
     1
  9
$DIMTOH
 70
     1
  9
$DIMSE1
 70
     0
  9
$DIMSE2
 70
     0
  9
$DIMTAD
 70
     0
  9
$DIMZIN
 70
     0
  9
$DIMBLK
  1

  9
$LUNITS
 70
     2
  9
$LUPREC
 70
     4
  9
$AXISMODE
 70
     0
  9
$AXISUNIT
 10
0.0
 20
0.0
  9
$SKETCHINC
 40
0.1
  9
$FILLETRAD
 40
0.0
  9
$AUNITS
 70
     0
  9
$AUPREC
 70
     0
  9
$MENU
  1
ACAD
  9
$ELEVATION
 40
0.0
  9
$THICKNESS
 40
0.0
  9
$VIEWDIR
 10
0.0
 20
0.0
 30
1.0
  9
$LIMCHECK
 70
     0
  9
$BLIPMODE
 70
     1
  9
$CHAMFERA
 40
0.0
  9
$CHAMFERB
 40
0.0
  9
$FASTZOOM
 70
     1
  9
$SKPOLY
 70
     0
  9
$TDCREATE
 40
0000000.0000000000
  9
$TDUPDATE
 40
0000000.0000000000
  9
$TDINDWG
 40
0.0000000000
  9
$TDUSRTIMER
 40
0.0000000000
  9
$USRTIMER
 70
     1
  9
$ANGBASE
 50
0.0
  9
$ANGDIR
 70
     0
  9
$PDMODE
 70
     0
  9
$PDSIZE
 40
0.0
  9
$PLINEWID
 40
0.0
  9
$COORDS
 70
     0
  9
$USERI1
 70
     0
  9
$USERI2
 70
     0
  9
$USERI3
 70
     0
  9
$USERI4
 70
     0
  9
$USERI5
 70
     0
  9
$USERR1
 40
0.0
  9
$USERR2
 40
0.0
  9
$USERR3
 40
0.0
  9
$USERR4
 40
0.0
  9
$USERR5
 40
0.0
  9
$CLAYER
  8
M0
  9
$EXTMIN
 10
25.0
 20
25.0
  9
$EXTMAX
 10
499.999993
 20
712.499989
  9
$LIMMIN
 10
0.0
 20
0.0
  9
$LIMMAX
 10
210.0
 20
297.0
  9
$HANDSEED
  5
469
  0
ENDSEC
  0
SECTION
  2
CLASSES
  0
ENDSEC
  0
SECTION
  2
TABLES
  0
TABLE
  2
VPORT
  5
8
100
AcDbSymbolTable
 70
     2
  0
VPORT
  5
14
100
AcDbSymbolTableRecord
100
AcDbViewportTableRecord
  2
*ACTIVE
 70
     0
 10
0.0
 20
0.0
 11
1.0
 21
1.0
 12
484.0
 22
297.0
 13
0.0
 23
0.0
 14
1.0
 24
1.0
 15
0.0
 25
0.0
 16
0.0
 26
0.0
 36
1.0
 17
0.0
 27
0.0
 37
0.0
 40
594.0
 41
2.0
 42
50.0
 43
0.0
 44
0.0
 50
0.0
 51
0.0
 71
     0
 72
   100
 73
     1
 74
     1
 75
     0
 76
     0
 77
     0
 78
     0
  0
ENDTAB
  0
TABLE
  2
LTYPE
  5
5
100
AcDbSymbolTable
 70
     5
  0
LTYPE
  5
15
100
AcDbSymbolTableRecord
100
AcDbLinetypeTableRecord
  2
BYBLOCK
 70
     0
  3

 72
    65
 73
     0
 40
0.0
  0
LTYPE
  5
16
100
AcDbSymbolTableRecord
100
AcDbLinetypeTableRecord
  2
BYLAYER
 70
     0
  3

 72
    65
 73
     0
 40
0.0
  0
LTYPE
  5
17
100
AcDbSymbolTableRecord
100
AcDbLinetypeTableRecord
  2
CONTINUOUS
 70
    64
  3
Solid line
 72
    65
 73
     0
 40
0.0
  0
LTYPE
  5
18
100
AcDbSymbolTableRecord
100
AcDbLinetypeTableRecord
  2
DASHED
 70
    64
  3
__ __ __ __ __ __ __ __ __ __ __ __ __ __ __ __
 72
    65
 73
     2
 40
0.75
 49
0.5
 74
     0
 49
-0.25
 74
     0
  0
LTYPE
  5
19
100
AcDbSymbolTableRecord
100
AcDbLinetypeTableRecord
  2
DASHDOT
 70
    64
  3
__ . __ . __ . __ . __ . __ . __ . __ . __ . __
 72
    65
 73
     4
 40
1.0
 49
0.5
 74
     0
 49
-0.25
 74
     0
 49
0.0
 74
     0
 49
-0.25
 74
     0
  0
LTYPE
  5
1A
100
AcDbSymbolTableRecord
100
AcDbLinetypeTableRecord
  2
DIVIDE
 70
    64
  3
____ . . ____ . . ____ . . ____ . . ____ . . __
 72
    65
 73
     6
 40
1.25
 49
0.5
 74
     0
 49
-0.25
 74
     0
 49
0.0
 74
     0
 49
-0.25
 74
     0
 49
0.0
 74
     0
 49
-0.25
 74
     0
  0
LTYPE
  5
1B
100
AcDbSymbolTableRecord
100
AcDbLinetypeTableRecord
  2
DOT
 70
    64
  3
. . . . . . . . . . . . . . . . . . . . . . . .
 72
    65
 73
     2
 40
0.25
 49
0.0
 74
     0
 49
-0.25
 74
     0
  0
ENDTAB
  0
TABLE
  2
LAYER
  5
2
100
AcDbSymbolTable
 70
   102
  0
LAYER
  5
F
100
AcDbSymbolTableRecord
100
AcDbLayerTableRecord
  2
0
 70
     0
 62
     7
  6
CONTINUOUS
  0
LAYER
  5
1C
100
AcDbSymbolTableRecord
100
AcDbLayerTableRecord
  2
DEFPOINTS
 70
     0
 62
     7
  6
CONTINUOUS
  0
LAYER
  5
1D
100
AcDbSymbolTableRecord
100
AcDbLayerTableRecord
  2
M0
 70
     0
 62
     3
  6
CONTINUOUS
  0
LAYER
  5
1E
100
AcDbSymbolTableRecord
100
AcDbLayerTableRecord
  2
M1
 70
     0
 62
     3
  6
CONTINUOUS
  0
LAYER
  5
1F
100
AcDbSymbolTableRecord
100
AcDbLayerTableRecord
  2
DD0
 70
     0
 62
     4
  6
CONTINUOUS
  0
LAYER
  5
20
100
AcDbSymbolTableRecord
100
AcDbLayerTableRecord
  2
DN0
 70
     0
 62
     2
  6
CONTINUOUS
  0
ENDTAB
  0
TABLE
  2
STYLE
  5
3
100
AcDbSymbolTable
 70
     2
  0
STYLE
  5
10
100
AcDbSymbolTableRecord
100
AcDbTextStyleTableRecord
  2
STANDARD
 70
     0
 40
0.0
 41
1.0
 50
0.0
 71
     0
 42
0.2
  3
txt
  4
BIGFONT
  0
ENDTAB
  0
TABLE
  2
VIEW
  5
6
100
AcDbSymbolTable
 70
     0
  0
ENDTAB
  0
TABLE
  2
UCS
  5
7
100
AcDbSymbolTable
 70
     0
  0
ENDTAB
  0
TABLE
  2
APPID
  5
9
100
AcDbSymbolTable
 70
     1
  0
APPID
  5
11
100
AcDbSymbolTableRecord
100
AcDbRegAppTableRecord
  2
ACAD
 70
     0
  0
ENDTAB
  0
TABLE
  2
DIMSTYLE
  5
A
100
AcDbSymbolTable
 70
     2
  0
DIMSTYLE
105
27
100
AcDbSymbolTableRecord
100
AcDbDimStyleTableRecord
  2
STANDARD
 70
     0
  3

  4

  5

  6
_OPEN
  7
_OPEN
 40
1.0
 41
7.5
 42
1.0
 43
8.0
 44
1.0
 45
0.0
 46
0.0
 47
0.0
 48
0.0
140
7.875
141
0.09
142
0.0
143
0.03937
144
1.0
145
0.0
146
1.0
147
0.6
 71
     0
 72
     0
 73
     1
 74
     1
 75
     0
 76
     0
 77
     3
 78
     8
170
     0
171
     2
172
     0
173
     1
174
     0
175
     0
176
     0
177
     0
178
     0
270
     2
271
     2
272
     4
273
     2
274
     2
340
10
275
     0
280
     0
281
     0
282
     0
283
     1
284
     0
285
     0
286
     0
287
     3
288
     0
  0
DIMSTYLE
105
28
100
AcDbSymbolTableRecord
100
AcDbDimStyleTableRecord
  2
LEADSTYL
 70
     0
  3

  4

  5

  6
_OPEN
  7
_OPEN
 40
1.0
 41
7.5
 42
0.0625
 43
0.38
 44
0.18
 45
0.0
 46
0.0
 47
0.0
 48
0.0
140
7.875
141
0.09
142
0.0
143
25.4
144
1.0
145
0.0
146
1.0
147
0.6
 71
     0
 72
     0
 73
     1
 74
     1
 75
     0
 76
     0
 77
     0
 78
     0
170
     0
171
     2
172
     0
173
     1
174
     0
175
     0
176
     0
177
     0
178
     0
270
     2
271
     4
272
     4
273
     2
274
     2
340
10
275
     0
280
     0
281
     0
282
     0
283
     1
284
     0
285
     0
286
     0
287
     3
288
     0
  0
ENDTAB
  0
TABLE
  2
BLOCK_RECORD
  5
1
100
AcDbSymbolTable
 70
    10
  0
BLOCK_RECORD
  5
21
100
AcDbSymbolTableRecord
100
AcDbBlockTableRecord
  2
*MODEL_SPACE
  0
BLOCK_RECORD
  5
24
100
AcDbSymbolTableRecord
100
AcDbBlockTableRecord
  2
*PAPER_SPACE
  0
BLOCK_RECORD
  5
29
100
AcDbSymbolTableRecord
100
AcDbBlockTableRecord
  2
_NONE
  0
BLOCK_RECORD
  5
2D
100
AcDbSymbolTableRecord
100
AcDbBlockTableRecord
  2
_OPEN
  0
BLOCK_RECORD
  5
33
100
AcDbSymbolTableRecord
100
AcDbBlockTableRecord
  2
_CLOSED
  0
BLOCK_RECORD
  5
3A
100
AcDbSymbolTableRecord
100
AcDbBlockTableRecord
  2
_ORIGIN
  0
BLOCK_RECORD
  5
3F
100
AcDbSymbolTableRecord
100
AcDbBlockTableRecord
  2
_DOT
  0
BLOCK_RECORD
  5
47
100
AcDbSymbolTableRecord
100
AcDbBlockTableRecord
  2
_OBLIQUE
  0
BLOCK_RECORD
  5
4B
100
AcDbSymbolTableRecord
100
AcDbBlockTableRecord
  2
DIMS0
  0
BLOCK_RECORD
  5
57
100
AcDbSymbolTableRecord
100
AcDbBlockTableRecord
  2
DIMS1
  0
BLOCK_RECORD
  5
63
100
AcDbSymbolTableRecord
100
AcDbBlockTableRecord
  2
DIMS2
  0
BLOCK_RECORD
  5
6F
100
AcDbSymbolTableRecord
100
AcDbBlockTableRecord
  2
DIMS3
  0
ENDTAB
  0
ENDSEC
  0
SECTION
  2
BLOCKS
  0
BLOCK
  5
22
100
AcDbEntity
  8
0
100
AcDbBlockBegin
  2
*MODEL_SPACE
 70
     0
 10
0.0
 20
0.0
 30
0.0
  3
*MODEL_SPACE
  1

  0
ENDBLK
  5
23
100
AcDbEntity
  8
0
100
AcDbBlockEnd
  0
BLOCK
  5
25
100
AcDbEntity
 67
     1
  8
0
100
AcDbBlockBegin
  2
*PAPER_SPACE
 70
     0
 10
0.0
 20
0.0
 30
0.0
  3
*PAPER_SPACE
  1

  0
ENDBLK
  5
26
100
AcDbEntity
 67
     1
  8
0
100
AcDbBlockEnd
  0
BLOCK
  5
2A
100
AcDbEntity
  8
0
100
AcDbBlockBegin
  2
_NONE
 70
     0
 10
0.0
 20
0.0
  0
CIRCLE
  5
2B
100
AcDbEntity
  8
0
 62
     0
100
AcDbCircle
 10
0.0
 20
0.0
 40
0.25
  0
ENDBLK
  5
2C
100
AcDbEntity
  8
0
100
AcDbBlockEnd
  0
BLOCK
  5
2E
100
AcDbEntity
  8
0
100
AcDbBlockBegin
  2
_OPEN
 70
     0
 10
0.0
 20
0.0
  0
LINE
  5
2F
100
AcDbEntity
  8
0
 62
     0
100
AcDbLine
 10
-0.965926
 20
0.258819
 11
0.0
 21
0.0
  0
LINE
  5
30
100
AcDbEntity
  8
0
 62
     0
100
AcDbLine
 10
0.0
 20
0.0
 11
-0.965926
 21
-0.258819
  0
LINE
  5
31
100
AcDbEntity
  8
0
 62
     0
100
AcDbLine
 10
0.0
 20
0.0
 11
-1.0
 21
0.0
  0
ENDBLK
  5
32
100
AcDbEntity
  8
0
100
AcDbBlockEnd
  0
BLOCK
  5
34
100
AcDbEntity
  8
0
100
AcDbBlockBegin
  2
_CLOSED
 70
     0
 10
0.0
 20
0.0
  0
LINE
  5
35
100
AcDbEntity
  8
0
 62
     0
100
AcDbLine
 10
-0.965926
 20
0.258819
 11
0.0
 21
0.0
  0
LINE
  5
36
100
AcDbEntity
  8
0
 62
     0
100
AcDbLine
 10
0.0
 20
0.0
 11
-0.965926
 21
-0.258819
  0
LINE
  5
37
100
AcDbEntity
  8
0
 62
     0
100
AcDbLine
 10
-0.965926
 20
0.258819
 11
-0.965926
 21
-0.258819
  0
LINE
  5
38
100
AcDbEntity
  8
0
 62
     0
100
AcDbLine
 10
0.0
 20
0.0
 11
-1.0
 21
0.0
  0
ENDBLK
  5
39
100
AcDbEntity
  8
0
100
AcDbBlockEnd
  0
BLOCK
  5
3B
100
AcDbEntity
  8
0
100
AcDbBlockBegin
  2
_ORIGIN
 70
     0
 10
0.0
 20
0.0
  0
CIRCLE
  5
3C
100
AcDbEntity
  8
0
 62
     0
100
AcDbCircle
 10
0.0
 20
0.0
 40
0.5
  0
LINE
  5
3D
100
AcDbEntity
  8
0
 62
     0
100
AcDbLine
 10
0.0
 20
0.0
 11
-1.0
 21
0.0
  0
ENDBLK
  5
3E
100
AcDbEntity
  8
0
100
AcDbBlockEnd
  0
BLOCK
  5
40
100
AcDbEntity
  8
0
100
AcDbBlockBegin
  2
_DOT
 70
     0
 10
0.0
 20
0.0
  0
POLYLINE
  5
41
100
AcDbEntity
  8
0
 62
     0
100
AcDb2dPolyline
 66
     1
 70
     1
 40
0.5
 41
0.5
  0
VERTEX
  5
42
100
AcDbEntity
  8
0
 62
     0
100
AcDbVertex
100
AcDb2dVertex
 10
-0.25
 20
0.0
 42
1.0
  0
VERTEX
  5
43
100
AcDbEntity
  8
0
 62
     0
100
AcDbVertex
100
AcDb2dVertex
 10
0.25
 20
0.0
 42
1.0
  0
SEQEND
  5
44
100
AcDbEntity
  8
0
 62
     0
  0
LINE
  5
45
100
AcDbEntity
  8
0
 62
     0
100
AcDbLine
 10
-0.5
 20
0.0
 11
-1.0
 21
0.0
  0
ENDBLK
  5
46
100
AcDbEntity
  8
0
100
AcDbBlockEnd
  0
BLOCK
  5
48
100
AcDbEntity
  8
0
100
AcDbBlockBegin
  2
_OBLIQUE
 70
     0
 10
0.0
 20
0.0
  0
LINE
  5
49
100
AcDbEntity
  8
0
 62
     0
100
AcDbLine
 10
-0.353553
 20
-0.353553
 11
0.353553
 21
0.353553
  0
ENDBLK
  5
4A
100
AcDbEntity
  8
0
100
AcDbBlockEnd
  0
BLOCK
  5
4C
100
AcDbEntity
  8
DD0
100
AcDbBlockBegin
  2
DIMS0
 70
     0
 10
0.0
 20
0.0
  0
LINE
  5
4D
100
AcDbEntity
  8
DD0
100
AcDbLine
 10
464.295686
 20
482.915146
 11
464.295686
 21
621.160078
  0
LINE
  5
4E
100
AcDbEntity
  8
DD0
100
AcDbLine
 10
294.795814
 20
522.417442
 11
294.795814
 21
621.160078
  0
LINE
  5
4F
100
AcDbEntity
  8
DD0
100
AcDbLine
 10
457.051242
 20
616.718936
 11
464.295686
 21
618.660078
  0
LINE
  5
50
100
AcDbEntity
  8
DD0
100
AcDbLine
 10
464.295686
 20
618.660078
 11
457.051242
 21
620.601221
  0
LINE
  5
51
100
AcDbEntity
  8
DD0
100
AcDbLine
 10
302.040258
 20
620.601221
 11
294.795814
 21
618.660078
  0
LINE
  5
52
100
AcDbEntity
  8
DD0
100
AcDbLine
 10
294.795814
 20
618.660078
 11
302.040258
 21
616.718936
  0
LINE
  5
53
100
AcDbEntity
  8
DD0
100
AcDbLine
 10
464.295686
 20
618.660078
 11
294.795814
 21
618.660078
  0
TEXT
  5
54
100
AcDbEntity
  8
DD0
100
AcDbText
 10
360.501993
 20
620.160094
 40
7.875
  1
１６９．５
 41
0.833333
  7
STANDARD
100
AcDbText
  0
ENDBLK
  5
55
100
AcDbEntity
  8
DD0
100
AcDbBlockEnd
  0
BLOCK
  5
58
100
AcDbEntity
  8
DD0
100
AcDbBlockBegin
  2
DIMS1
 70
     0
 10
0.0
 20
0.0
  0
LINE
  5
59
100
AcDbEntity
  8
DD0
 60
     1
100
AcDbLine
 10
464.295686
 20
482.915146
 11
464.295686
 21
599.279662
  0
LINE
  5
5A
100
AcDbEntity
  8
DD0
100
AcDbLine
 10
459.095681
 20
588.915168
 11
459.095681
 21
599.279662
  0
LINE
  5
5B
100
AcDbEntity
  8
DD0
100
AcDbLine
 10
471.540129
 20
598.720805
 11
464.295686
 21
596.779662
  0
LINE
  5
5C
100
AcDbEntity
  8
DD0
100
AcDbLine
 10
464.295686
 20
596.779662
 11
471.540129
 21
594.838519
  0
LINE
  5
5D
100
AcDbEntity
  8
DD0
100
AcDbLine
 10
451.851237
 20
594.838519
 11
459.095681
 21
596.779662
  0
LINE
  5
5E
100
AcDbEntity
  8
DD0
100
AcDbLine
 10
459.095681
 20
596.779662
 11
451.851237
 21
598.720805
  0
LINE
  5
5F
100
AcDbEntity
  8
DD0
100
AcDbLine
 10
472.545685
 20
596.779662
 11
424.720679
 21
596.779662
  0
TEXT
  5
60
100
AcDbEntity
  8
DD0
100
AcDbText
 10
426.739442
 20
598.279677
 40
7.875
  1
５．２
 41
0.833333
  7
STANDARD
100
AcDbText
  0
ENDBLK
  5
61
100
AcDbEntity
  8
DD0
100
AcDbBlockEnd
  0
BLOCK
  5
64
100
AcDbEntity
  8
DD0
100
AcDbBlockBegin
  2
DIMS2
 70
     0
 10
0.0
 20
0.0
  0
LINE
  5
65
100
AcDbEntity
  8
DD0
100
AcDbLine
 10
202.561051
 20
586.415168
 11
262.233425
 21
586.415168
  0
LINE
  5
66
100
AcDbEntity
  8
DD0
100
AcDbLine
 10
225.061013
 20
451.41517
 11
262.233425
 21
451.41517
  0
LINE
  5
67
100
AcDbEntity
  8
DD0
100
AcDbLine
 10
261.674568
 20
579.170724
 11
259.733425
 21
586.415168
  0
LINE
  5
68
100
AcDbEntity
  8
DD0
100
AcDbLine
 10
259.733425
 20
586.415168
 11
257.792282
 21
579.170724
  0
LINE
  5
69
100
AcDbEntity
  8
DD0
100
AcDbLine
 10
257.792282
 20
458.659613
 11
259.733425
 21
451.41517
  0
LINE
  5
6A
100
AcDbEntity
  8
DD0
100
AcDbLine
 10
259.733425
 20
451.41517
 11
261.674568
 21
458.659613
  0
LINE
  5
6B
100
AcDbEntity
  8
DD0
100
AcDbLine
 10
259.733425
 20
586.415168
 11
259.733425
 21
451.41517
  0
TEXT
  5
6C
100
AcDbEntity
  8
DD0
100
AcDbText
 10
258.233429
 20
507.746407
 40
7.875
  1
１３５
 50
90.000003
 41
0.833333
  7
STANDARD
100
AcDbText
  0
ENDBLK
  5
6D
100
AcDbEntity
  8
DD0
100
AcDbBlockEnd
  0
BLOCK
  5
70
100
AcDbEntity
  8
DD0
100
AcDbBlockBegin
  2
DIMS3
 70
     0
 10
0.0
 20
0.0
  0
LINE
  5
71
100
AcDbEntity
  8
DD0
100
AcDbLine
 10
234.061009
 20
538.415138
 11
234.061009
 21
621.160078
  0
LINE
  5
72
100
AcDbEntity
  8
DD0
100
AcDbLine
 10
70.061044
 20
538.415138
 11
70.061044
 21
621.160078
  0
LINE
  5
73
100
AcDbEntity
  8
DD0
100
AcDbLine
 10
226.816565
 20
616.718936
 11
234.061009
 21
618.660078
  0
LINE
  5
74
100
AcDbEntity
  8
DD0
100
AcDbLine
 10
234.061009
 20
618.660078
 11
226.816565
 21
620.601221
  0
LINE
  5
75
100
AcDbEntity
  8
DD0
100
AcDbLine
 10
77.305487
 20
620.601221
 11
70.061044
 21
618.660078
  0
LINE
  5
76
100
AcDbEntity
  8
DD0
100
AcDbLine
 10
70.061044
 20
618.660078
 11
77.305487
 21
616.718936
  0
LINE
  5
77
100
AcDbEntity
  8
DD0
100
AcDbLine
 10
234.061009
 20
618.660078
 11
70.061044
 21
618.660078
  0
TEXT
  5
78
100
AcDbEntity
  8
DD0
100
AcDbText
 10
140.892278
 20
620.160094
 40
7.875
  1
１６４
 41
0.833333
  7
STANDARD
100
AcDbText
  0
ENDBLK
  5
79
100
AcDbEntity
  8
DD0
100
AcDbBlockEnd
  0
ENDSEC
  0
SECTION
  2
ENTITIES
  0
INSERT
  5
56
100
AcDbEntity
  8
DD0
100
AcDbBlockReference
  2
DIMS0
 10
0.0
 20
0.0
  0
INSERT
  5
62
100
AcDbEntity
  8
DD0
100
AcDbBlockReference
  2
DIMS1
 10
0.0
 20
0.0
  0
INSERT
  5
6E
100
AcDbEntity
  8
DD0
100
AcDbBlockReference
  2
DIMS2
 10
0.0
 20
0.0
  0
INSERT
  5
7A
100
AcDbEntity
  8
DD0
100
AcDbBlockReference
  2
DIMS3
 10
0.0
 20
0.0
  0
LINE
  5
7B
100
AcDbEntity
  8
M0
 62
   234
100
AcDbLine
 10
143.511045
 20
526.415151
 11
143.511045
 21
521.717153
  0
LINE
  5
7C
100
AcDbEntity
  8
M0
 62
   234
100
AcDbLine
 10
160.611043
 20
519.917165
 11
160.611043
 21
526.415151
  0
LINE
  5
7D
100
AcDbEntity
  8
M0
 62
   234
100
AcDbLine
 10
160.611043
 20
526.415151
 11
143.511045
 21
526.415151
  0
LINE
  5
7E
100
AcDbEntity
  8
M0
 62
   234
100
AcDbLine
 10
145.811044
 20
521.717153
 11
145.811044
 21
526.415151
  0
LINE
  5
7F
100
AcDbEntity
  8
M0
 62
   234
100
AcDbLine
 10
158.311044
 20
526.415151
 11
158.311044
 21
519.917165
  0
LINE
  5
80
100
AcDbEntity
  8
M0
  6
DASHDOT
 62
   234
100
AcDbLine
 10
145.061044
 20
522.115148
 11
159.061044
 21
522.115148
  0
ARC
  5
81
100
AcDbEntity
  8
M0
 62
   234
100
AcDbCircle
 10
152.061044
 20
522.115148
 40
3.0
100
AcDbArc
 50
312.887499
 51
547.778891
  0
LINE
  5
82
100
AcDbEntity
  8
M0
 62
   234
100
AcDbLine
 10
389.795877
 20
488.915151
 11
389.795877
 21
504.415151
  0
LINE
  5
83
100
AcDbEntity
  8
M0
 62
   234
100
AcDbLine
 10
380.295877
 20
488.915151
 11
389.795877
 21
488.915151
  0
LINE
  5
84
100
AcDbEntity
  8
M0
 62
   234
100
AcDbLine
 10
369.795877
 20
485.415151
 11
376.795877
 21
485.415151
  0
LINE
  5
85
100
AcDbEntity
  8
M0
 62
   234
100
AcDbLine
 10
376.795877
 20
485.415151
 11
380.295877
 21
488.915151
  0
LINE
  5
86
100
AcDbEntity
  8
M0
 62
   234
100
AcDbLine
 10
371.795877
 20
526.415151
 11
366.795877
 21
526.415151
  0
LINE
  5
87
100
AcDbEntity
  8
M0
 62
   234
100
AcDbLine
 10
366.795877
 20
526.415151
 11
366.795877
 21
520.915151
  0
LINE
  5
88
100
AcDbEntity
  8
M0
 62
   234
100
AcDbLine
 10
369.795877
 20
515.915151
 11
369.795877
 21
485.415151
  0
LINE
  5
89
100
AcDbEntity
  8
M0
 62
   234
100
AcDbLine
 10
373.595876
 20
515.915151
 11
369.795877
 21
515.915151
  0
ARC
  5
8A
100
AcDbEntity
  8
M0
 62
   234
100
AcDbCircle
 10
373.595876
 20
518.415151
 40
2.5
100
AcDbArc
 50
270.0
 51
286.2601
  0
LINE
  5
8B
100
AcDbEntity
  8
M0
 62
   234
100
AcDbLine
 10
366.795877
 20
520.915151
 11
371.795877
 21
520.915151
  0
LINE
  5
8C
100
AcDbEntity
  8
M0
 62
   234
100
AcDbLine
 10
372.095876
 20
515.915151
 11
372.095876
 21
485.415151
  0
LINE
  5
8D
100
AcDbEntity
  8
M0
  6
DASHED
 62
   234
100
AcDbLine
 10
387.495874
 20
490.915151
 11
389.795877
 21
490.915151
  0
LINE
  5
8E
100
AcDbEntity
  8
M0
  6
DASHED
 62
   234
100
AcDbLine
 10
387.495874
 20
518.415151
 11
387.495874
 21
488.915151
  0
LINE
  5
8F
100
AcDbEntity
  8
M0
  6
DASHED
 62
   234
100
AcDbLine
 10
387.495874
 20
497.915151
 11
389.795877
 21
497.915151
  0
ARC
  5
90
100
AcDbEntity
  8
M0
 62
     1
100
AcDbCircle
 10
180.711824
 20
478.417135
 40
1.0
100
AcDbArc
 50
179.999126
 51
270.0
  0
ARC
  5
91
100
AcDbEntity
  8
M0
 62
     1
100
AcDbCircle
 10
180.711824
 20
478.417135
 40
1.0
100
AcDbArc
 50
270.0
 51
360.0
  0
LINE
  5
92
100
AcDbEntity
  8
M0
 62
     1
100
AcDbLine
 10
171.711862
 20
478.41715
 11
168.711862
 21
478.41715
  0
LINE
  5
93
100
AcDbEntity
  8
M0
 62
     1
100
AcDbLine
 10
149.961907
 20
519.916879
 11
149.961907
 21
520.717172
  0
ARC
  5
94
100
AcDbEntity
  8
M0
 62
     1
100
AcDbCircle
 10
148.961907
 20
520.717174
 40
1.0
100
AcDbArc
 50
0.0
 51
89.999126
  0
LINE
  5
95
100
AcDbEntity
  8
M0
 62
     1
100
AcDbLine
 10
192.711872
 20
518.917105
 11
160.711923
 21
518.916911
  0
LINE
  5
96
100
AcDbEntity
  8
M0
 62
     1
100
AcDbLine
 10
130.211907
 20
520.21691
 11
130.211862
 21
484.917119
  0
LINE
  5
97
100
AcDbEntity
  8
M0
 62
     1
100
AcDbLine
 10
171.711846
 20
482.41715
 11
172.769143
 21
482.41715
  0
LINE
  5
98
100
AcDbEntity
  8
M0
 62
     1
100
AcDbLine
 10
192.711826
 20
479.917119
 11
192.711892
 21
521.917104
  0
LINE
  5
99
100
AcDbEntity
  8
M0
 62
     1
100
AcDbLine
 10
188.856885
 20
514.417111
 11
177.061887
 21
514.417129
  0
LINE
  5
9A
100
AcDbEntity
  8
M0
 62
     1
100
AcDbLine
 10
155.711877
 20
487.417165
 11
155.711923
 21
520.917163
  0
LINE
  5
9B
100
AcDbEntity
  8
M0
 62
     1
100
AcDbLine
 10
158.211877
 20
487.417165
 11
158.211923
 21
520.917159
  0
LINE
  5
9C
100
AcDbEntity
  8
M0
 62
     1
100
AcDbLine
 10
145.711877
 20
487.41718
 11
145.711923
 21
520.917179
  0
LINE
  5
9D
100
AcDbEntity
  8
M0
 62
     1
100
AcDbLine
 10
143.211877
 20
487.417196
 11
143.211923
 21
520.917182
  0
LINE
  5
9E
100
AcDbEntity
  8
M0
 62
     1
100
AcDbLine
 10
157.211938
 20
521.91716
 11
156.711938
 21
521.917161
  0
ARC
  5
9F
100
AcDbEntity
  8
M0
 62
     1
100
AcDbCircle
 10
157.211923
 20
520.91716
 40
1.0
100
AcDbArc
 50
0.0
 51
89.999126
  0
LINE
  5
A0
100
AcDbEntity
  8
M0
 62
     1
100
AcDbLine
 10
148.961907
 20
521.717173
 11
145.311853
 21
521.717153
  0
ARC
  5
A1
100
AcDbEntity
  8
M0
 62
     1
100
AcDbCircle
 10
156.711923
 20
520.917161
 40
1.0
100
AcDbArc
 50
89.999126
 51
179.999962
  0
LINE
  5
A2
100
AcDbEntity
  8
M0
 62
     1
100
AcDbLine
 10
166.711892
 20
501.41715
 11
159.711892
 21
501.417165
  0
LINE
  5
A3
100
AcDbEntity
  8
M0
 62
     1
100
AcDbLine
 10
166.711907
 20
505.917146
 11
159.711907
 21
505.917157
  0
LINE
  5
A4
100
AcDbEntity
  8
M0
 62
     1
100
AcDbLine
 10
166.711907
 20
503.91715
 11
159.711907
 21
503.917165
  0
LINE
  5
A5
100
AcDbEntity
  8
M0
 62
     1
100
AcDbLine
 10
160.211907
 20
505.917156
 11
160.211907
 21
506.117107
  0
LINE
  5
A6
100
AcDbEntity
  8
M0
 62
     1
100
AcDbLine
 10
166.211907
 20
505.917146
 11
166.211907
 21
506.117097
  0
LINE
  5
A7
100
AcDbEntity
  8
M0
 62
     1
100
AcDbLine
 10
165.711923
 20
515.716952
 11
165.711923
 21
518.917147
  0
LINE
  5
A8
100
AcDbEntity
  8
M0
 62
     1
100
AcDbLine
 10
160.711923
 20
515.71696
 11
160.711923
 21
518.917156
  0
LINE
  5
A9
100
AcDbEntity
  8
M0
 62
     1
100
AcDbLine
 10
153.211923
 20
515.717216
 11
153.211923
 21
518.917167
  0
LINE
  5
AA
100
AcDbEntity
  8
M0
 62
     1
100
AcDbLine
 10
148.211923
 20
515.717224
 11
148.211923
 21
518.917175
  0
LINE
  5
AB
100
AcDbEntity
  8
M0
 62
     1
100
AcDbLine
 10
135.711923
 20
515.717244
 11
135.711923
 21
518.917195
  0
LINE
  5
AC
100
AcDbEntity
  8
M0
 62
     1
100
AcDbLine
 10
140.711923
 20
515.717236
 11
140.711923
 21
518.917187
  0
LINE
  5
AD
100
AcDbEntity
  8
M0
 62
     1
100
AcDbLine
 10
147.711907
 20
505.917176
 11
147.711907
 21
506.117371
  0
LINE
  5
AE
100
AcDbEntity
  8
M0
 62
     1
100
AcDbLine
 10
153.711907
 20
505.917166
 11
153.711907
 21
506.117361
  0
LINE
  5
AF
100
AcDbEntity
  8
M0
 62
     1
100
AcDbLine
 10
135.211907
 20
505.917196
 11
135.211907
 21
506.117391
  0
LINE
  5
B0
100
AcDbEntity
  8
M0
 62
     1
100
AcDbLine
 10
141.211907
 20
505.917186
 11
141.211907
 21
506.117381
  0
LINE
  5
B1
100
AcDbEntity
  8
M0
 62
     1
100
AcDbLine
 10
160.711923
 20
518.917156
 11
158.211923
 21
518.917159
  0
LINE
  5
B2
100
AcDbEntity
  8
M0
 62
     1
100
AcDbLine
 10
148.211923
 20
518.917175
 11
145.711923
 21
518.917179
  0
LINE
  5
B3
100
AcDbEntity
  8
M0
 62
     1
100
AcDbLine
 10
135.711923
 20
518.917195
 11
133.211923
 21
518.917199
  0
LINE
  5
B4
100
AcDbEntity
  8
M0
 62
     1
100
AcDbLine
 10
154.211907
 20
505.917165
 11
147.211907
 21
505.917177
  0
LINE
  5
B5
100
AcDbEntity
  8
M0
 62
     1
100
AcDbLine
 10
141.711907
 20
505.917185
 11
134.711907
 21
505.917197
  0
LINE
  5
B6
100
AcDbEntity
  8
M0
 62
     1
100
AcDbLine
 10
167.711907
 20
506.917144
 11
167.711923
 21
517.917144
  0
LINE
  5
B7
100
AcDbEntity
  8
M0
 62
     1
100
AcDbLine
 10
158.711907
 20
506.917159
 11
158.711923
 21
517.917159
  0
LINE
  5
B8
100
AcDbEntity
  8
M0
 62
     1
100
AcDbLine
 10
155.211907
 20
506.917164
 11
155.211923
 21
517.917164
  0
LINE
  5
B9
100
AcDbEntity
  8
M0
 62
     1
100
AcDbLine
 10
146.211907
 20
506.917179
 11
146.211923
 21
517.917179
  0
LINE
  5
BA
100
AcDbEntity
  8
M0
 62
     1
100
AcDbLine
 10
142.711907
 20
506.917183
 11
142.711923
 21
517.917183
  0
LINE
  5
BB
100
AcDbEntity
  8
M0
 62
     1
100
AcDbLine
 10
133.711907
 20
506.917198
 11
133.711923
 21
517.917198
  0
LINE
  5
BC
100
AcDbEntity
  8
M0
 62
     1
100
AcDbLine
 10
155.711923
 20
518.917163
 11
148.211923
 21
518.916931
  0
LINE
  5
BD
100
AcDbEntity
  8
M0
 62
     1
100
AcDbLine
 10
143.211923
 20
518.917183
 11
135.711923
 21
518.916951
  0
LINE
  5
BE
100
AcDbEntity
  8
M0
 62
     1
100
AcDbLine
 10
168.211877
 20
483.91715
 11
168.211892
 21
502.41715
  0
ARC
  5
BF
100
AcDbEntity
  8
M0
 62
     1
100
AcDbCircle
 10
168.711923
 20
517.917142
 40
1.0
100
AcDbArc
 50
119.999201
 51
179.999945
  0
ARC
  5
C0
100
AcDbEntity
  8
M0
 62
     1
100
AcDbCircle
 10
156.211923
 20
517.917162
 40
1.0
100
AcDbArc
 50
119.999201
 51
179.999945
  0
ARC
  5
C1
100
AcDbEntity
  8
M0
 62
     1
100
AcDbCircle
 10
143.711923
 20
517.917182
 40
1.0
100
AcDbArc
 50
119.999201
 51
179.999945
  0
ARC
  5
C2
100
AcDbEntity
  8
M0
 62
     1
100
AcDbCircle
 10
157.711923
 20
517.91716
 40
1.0
100
AcDbArc
 50
0.0
 51
59.999258
  0
ARC
  5
C3
100
AcDbEntity
  8
M0
 62
     1
100
AcDbCircle
 10
145.211923
 20
517.917179
 40
1.0
100
AcDbArc
 50
0.0
 51
59.999258
  0
LINE
  5
C4
100
AcDbEntity
  8
M0
 62
     1
100
AcDbLine
 10
133.211907
 20
506.917199
 11
133.211923
 21
518.917199
  0
ARC
  5
C5
100
AcDbEntity
  8
M0
 62
     1
100
AcDbCircle
 10
132.711923
 20
517.9172
 40
1.0
100
AcDbArc
 50
0.0
 51
59.999258
  0
LINE
  5
C6
100
AcDbEntity
  8
M0
 62
     1
100
AcDbLine
 10
140.461938
 20
520.235742
 11
140.461938
 21
520.717187
  0
ARC
  5
C7
100
AcDbEntity
  8
M0
 62
     1
100
AcDbCircle
 10
141.461938
 20
520.717185
 40
1.0
100
AcDbArc
 50
89.999126
 51
179.999945
  0
ARC
  5
C8
100
AcDbEntity
  8
M0
 62
     1
100
AcDbCircle
 10
144.711923
 20
520.91718
 40
1.0
100
AcDbArc
 50
0.0
 51
89.999126
  0
ARC
  5
C9
100
AcDbEntity
  8
M0
 62
     1
100
AcDbCircle
 10
144.211923
 20
520.917181
 40
1.0
100
AcDbArc
 50
89.999126
 51
179.999962
  0
LINE
  5
CA
100
AcDbEntity
  8
M0
 62
     1
100
AcDbLine
 10
143.211938
 20
520.21691
 11
130.211907
 21
520.21691
  0
LINE
  5
CB
100
AcDbEntity
  8
M0
 62
     1
100
AcDbLine
 10
141.711907
 20
503.917196
 11
130.211877
 21
503.917211
  0
LINE
  5
CC
100
AcDbEntity
  8
M0
 62
     1
100
AcDbLine
 10
154.211907
 20
503.917165
 11
147.211907
 21
503.91718
  0
ARC
  5
CD
100
AcDbEntity
  8
M0
 62
     1
100
AcDbCircle
 10
154.211907
 20
507.417165
 40
1.499996
100
AcDbArc
 50
270.0
 51
360.0
  0
ARC
  5
CE
100
AcDbEntity
  8
M0
 62
     1
100
AcDbCircle
 10
141.711907
 20
507.417185
 40
1.499996
100
AcDbArc
 50
270.0
 51
360.0
  0
ARC
  5
CF
100
AcDbEntity
  8
M0
 62
     1
100
AcDbCircle
 10
141.711907
 20
506.917185
 40
1.0
100
AcDbArc
 50
270.0
 51
360.0
  0
ARC
  5
D0
100
AcDbEntity
  8
M0
 62
     1
100
AcDbCircle
 10
154.211907
 20
506.917165
 40
1.0
100
AcDbArc
 50
270.0
 51
360.0
  0
ARC
  5
D1
100
AcDbEntity
  8
M0
 62
     1
100
AcDbCircle
 10
166.711907
 20
507.417146
 40
1.499996
100
AcDbArc
 50
270.0
 51
360.0
  0
ARC
  5
D2
100
AcDbEntity
  8
M0
 62
     1
100
AcDbCircle
 10
166.711907
 20
506.917146
 40
1.0
100
AcDbArc
 50
270.0
 51
360.0
  0
ARC
  5
D3
100
AcDbEntity
  8
M0
 62
     1
100
AcDbCircle
 10
159.711907
 20
507.417157
 40
1.499996
100
AcDbArc
 50
179.999964
 51
270.0
  0
ARC
  5
D4
100
AcDbEntity
  8
M0
 62
     1
100
AcDbCircle
 10
147.211907
 20
507.417177
 40
1.499996
100
AcDbArc
 50
179.999964
 51
270.0
  0
ARC
  5
D5
100
AcDbEntity
  8
M0
 62
     1
100
AcDbCircle
 10
159.711907
 20
506.917157
 40
1.0
100
AcDbArc
 50
179.999945
 51
270.0
  0
ARC
  5
D6
100
AcDbEntity
  8
M0
 62
     1
100
AcDbCircle
 10
147.211907
 20
506.917177
 40
1.0
100
AcDbArc
 50
179.999945
 51
270.0
  0
ARC
  5
D7
100
AcDbEntity
  8
M0
 62
     1
100
AcDbCircle
 10
134.711907
 20
506.917197
 40
1.0
100
AcDbArc
 50
179.999945
 51
270.0
  0
ARC
  5
D8
100
AcDbEntity
  8
M0
 62
     1
100
AcDbCircle
 10
134.711907
 20
507.417197
 40
1.499996
100
AcDbArc
 50
179.999964
 51
270.0
  0
ARC
  5
D9
100
AcDbEntity
  8
M0
 62
     1
100
AcDbCircle
 10
132.211907
 20
506.9172
 40
1.0
100
AcDbArc
 50
270.0
 51
360.0
  0
LINE
  5
DA
100
AcDbEntity
  8
M0
 62
     1
100
AcDbLine
 10
132.211907
 20
505.9172
 11
130.211877
 21
505.917203
  0
LINE
  5
DB
100
AcDbEntity
  8
M0
 62
     1
100
AcDbLine
 10
168.211877
 20
491.41715
 11
158.211877
 21
491.417165
  0
LINE
  5
DC
100
AcDbEntity
  8
M0
 62
     1
100
AcDbLine
 10
168.211907
 20
507.417143
 11
168.211923
 21
518.917143
  0
ARC
  5
DD
100
AcDbEntity
  8
M0
 62
     1
100
AcDbCircle
 10
159.711892
 20
502.417165
 40
1.499996
100
AcDbArc
 50
89.999417
 51
179.999417
  0
ARC
  5
DE
100
AcDbEntity
  8
M0
 62
     1
100
AcDbCircle
 10
166.711892
 20
502.41715
 40
1.499996
100
AcDbArc
 50
0.0
 51
89.999417
  0
ARC
  5
DF
100
AcDbEntity
  8
M0
 62
     1
100
AcDbCircle
 10
154.211892
 20
502.417165
 40
1.499996
100
AcDbArc
 50
0.0
 51
89.999417
  0
ARC
  5
E0
100
AcDbEntity
  8
M0
 62
     1
100
AcDbCircle
 10
147.211892
 20
502.41718
 40
1.499996
100
AcDbArc
 50
89.999417
 51
179.999417
  0
ARC
  5
E1
100
AcDbEntity
  8
M0
 62
     1
100
AcDbCircle
 10
141.711892
 20
502.417196
 40
1.499996
100
AcDbArc
 50
0.0
 51
89.999417
  0
LINE
  5
E2
100
AcDbEntity
  8
M0
 62
     1
100
AcDbLine
 10
133.211877
 20
490.917211
 11
133.211907
 21
502.917211
  0
ARC
  5
E3
100
AcDbEntity
  8
M0
 62
     1
100
AcDbCircle
 10
134.711892
 20
502.417211
 40
1.499996
100
AcDbArc
 50
89.999417
 51
179.999417
  0
ARC
  5
E4
100
AcDbEntity
  8
M0
 62
     1
100
AcDbCircle
 10
132.211907
 20
502.917211
 40
1.0
100
AcDbArc
 50
0.0
 51
89.999126
  0
LINE
  5
E5
100
AcDbEntity
  8
M0
 62
     1
100
AcDbLine
 10
155.711877
 20
491.417165
 11
145.711877
 21
491.41718
  0
LINE
  5
E6
100
AcDbEntity
  8
M0
 62
     1
100
AcDbLine
 10
143.211877
 20
491.417196
 11
133.211877
 21
491.417211
  0
ARC
  5
E7
100
AcDbEntity
  8
M0
 62
     1
100
AcDbCircle
 10
166.711892
 20
499.91715
 40
1.499996
100
AcDbArc
 50
0.0
 51
89.999417
  0
LINE
  5
E8
100
AcDbEntity
  8
M0
 62
     1
100
AcDbLine
 10
154.211892
 20
501.417165
 11
147.211892
 21
501.41718
  0
LINE
  5
E9
100
AcDbEntity
  8
M0
 62
     1
100
AcDbLine
 10
141.711892
 20
501.417196
 11
134.711892
 21
501.417211
  0
ARC
  5
EA
100
AcDbEntity
  8
M0
 62
     1
100
AcDbCircle
 10
159.711892
 20
499.917165
 40
1.499996
100
AcDbArc
 50
89.999417
 51
179.999417
  0
ARC
  5
EB
100
AcDbEntity
  8
M0
 62
     1
100
AcDbCircle
 10
147.211892
 20
499.91718
 40
1.499996
100
AcDbArc
 50
89.999417
 51
179.999417
  0
ARC
  5
EC
100
AcDbEntity
  8
M0
 62
     1
100
AcDbCircle
 10
134.711892
 20
499.917211
 40
1.499996
100
AcDbArc
 50
89.999417
 51
179.999417
  0
ARC
  5
ED
100
AcDbEntity
  8
M0
 62
     1
100
AcDbCircle
 10
154.211892
 20
499.917165
 40
1.499996
100
AcDbArc
 50
0.0
 51
89.999417
  0
ARC
  5
EE
100
AcDbEntity
  8
M0
 62
     1
100
AcDbCircle
 10
141.711892
 20
499.917196
 40
1.499996
100
AcDbArc
 50
0.0
 51
89.999417
  0
LINE
  5
EF
100
AcDbEntity
  8
M0
 62
     1
100
AcDbLine
 10
167.711877
 20
492.41715
 11
167.711892
 21
500.41715
  0
LINE
  5
F0
100
AcDbEntity
  8
M0
 62
     1
100
AcDbLine
 10
158.711877
 20
492.417165
 11
158.711892
 21
500.417165
  0
LINE
  5
F1
100
AcDbEntity
  8
M0
 62
     1
100
AcDbLine
 10
155.211877
 20
492.417165
 11
155.211892
 21
500.417165
  0
LINE
  5
F2
100
AcDbEntity
  8
M0
 62
     1
100
AcDbLine
 10
146.211877
 20
492.41718
 11
146.211892
 21
500.41718
  0
LINE
  5
F3
100
AcDbEntity
  8
M0
 62
     1
100
AcDbLine
 10
142.711877
 20
492.417196
 11
142.711892
 21
500.417196
  0
LINE
  5
F4
100
AcDbEntity
  8
M0
 62
     1
100
AcDbLine
 10
133.711877
 20
492.417211
 11
133.711892
 21
500.417211
  0
ARC
  5
F5
100
AcDbEntity
  8
M0
 62
     1
100
AcDbCircle
 10
166.711892
 20
500.41715
 40
1.0
100
AcDbArc
 50
0.0
 51
89.999126
  0
ARC
  5
F6
100
AcDbEntity
  8
M0
 62
     1
100
AcDbCircle
 10
154.211892
 20
500.417165
 40
1.0
100
AcDbArc
 50
0.0
 51
89.999126
  0
ARC
  5
F7
100
AcDbEntity
  8
M0
 62
     1
100
AcDbCircle
 10
141.711892
 20
500.417196
 40
1.0
100
AcDbArc
 50
0.0
 51
89.999126
  0
ARC
  5
F8
100
AcDbEntity
  8
M0
 62
     1
100
AcDbCircle
 10
159.711892
 20
500.417165
 40
1.0
100
AcDbArc
 50
89.999126
 51
179.999126
  0
ARC
  5
F9
100
AcDbEntity
  8
M0
 62
     1
100
AcDbCircle
 10
147.211892
 20
500.41718
 40
1.0
100
AcDbArc
 50
89.999126
 51
179.999126
  0
ARC
  5
FA
100
AcDbEntity
  8
M0
 62
     1
100
AcDbCircle
 10
134.711892
 20
500.417211
 40
1.0
100
AcDbArc
 50
89.999126
 51
179.999126
  0
ARC
  5
FB
100
AcDbEntity
  8
M0
 62
     1
100
AcDbCircle
 10
168.711877
 20
492.41715
 40
1.0
100
AcDbArc
 50
179.999126
 51
239.999632
  0
ARC
  5
FC
100
AcDbEntity
  8
M0
 62
     1
100
AcDbCircle
 10
156.211877
 20
492.417165
 40
1.0
100
AcDbArc
 50
179.999126
 51
239.999632
  0
ARC
  5
FD
100
AcDbEntity
  8
M0
 62
     1
100
AcDbCircle
 10
143.711877
 20
492.417196
 40
1.0
100
AcDbArc
 50
179.999126
 51
239.999632
  0
ARC
  5
FE
100
AcDbEntity
  8
M0
 62
     1
100
AcDbCircle
 10
132.711877
 20
492.417211
 40
1.0
100
AcDbArc
 50
300.001125
 51
360.0
  0
ARC
  5
FF
100
AcDbEntity
  8
M0
 62
     1
100
AcDbCircle
 10
145.211877
 20
492.41718
 40
1.0
100
AcDbArc
 50
300.001125
 51
360.0
  0
ARC
  5
100
100
AcDbEntity
  8
M0
 62
     1
100
AcDbCircle
 10
157.711877
 20
492.417165
 40
1.0
100
AcDbArc
 50
300.001125
 51
360.0
  0
LINE
  5
101
100
AcDbEntity
  8
M0
 62
     1
100
AcDbLine
 10
157.211877
 20
486.417165
 11
156.711877
 21
486.417165
  0
LINE
  5
102
100
AcDbEntity
  8
M0
 62
     1
100
AcDbLine
 10
144.711877
 20
486.41718
 11
144.211877
 21
486.417196
  0
ARC
  5
103
100
AcDbEntity
  8
M0
 62
     1
100
AcDbCircle
 10
144.211877
 20
487.417196
 40
1.0
100
AcDbArc
 50
179.999126
 51
270.0
  0
ARC
  5
104
100
AcDbEntity
  8
M0
 62
     1
100
AcDbCircle
 10
144.711877
 20
487.41718
 40
1.0
100
AcDbArc
 50
270.0
 51
360.0
  0
ARC
  5
105
100
AcDbEntity
  8
M0
 62
     1
100
AcDbCircle
 10
156.711877
 20
487.417165
 40
1.0
100
AcDbArc
 50
179.999126
 51
270.0
  0
ARC
  5
106
100
AcDbEntity
  8
M0
 62
     1
100
AcDbCircle
 10
157.211877
 20
487.417165
 40
1.0
100
AcDbArc
 50
270.0
 51
360.0
  0
LINE
  5
107
100
AcDbEntity
  8
M0
 62
     1
100
AcDbLine
 10
168.211877
 20
484.91715
 11
158.461877
 21
484.917165
  0
LINE
  5
108
100
AcDbEntity
  8
M0
 62
     1
100
AcDbLine
 10
137.461877
 20
484.917196
 11
137.461877
 21
491.417196
  0
LINE
  5
109
100
AcDbEntity
  8
M0
 62
     1
100
AcDbLine
 10
141.961877
 20
484.917196
 11
141.961877
 21
491.417196
  0
LINE
  5
10A
100
AcDbEntity
  8
M0
 62
     1
100
AcDbLine
 10
162.461877
 20
484.917165
 11
162.461877
 21
491.417165
  0
LINE
  5
10B
100
AcDbEntity
  8
M0
 62
     1
100
AcDbLine
 10
166.961877
 20
484.91715
 11
166.961877
 21
491.41715
  0
LINE
  5
10C
100
AcDbEntity
  8
M0
 62
     1
100
AcDbLine
 10
132.211877
 20
489.917211
 11
130.211846
 21
489.917211
  0
ARC
  5
10D
100
AcDbEntity
  8
M0
 62
     1
100
AcDbCircle
 10
132.211877
 20
490.917211
 40
1.0
100
AcDbArc
 50
270.0
 51
360.0
  0
LINE
  5
10E
100
AcDbEntity
  8
M0
 62
     1
100
AcDbLine
 10
189.711827
 20
480.417119
 11
189.711852
 21
496.517156
  0
LINE
  5
10F
100
AcDbEntity
  8
M0
 62
     1
100
AcDbLine
 10
192.211824
 20
488.417119
 11
190.711824
 21
488.417119
  0
ARC
  5
110
100
AcDbEntity
  8
M0
 62
     1
100
AcDbCircle
 10
192.211825
 20
488.917119
 40
0.5
100
AcDbArc
 50
270.0
 51
360.0
  0
ARC
  5
111
100
AcDbEntity
  8
M0
 62
     1
100
AcDbCircle
 10
190.711826
 20
489.417119
 40
1.0
100
AcDbArc
 50
179.999126
 51
270.0
  0
LINE
  5
112
100
AcDbEntity
  8
M0
 62
     1
100
AcDbLine
 10
192.211828
 20
481.417119
 11
190.711828
 21
481.417119
  0
LINE
  5
113
100
AcDbEntity
  8
M0
 62
     1
100
AcDbLine
 10
192.211825
 20
479.417119
 11
190.711825
 21
479.417119
  0
ARC
  5
114
100
AcDbEntity
  8
M0
 62
     1
100
AcDbCircle
 10
192.211826
 20
479.917119
 40
0.5
100
AcDbArc
 50
270.0
 51
360.0
  0
ARC
  5
115
100
AcDbEntity
  8
M0
 62
     1
100
AcDbCircle
 10
190.711827
 20
480.417119
 40
1.0
100
AcDbArc
 50
179.999126
 51
270.0
  0
ARC
  5
116
100
AcDbEntity
  8
M0
 62
     1
100
AcDbCircle
 10
192.211829
 20
481.917119
 40
0.5
100
AcDbArc
 50
270.0
 51
360.0
  0
ARC
  5
117
100
AcDbEntity
  8
M0
 62
     1
100
AcDbCircle
 10
190.71183
 20
482.417119
 40
1.0
100
AcDbArc
 50
179.999126
 51
270.0
  0
LINE
  5
118
100
AcDbEntity
  8
M0
 62
     1
100
AcDbLine
 10
192.211836
 20
486.417119
 11
190.711837
 21
486.417119
  0
ARC
  5
119
100
AcDbEntity
  8
M0
 62
     1
100
AcDbCircle
 10
190.711838
 20
487.417119
 40
1.0
100
AcDbArc
 50
179.999126
 51
270.0
  0
ARC
  5
11A
100
AcDbEntity
  8
M0
 62
     1
100
AcDbCircle
 10
192.211837
 20
486.917119
 40
0.5
100
AcDbArc
 50
270.0
 51
360.0
  0
LINE
  5
11B
100
AcDbEntity
  8
M0
 62
     1
100
AcDbLine
 10
181.711824
 20
478.417135
 11
181.71185
 21
495.217153
  0
LINE
  5
11C
100
AcDbEntity
  8
M0
 62
     1
100
AcDbLine
 10
188.654091
 20
482.417119
 11
189.7118
 21
482.417119
  0
LINE
  5
11D
100
AcDbEntity
  8
M0
 62
     1
100
AcDbLine
 10
189.711811
 20
489.417119
 11
188.962498
 21
489.416875
  0
LINE
  5
11E
100
AcDbEntity
  8
M0
 62
     1
100
AcDbLine
 10
182.46088
 20
489.416891
 11
181.711811
 21
489.417135
  0
LINE
  5
11F
100
AcDbEntity
  8
M0
 62
     1
100
AcDbLine
 10
178.711804
 20
485.417135
 11
178.711834
 21
495.217153
  0
LINE
  5
120
100
AcDbEntity
  8
M0
 62
     1
100
AcDbLine
 10
180.711833
 20
484.417135
 11
179.711833
 21
484.417135
  0
ARC
  5
121
100
AcDbEntity
  8
M0
 62
     1
100
AcDbCircle
 10
180.711835
 20
485.417135
 40
1.0
100
AcDbArc
 50
270.0
 51
360.0
  0
ARC
  5
122
100
AcDbEntity
  8
M0
 62
     1
100
AcDbCircle
 10
179.711835
 20
485.417135
 40
1.0
100
AcDbArc
 50
179.999126
 51
270.0
  0
LINE
  5
123
100
AcDbEntity
  8
M0
 62
     1
100
AcDbLine
 10
170.711877
 20
486.917165
 11
170.711892
 21
497.91715
  0
LINE
  5
124
100
AcDbEntity
  8
M0
 62
     1
100
AcDbLine
 10
177.652897
 20
489.417135
 11
178.711842
 21
489.417135
  0
LINE
  5
125
100
AcDbEntity
  8
M0
 62
     1
100
AcDbLine
 10
172.711846
 20
482.41715
 11
172.711846
 21
482.602941
  0
LINE
  5
126
100
AcDbEntity
  8
M0
 62
     1
100
AcDbLine
 10
171.711862
 20
478.41715
 11
171.711862
 21
489.599035
  0
LINE
  5
127
100
AcDbEntity
  8
M0
 62
     1
100
AcDbLine
 10
179.711824
 20
478.417135
 11
179.711833
 21
484.417135
  0
LINE
  5
128
100
AcDbEntity
  8
M0
 62
     1
100
AcDbLine
 10
181.7118
 20
482.417135
 11
182.769127
 21
482.417135
  0
LINE
  5
129
100
AcDbEntity
  8
M0
 62
     1
100
AcDbLine
 10
171.711877
 20
483.91715
 11
168.211877
 21
483.91715
  0
LINE
  5
12A
100
AcDbEntity
  8
M0
 62
     1
100
AcDbLine
 10
171.711877
 20
485.91715
 11
168.211877
 21
485.91715
  0
LINE
  5
12B
100
AcDbEntity
  8
M0
 62
     1
100
AcDbLine
 10
170.711877
 20
487.41715
 11
170.711892
 21
497.91715
  0
ARC
  5
12C
100
AcDbEntity
  8
M0
 62
     1
100
AcDbCircle
 10
169.211877
 20
486.91715
 40
1.0
100
AcDbArc
 50
179.999126
 51
270.0
  0
ARC
  5
12D
100
AcDbEntity
  8
M0
 62
     1
100
AcDbCircle
 10
169.711877
 20
486.91715
 40
1.0
100
AcDbArc
 50
270.0
 51
360.0
  0
LINE
  5
12E
100
AcDbEntity
  8
M0
 62
     1
100
AcDbLine
 10
168.711862
 20
478.41715
 11
168.711877
 21
483.91715
  0
ARC
  5
12F
100
AcDbEntity
  8
M0
 62
     1
100
AcDbCircle
 10
172.211892
 20
496.41715
 40
1.499996
100
AcDbArc
 50
89.999417
 51
119.925542
  0
LINE
  5
130
100
AcDbEntity
  8
M0
 62
     1
100
AcDbLine
 10
170.561883
 20
505.41715
 11
169.061883
 21
503.917165
  0
LINE
  5
131
100
AcDbEntity
  8
M0
 62
     1
100
AcDbLine
 10
170.561883
 20
505.41715
 11
169.061883
 21
506.917142
  0
LINE
  5
132
100
AcDbEntity
  8
M0
 62
     1
100
AcDbLine
 10
168.211907
 20
503.91715
 11
168.211907
 21
507.417143
  0
LINE
  5
133
100
AcDbEntity
  8
M0
 62
     1
100
AcDbLine
 10
177.061887
 20
514.417129
 11
177.061894
 21
518.917129
  0
LINE
  5
134
100
AcDbEntity
  8
M0
 62
     1
100
AcDbLine
 10
188.856885
 20
514.417111
 11
188.856893
 21
518.917111
  0
LINE
  5
135
100
AcDbEntity
  8
M0
 62
     1
100
AcDbLine
 10
170.561914
 20
518.917105
 11
170.561914
 21
503.916875
  0
LINE
  5
136
100
AcDbEntity
  8
M0
 62
     1
100
AcDbLine
 10
169.061883
 20
503.916875
 11
168.211923
 21
503.917119
  0
LINE
  5
137
100
AcDbEntity
  8
M0
 62
     1
100
AcDbLine
 10
169.061898
 20
506.916861
 11
168.211923
 21
506.917105
  0
LINE
  5
138
100
AcDbEntity
  8
M0
 62
     1
100
AcDbLine
 10
170.561868
 20
502.16715
 11
168.211892
 21
502.16715
  0
LINE
  5
139
100
AcDbEntity
  8
M0
 62
     1
100
AcDbLine
 10
170.561883
 20
508.667139
 11
168.211907
 21
508.667143
  0
LINE
  5
13A
100
AcDbEntity
  8
M0
 62
     1
100
AcDbLine
 10
154.711907
 20
503.83138
 11
154.711907
 21
506.002965
  0
LINE
  5
13B
100
AcDbEntity
  8
M0
 62
     1
100
AcDbLine
 10
159.211907
 20
503.83138
 11
159.211907
 21
506.002958
  0
LINE
  5
13C
100
AcDbEntity
  8
M0
 62
     1
100
AcDbLine
 10
165.211907
 20
503.91715
 11
165.211907
 21
505.917148
  0
ARC
  5
13D
100
AcDbEntity
  8
M0
 62
     1
100
AcDbCircle
 10
139.711877
 20
489.417196
 40
2.249995
100
AcDbArc
 50
179.999611
 51
360.0
  0
LINE
  5
13E
100
AcDbEntity
  8
M0
 62
     1
100
AcDbLine
 10
152.211877
 20
485.91718
 11
152.211877
 21
488.41718
  0
ARC
  5
13F
100
AcDbEntity
  8
M0
 62
     1
100
AcDbCircle
 10
164.711877
 20
489.41715
 40
2.249995
100
AcDbArc
 50
179.999611
 51
360.0
  0
LINE
  5
140
100
AcDbEntity
  8
M0
 62
     1
100
AcDbLine
 10
155.211892
 20
499.917165
 11
154.810693
 21
499.916921
  0
LINE
  5
141
100
AcDbEntity
  8
M0
 62
     1
100
AcDbLine
 10
142.711892
 20
499.917196
 11
142.310693
 21
499.916952
  0
ARC
  5
142
100
AcDbEntity
  8
M0
 62
     1
100
AcDbCircle
 10
133.161904
 20
498.417211
 40
1.499996
100
AcDbArc
 50
50.758901
 51
68.48984
  0
ARC
  5
143
100
AcDbEntity
  8
M0
 62
     1
100
AcDbCircle
 10
143.26188
 20
498.417196
 40
1.499996
100
AcDbArc
 50
111.509618
 51
129.359081
  0
ARC
  5
144
100
AcDbEntity
  8
M0
 62
     1
100
AcDbCircle
 10
145.661935
 20
498.41718
 40
1.499996
100
AcDbArc
 50
50.759721
 51
68.48984
  0
ARC
  5
145
100
AcDbEntity
  8
M0
 62
     1
100
AcDbCircle
 10
168.26188
 20
498.41715
 40
1.499996
100
AcDbArc
 50
111.509618
 51
129.359901
  0
ARC
  5
146
100
AcDbEntity
  8
M0
 62
     1
100
AcDbCircle
 10
158.161904
 20
498.417165
 40
1.499996
100
AcDbArc
 50
50.759721
 51
68.48984
  0
LINE
  5
147
100
AcDbEntity
  8
M0
 62
     1
100
AcDbLine
 10
167.711892
 20
499.91715
 11
167.310662
 21
499.916906
  0
LINE
  5
148
100
AcDbEntity
  8
M0
 62
     1
100
AcDbLine
 10
178.654106
 20
482.417135
 11
179.7118
 21
482.417135
  0
LINE
  5
149
100
AcDbEntity
  8
M0
 62
     1
100
AcDbLine
 10
158.461877
 20
484.917165
 11
158.461877
 21
489.417165
  0
LINE
  5
14A
100
AcDbEntity
  8
M0
 62
     1
100
AcDbLine
 10
151.211877
 20
484.91718
 11
130.211846
 21
484.917211
  0
LINE
  5
14B
100
AcDbEntity
  8
M0
 62
     1
100
AcDbLine
 10
155.711877
 20
490.417165
 11
154.211877
 21
490.417165
  0
ARC
  5
14C
100
AcDbEntity
  8
M0
 62
     1
100
AcDbCircle
 10
154.211877
 20
488.417165
 40
1.999995
100
AcDbArc
 50
89.999563
 51
179.999563
  0
ARC
  5
14D
100
AcDbEntity
  8
M0
 62
     1
100
AcDbCircle
 10
151.211877
 20
485.91718
 40
1.0
100
AcDbArc
 50
270.0
 51
360.0
  0
ARC
  5
14E
100
AcDbEntity
  8
M0
 62
     1
100
AcDbCircle
 10
157.461877
 20
489.417165
 40
1.0
100
AcDbArc
 50
0.0
 51
41.409629
  0
LINE
  5
14F
100
AcDbEntity
  8
M0
 62
     1
100
AcDbLine
 10
132.211923
 20
519.9172
 11
130.211892
 21
519.917203
  0
ARC
  5
150
100
AcDbEntity
  8
M0
 62
     1
100
AcDbCircle
 10
132.211923
 20
518.9172
 40
1.0
100
AcDbArc
 50
0.0
 51
89.999126
  0
LINE
  5
151
100
AcDbEntity
  8
M0
 62
     1
100
AcDbLine
 10
192.711892
 20
521.917104
 11
184.211893
 21
521.917118
  0
LINE
  5
152
100
AcDbEntity
  8
M0
 62
     1
100
AcDbLine
 10
183.21189
 20
520.117132
 11
183.211891
 21
520.917119
  0
LINE
  5
153
100
AcDbEntity
  8
M0
 62
     1
100
AcDbLine
 10
183.21189
 20
519.917132
 11
158.211938
 21
519.917172
  0
ARC
  5
154
100
AcDbEntity
  8
M0
 62
     1
100
AcDbCircle
 10
184.211891
 20
520.917118
 40
1.0
100
AcDbArc
 50
90.0
 51
179.999962
  0
LINE
  5
155
100
AcDbEntity
  8
M0
 62
     1
100
AcDbLine
 10
155.711938
 20
519.917115
 11
145.711923
 21
519.916886
  0
LINE
  5
156
100
AcDbEntity
  8
M0
 62
     1
100
AcDbLine
 10
183.861887
 20
512.867176
 11
183.861888
 21
513.367176
  0
LINE
  5
157
100
AcDbEntity
  8
M0
 62
     1
100
AcDbLine
 10
185.361887
 20
512.867175
 11
183.861887
 21
512.867176
  0
LINE
  5
158
100
AcDbEntity
  8
M0
 62
     1
100
AcDbLine
 10
185.361888
 20
513.367175
 11
183.861888
 21
513.367176
  0
LINE
  5
159
100
AcDbEntity
  8
M0
 62
     1
100
AcDbLine
 10
169.711862
 20
481.41715
 11
169.711877
 21
483.91715
  0
LINE
  5
15A
100
AcDbEntity
  8
M0
 62
     1
100
AcDbLine
 10
171.711877
 20
480.41715
 11
168.711862
 21
480.41715
  0
ARC
  5
15B
100
AcDbEntity
  8
M0
 62
     1
100
AcDbCircle
 10
170.711862
 20
481.41715
 40
1.0
100
AcDbArc
 50
179.999126
 51
270.0
  0
ARC
  5
15C
100
AcDbEntity
  8
M0
 62
     1
100
AcDbCircle
 10
170.711862
 20
481.41715
 40
1.0
100
AcDbArc
 50
270.0
 51
360.0
  0
LINE
  5
15D
100
AcDbEntity
  8
M0
 62
     1
100
AcDbLine
 10
185.361886
 20
511.962466
 11
185.361887
 21
512.867175
  0
LINE
  5
15E
100
AcDbEntity
  8
M0
 62
     1
100
AcDbLine
 10
185.361888
 20
513.367175
 11
185.36189
 21
514.271899
  0
TEXT
  5
15F
100
AcDbEntity
  8
M0
 62
     1
100
AcDbText
 10
137.56212
 20
501.267568
 40
2.800003
  1
２
 50
359.999928
 41
0.535719
  7
STANDARD
100
AcDbText
  0
TEXT
  5
160
100
AcDbEntity
  8
M0
 62
     1
100
AcDbText
 10
150.06212
 20
501.267553
 40
2.800003
  1
４
 50
359.999928
 41
0.535719
  7
STANDARD
100
AcDbText
  0
TEXT
  5
161
100
AcDbEntity
  8
M0
 62
     1
100
AcDbText
 10
162.561952
 20
501.267537
 40
2.800003
  1
６
 50
359.999928
 41
0.535719
  7
STANDARD
100
AcDbText
  0
TEXT
  5
162
100
AcDbEntity
  8
M0
 62
     1
100
AcDbText
 10
192.011903
 20
498.531857
 40
1.800003
  1
ＡＵＴＯ
 50
450.000566
 41
0.63658
  7
STANDARD
100
AcDbText
  0
CIRCLE
  5
163
100
AcDbEntity
  8
M0
 62
     1
100
AcDbCircle
 10
191.01187
 20
505.417119
 40
0.749999
  0
LINE
  5
164
100
AcDbEntity
  8
M0
 62
     1
100
AcDbLine
 10
187.361919
 20
513.117186
 11
185.361886
 21
511.962466
  0
LINE
  5
165
100
AcDbEntity
  8
M0
 62
     1
100
AcDbLine
 10
187.361919
 20
513.117186
 11
185.36189
 21
514.271899
  0
LINE
  5
166
100
AcDbEntity
  8
M0
 62
     1
100
AcDbLine
 10
134.110696
 20
499.916967
 11
133.711892
 21
499.917211
  0
LINE
  5
167
100
AcDbEntity
  8
M0
 62
     1
100
AcDbLine
 10
146.610696
 20
499.916936
 11
146.211892
 21
499.91718
  0
LINE
  5
168
100
AcDbEntity
  8
M0
 62
     1
100
AcDbLine
 10
159.110665
 20
499.916921
 11
158.711892
 21
499.917165
  0
ARC
  5
169
100
AcDbEntity
  8
M0
 62
     1
100
AcDbCircle
 10
155.759408
 20
498.416921
 40
1.499994
100
AcDbArc
 50
111.509618
 51
129.239827
  0
LINE
  5
16A
100
AcDbEntity
  8
M0
 62
     1
100
AcDbLine
 10
173.212258
 20
521.912448
 11
169.212258
 21
521.912454
  0
ARC
  5
16B
100
AcDbEntity
  8
M0
 62
     1
100
AcDbCircle
 10
169.212258
 20
520.912454
 40
1.0
100
AcDbArc
 50
89.999126
 51
179.999945
  0
ARC
  5
16C
100
AcDbEntity
  8
M0
 62
     1
100
AcDbCircle
 10
173.212258
 20
520.912448
 40
1.0
100
AcDbArc
 50
0.0
 51
89.999126
  0
LINE
  5
16D
100
AcDbEntity
  8
M0
 62
     1
100
AcDbLine
 10
168.212258
 20
520.912456
 11
168.212258
 21
519.912456
  0
LINE
  5
16E
100
AcDbEntity
  8
M0
 62
     1
100
AcDbLine
 10
174.212258
 20
520.912446
 11
174.212258
 21
519.912446
  0
LINE
  5
16F
100
AcDbEntity
  8
M0
 62
     1
100
AcDbLine
 10
144.211938
 20
521.917104
 11
144.711938
 21
521.917104
  0
LINE
  5
170
100
AcDbEntity
  8
M0
 62
     1
100
AcDbLine
 10
143.611978
 20
521.717153
 11
141.461938
 21
521.717185
  0
LINE
  5
171
100
AcDbEntity
  8
M0
 62
     1
100
AcDbLine
 10
170.561914
 20
503.916875
 11
170.561868
 21
497.91715
  0
LINE
  5
172
100
AcDbEntity
  8
M0
 62
     1
100
AcDbLine
 10
173.211907
 20
497.91715
 11
168.211892
 21
497.91715
  0
TEXT
  5
173
100
AcDbEntity
  8
M0
 62
     1
100
AcDbText
 10
176.561943
 20
513.131827
 40
1.800003
  1
ＴＲＩＰ
 50
450.000566
 41
0.63658
  7
STANDARD
100
AcDbText
  0
CIRCLE
  5
174
100
AcDbEntity
  8
M0
 62
     1
100
AcDbCircle
 10
180.560835
 20
505.417364
 40
8.299999
  0
LINE
  5
175
100
AcDbEntity
  8
M0
 62
     1
100
AcDbLine
 10
171.011911
 20
500.417119
 11
171.011911
 21
516.017092
  0
LINE
  5
176
100
AcDbEntity
  8
M0
 62
     1
100
AcDbLine
 10
167.711907
 20
519.917089
 11
167.711907
 21
518.717089
  0
LINE
  5
177
100
AcDbEntity
  8
M0
 62
     1
100
AcDbLine
 10
167.711907
 20
497.717092
 11
167.711907
 21
496.517095
  0
LINE
  5
178
100
AcDbEntity
  8
M0
 62
     1
100
AcDbLine
 10
167.711907
 20
497.717092
 11
173.211907
 21
497.717107
  0
LINE
  5
179
100
AcDbEntity
  8
M0
 62
     1
100
AcDbLine
 10
167.711907
 20
518.717089
 11
173.211907
 21
518.717093
  0
LINE
  5
17A
100
AcDbEntity
  8
M0
 62
     1
100
AcDbLine
 10
178.511909
 20
495.217107
 11
182.511909
 21
495.217107
  0
LINE
  5
17B
100
AcDbEntity
  8
M0
 62
     1
100
AcDbLine
 10
184.711907
 20
496.51711
 11
182.511909
 21
495.217107
  0
LINE
  5
17C
100
AcDbEntity
  8
M0
 62
     1
100
AcDbLine
 10
178.511909
 20
495.217107
 11
175.711907
 21
496.51711
  0
LINE
  5
17D
100
AcDbEntity
  8
M0
 62
     1
100
AcDbLine
 10
175.711907
 20
496.51711
 11
167.711907
 21
496.517095
  0
LINE
  5
17E
100
AcDbEntity
  8
M0
 62
     1
100
AcDbLine
 10
192.211907
 20
496.517126
 11
184.711907
 21
496.51711
  0
ARC
  5
17F
100
AcDbEntity
  8
M0
 62
     1
100
AcDbCircle
 10
192.211907
 20
497.017126
 40
0.5
100
AcDbArc
 50
270.0
 51
360.0
  0
LINE
  5
180
100
AcDbEntity
  8
M0
 62
     1
100
AcDbLine
 10
177.939314
 20
517.529886
 11
179.939314
 21
517.529886
  0
LINE
  5
181
100
AcDbEntity
  8
M0
 62
     1
100
AcDbLine
 10
181.060804
 20
515.267352
 11
185.060804
 21
515.267352
  0
LINE
  5
182
100
AcDbEntity
  8
M0
 62
     1
100
AcDbLine
 10
185.060804
 20
515.267352
 11
185.060804
 21
518.067352
  0
LINE
  5
183
100
AcDbEntity
  8
M0
 62
     1
100
AcDbLine
 10
185.060804
 20
518.067352
 11
181.060804
 21
518.067352
  0
LINE
  5
184
100
AcDbEntity
  8
M0
 62
     1
100
AcDbLine
 10
181.060804
 20
518.067352
 11
181.060804
 21
515.267352
  0
LINE
  5
185
100
AcDbEntity
  8
M0
 62
     1
100
AcDbLine
 10
192.711907
 20
497.017126
 11
192.711893
 21
519.417105
  0
LINE
  5
186
100
AcDbEntity
  8
M0
 62
     1
100
AcDbLine
 10
192.211892
 20
519.917105
 11
167.711907
 21
519.917089
  0
ARC
  5
187
100
AcDbEntity
  8
M0
 62
     1
100
AcDbCircle
 10
192.211893
 20
519.417105
 40
0.5
100
AcDbArc
 50
0.0
 51
90.0
  0
LINE
  5
188
100
AcDbEntity
  8
M0
 62
     1
100
AcDbLine
 10
173.211907
 20
497.717107
 11
173.211907
 21
499.417119
  0
LINE
  5
189
100
AcDbEntity
  8
M0
 62
     1
100
AcDbLine
 10
171.011911
 20
500.417119
 11
172.211907
 21
500.417119
  0
ARC
  5
18A
100
AcDbEntity
  8
M0
 62
     1
100
AcDbCircle
 10
172.211907
 20
499.417119
 40
1.0
100
AcDbArc
 50
0.0
 51
89.999126
  0
LINE
  5
18B
100
AcDbEntity
  8
M0
 62
     1
100
AcDbLine
 10
171.011911
 20
516.017092
 11
172.211907
 21
516.017092
  0
LINE
  5
18C
100
AcDbEntity
  8
M0
 62
     1
100
AcDbLine
 10
173.211907
 20
517.017093
 11
173.211907
 21
518.717093
  0
ARC
  5
18D
100
AcDbEntity
  8
M0
 62
     1
100
AcDbCircle
 10
172.211907
 20
517.017092
 40
1.0
100
AcDbArc
 50
270.0
 51
360.0
  0
CIRCLE
  5
18E
100
AcDbEntity
  8
M0
 62
     1
100
AcDbCircle
 10
180.511902
 20
505.217107
 40
4.25
  0
CIRCLE
  5
18F
100
AcDbEntity
  8
M0
 62
     1
100
AcDbCircle
 10
185.710722
 20
493.417119
 40
2.999997
  0
LINE
  5
190
100
AcDbEntity
  8
M0
 62
     1
100
AcDbLine
 10
182.751738
 20
489.469869
 11
181.935576
 21
492.117193
  0
LINE
  5
191
100
AcDbEntity
  8
M0
 62
     1
100
AcDbLine
 10
188.930527
 20
496.517141
 11
189.485624
 21
494.717168
  0
LINE
  5
192
100
AcDbEntity
  8
M0
 62
     1
100
AcDbLine
 10
188.669218
 20
489.469854
 11
189.485624
 21
492.117193
  0
LINE
  5
193
100
AcDbEntity
  8
M0
 62
     1
100
AcDbLine
 10
183.229765
 20
489.117193
 11
188.191435
 21
489.117193
  0
LINE
  5
194
100
AcDbEntity
  8
M0
 62
     1
100
AcDbLine
 10
189.485624
 20
492.117193
 11
189.485624
 21
494.717168
  0
LINE
  5
195
100
AcDbEntity
  8
M0
 62
     1
100
AcDbLine
 10
181.935576
 20
495.217138
 11
181.935576
 21
492.117193
  0
LINE
  5
196
100
AcDbEntity
  8
M0
 62
     1
100
AcDbLine
 10
187.301298
 20
491.826299
 11
184.119658
 21
495.008062
  0
LINE
  5
197
100
AcDbEntity
  8
M0
 62
     1
100
AcDbLine
 10
186.063994
 20
494.831304
 11
184.296415
 21
493.063604
  0
LINE
  5
198
100
AcDbEntity
  8
M0
 62
     1
100
AcDbLine
 10
187.12454
 20
493.770635
 11
185.356962
 21
492.003057
  0
ARC
  5
199
100
AcDbEntity
  8
M0
 62
     1
100
AcDbCircle
 10
183.229765
 20
489.617193
 40
0.5
100
AcDbArc
 50
197.127379
 51
270.0
  0
ARC
  5
19A
100
AcDbEntity
  8
M0
 62
     1
100
AcDbCircle
 10
188.191435
 20
489.617193
 40
0.5
100
AcDbArc
 50
270.0
 51
342.861758
  0
ARC
  5
19B
100
AcDbEntity
  8
M0
 62
     1
100
AcDbCircle
 10
185.711927
 20
486.417119
 40
2.999997
100
AcDbArc
 50
115.844027
 51
424.15628
  0
LINE
  5
19C
100
AcDbEntity
  8
M0
 62
     1
100
AcDbLine
 10
182.614439
 20
489.914922
 11
181.936781
 21
487.717168
  0
LINE
  5
19D
100
AcDbEntity
  8
M0
 62
     1
100
AcDbLine
 10
182.752943
 20
482.469869
 11
181.936781
 21
485.117193
  0
LINE
  5
19E
100
AcDbEntity
  8
M0
 62
     1
100
AcDbLine
 10
188.807753
 20
489.919073
 11
189.48683
 21
487.717168
  0
LINE
  5
19F
100
AcDbEntity
  8
M0
 62
     1
100
AcDbLine
 10
188.670424
 20
482.469854
 11
189.48683
 21
485.117193
  0
LINE
  5
1A0
100
AcDbEntity
  8
M0
 62
     1
100
AcDbLine
 10
183.23097
 20
482.117193
 11
188.19264
 21
482.117193
  0
LINE
  5
1A1
100
AcDbEntity
  8
M0
 62
     1
100
AcDbLine
 10
189.48683
 20
485.117193
 11
189.48683
 21
487.717168
  0
LINE
  5
1A2
100
AcDbEntity
  8
M0
 62
     1
100
AcDbLine
 10
181.936781
 20
487.717168
 11
181.936781
 21
485.117193
  0
LINE
  5
1A3
100
AcDbEntity
  8
M0
 62
     1
100
AcDbLine
 10
187.302504
 20
484.826299
 11
184.120863
 21
488.008062
  0
LINE
  5
1A4
100
AcDbEntity
  8
M0
 62
     1
100
AcDbLine
 10
186.065199
 20
487.831304
 11
184.297621
 21
486.063604
  0
LINE
  5
1A5
100
AcDbEntity
  8
M0
 62
     1
100
AcDbLine
 10
187.125746
 20
486.770635
 11
185.358168
 21
485.003057
  0
ARC
  5
1A6
100
AcDbEntity
  8
M0
 62
     1
100
AcDbCircle
 10
183.23097
 20
482.617193
 40
0.5
100
AcDbArc
 50
197.127379
 51
270.0
  0
ARC
  5
1A7
100
AcDbEntity
  8
M0
 62
     1
100
AcDbCircle
 10
188.19264
 20
482.617193
 40
0.5
100
AcDbArc
 50
270.0
 51
342.861758
  0
ARC
  5
1A8
100
AcDbEntity
  8
M0
 62
     1
100
AcDbCircle
 10
175.711953
 20
486.417119
 40
2.999997
100
AcDbArc
 50
115.843797
 51
424.156412
  0
LINE
  5
1A9
100
AcDbEntity
  8
M0
 62
     1
100
AcDbLine
 10
172.368432
 20
489.117071
 11
171.936807
 21
487.717168
  0
LINE
  5
1AA
100
AcDbEntity
  8
M0
 62
     1
100
AcDbLine
 10
172.752969
 20
482.469869
 11
171.936807
 21
485.117193
  0
LINE
  5
1AB
100
AcDbEntity
  8
M0
 62
     1
100
AcDbLine
 10
178.670439
 20
482.469854
 11
179.298613
 21
484.506719
  0
LINE
  5
1AC
100
AcDbEntity
  8
M0
 62
     1
100
AcDbLine
 10
173.230996
 20
482.117193
 11
178.192656
 21
482.117193
  0
LINE
  5
1AD
100
AcDbEntity
  8
M0
 62
     1
100
AcDbLine
 10
171.936807
 20
487.717168
 11
171.936807
 21
485.117193
  0
LINE
  5
1AE
100
AcDbEntity
  8
M0
 62
     1
100
AcDbLine
 10
177.302519
 20
484.826299
 11
174.120889
 21
488.008062
  0
LINE
  5
1AF
100
AcDbEntity
  8
M0
 62
     1
100
AcDbLine
 10
176.065225
 20
487.831304
 11
174.297647
 21
486.063604
  0
LINE
  5
1B0
100
AcDbEntity
  8
M0
 62
     1
100
AcDbLine
 10
177.125761
 20
486.770635
 11
175.358193
 21
485.003057
  0
ARC
  5
1B1
100
AcDbEntity
  8
M0
 62
     1
100
AcDbCircle
 10
173.230996
 20
482.617193
 40
0.5
100
AcDbArc
 50
197.127669
 51
270.0
  0
ARC
  5
1B2
100
AcDbEntity
  8
M0
 62
     1
100
AcDbCircle
 10
178.192656
 20
482.617193
 40
0.5
100
AcDbArc
 50
270.0
 51
342.861758
  0
CIRCLE
  5
1B3
100
AcDbEntity
  8
M0
 62
     1
100
AcDbCircle
 10
174.710733
 20
493.417119
 40
2.999997
  0
LINE
  5
1B4
100
AcDbEntity
  8
M0
 62
     1
100
AcDbLine
 10
171.490518
 20
496.517141
 11
170.935586
 21
494.717168
  0
LINE
  5
1B5
100
AcDbEntity
  8
M0
 62
     1
100
AcDbLine
 10
171.751748
 20
489.469869
 11
170.935586
 21
492.117193
  0
LINE
  5
1B6
100
AcDbEntity
  8
M0
 62
     1
100
AcDbLine
 10
177.669218
 20
489.469854
 11
178.485624
 21
492.117193
  0
LINE
  5
1B7
100
AcDbEntity
  8
M0
 62
     1
100
AcDbLine
 10
172.229776
 20
489.117193
 11
177.191435
 21
489.117193
  0
LINE
  5
1B8
100
AcDbEntity
  8
M0
 62
     1
100
AcDbLine
 10
178.485624
 20
492.117193
 11
178.485624
 21
495.217138
  0
LINE
  5
1B9
100
AcDbEntity
  8
M0
 62
     1
100
AcDbLine
 10
170.935586
 20
494.717168
 11
170.935586
 21
492.117193
  0
LINE
  5
1BA
100
AcDbEntity
  8
M0
 62
     1
100
AcDbLine
 10
176.301309
 20
491.826299
 11
173.119668
 21
495.008062
  0
LINE
  5
1BB
100
AcDbEntity
  8
M0
 62
     1
100
AcDbLine
 10
175.064004
 20
494.831304
 11
173.296426
 21
493.063604
  0
LINE
  5
1BC
100
AcDbEntity
  8
M0
 62
     1
100
AcDbLine
 10
176.124551
 20
493.770635
 11
174.356973
 21
492.003057
  0
ARC
  5
1BD
100
AcDbEntity
  8
M0
 62
     1
100
AcDbCircle
 10
172.229776
 20
489.617193
 40
0.5
100
AcDbArc
 50
197.127669
 51
270.0
  0
ARC
  5
1BE
100
AcDbEntity
  8
M0
 62
     1
100
AcDbCircle
 10
177.191435
 20
489.617193
 40
0.5
100
AcDbArc
 50
270.0
 51
342.861758
  0
LINE
  5
1BF
100
AcDbEntity
  8
M0
 62
     1
100
AcDbLine
 10
162.249841
 20
497.378209
 11
164.094689
 21
495.533376
  0
LINE
  5
1C0
100
AcDbEntity
  8
M0
 62
     1
100
AcDbLine
 10
164.221566
 20
498.13532
 11
161.646493
 21
495.560247
  0
LINE
  5
1C1
100
AcDbEntity
  8
M0
 62
     1
100
AcDbLine
 10
164.928674
 20
497.428213
 11
162.353601
 21
494.853139
  0
LINE
  5
1C2
100
AcDbEntity
  8
M0
 62
     1
100
AcDbLine
 10
160.110711
 20
491.61736
 11
166.310708
 21
491.61736
  0
LINE
  5
1C3
100
AcDbEntity
  8
M0
 62
     1
100
AcDbLine
 10
167.310708
 20
492.617345
 11
167.310708
 21
500.217321
  0
LINE
  5
1C4
100
AcDbEntity
  8
M0
 62
     1
100
AcDbLine
 10
159.110711
 20
500.217336
 11
159.110711
 21
492.61736
  0
CIRCLE
  5
1C5
100
AcDbEntity
  8
M0
 62
     1
100
AcDbCircle
 10
163.210717
 20
496.417364
 40
3.499993
  0
ARC
  5
1C6
100
AcDbEntity
  8
M0
 62
     1
100
AcDbCircle
 10
166.310708
 20
492.61736
 40
1.0
100
AcDbArc
 50
270.0
 51
360.0
  0
ARC
  5
1C7
100
AcDbEntity
  8
M0
 62
     1
100
AcDbCircle
 10
166.310708
 20
500.217168
 40
1.0
100
AcDbArc
 50
0.0
 51
89.999126
  0
ARC
  5
1C8
100
AcDbEntity
  8
M0
 62
     1
100
AcDbCircle
 10
160.110711
 20
500.217168
 40
1.0
100
AcDbArc
 50
89.999126
 51
179.999126
  0
ARC
  5
1C9
100
AcDbEntity
  8
M0
 62
     1
100
AcDbCircle
 10
160.110711
 20
492.61736
 40
1.0
100
AcDbArc
 50
179.999126
 51
270.0
  0
LINE
  5
1CA
100
AcDbEntity
  8
M0
 62
     1
100
AcDbLine
 10
160.110711
 20
501.217351
 11
166.310708
 21
501.217351
  0
LINE
  5
1CB
100
AcDbEntity
  8
M0
 62
     1
100
AcDbLine
 10
149.749871
 20
497.378209
 11
151.59472
 21
495.533376
  0
LINE
  5
1CC
100
AcDbEntity
  8
M0
 62
     1
100
AcDbLine
 10
151.721597
 20
498.13532
 11
149.146524
 21
495.560247
  0
LINE
  5
1CD
100
AcDbEntity
  8
M0
 62
     1
100
AcDbLine
 10
152.428704
 20
497.428213
 11
149.853631
 21
494.853139
  0
LINE
  5
1CE
100
AcDbEntity
  8
M0
 62
     1
100
AcDbLine
 10
147.610742
 20
491.61736
 11
153.810739
 21
491.61736
  0
LINE
  5
1CF
100
AcDbEntity
  8
M0
 62
     1
100
AcDbLine
 10
154.810739
 20
492.617345
 11
154.810739
 21
500.217321
  0
LINE
  5
1D0
100
AcDbEntity
  8
M0
 62
     1
100
AcDbLine
 10
146.610742
 20
500.217336
 11
146.610742
 21
492.61736
  0
CIRCLE
  5
1D1
100
AcDbEntity
  8
M0
 62
     1
100
AcDbCircle
 10
150.710748
 20
496.417364
 40
3.499993
  0
ARC
  5
1D2
100
AcDbEntity
  8
M0
 62
     1
100
AcDbCircle
 10
153.810739
 20
492.61736
 40
1.0
100
AcDbArc
 50
270.0
 51
360.0
  0
ARC
  5
1D3
100
AcDbEntity
  8
M0
 62
     1
100
AcDbCircle
 10
153.810739
 20
500.217168
 40
1.0
100
AcDbArc
 50
0.0
 51
89.999126
  0
ARC
  5
1D4
100
AcDbEntity
  8
M0
 62
     1
100
AcDbCircle
 10
147.610742
 20
500.217168
 40
1.0
100
AcDbArc
 50
89.999126
 51
179.999126
  0
ARC
  5
1D5
100
AcDbEntity
  8
M0
 62
     1
100
AcDbCircle
 10
147.610742
 20
492.61736
 40
1.0
100
AcDbArc
 50
179.999126
 51
270.0
  0
LINE
  5
1D6
100
AcDbEntity
  8
M0
 62
     1
100
AcDbLine
 10
147.610742
 20
501.217351
 11
153.810739
 21
501.217351
  0
ARC
  5
1D7
100
AcDbEntity
  8
M0
 62
     1
100
AcDbCircle
 10
147.610742
 20
507.117502
 40
1.0
100
AcDbArc
 50
179.999945
 51
270.0
  0
LINE
  5
1D8
100
AcDbEntity
  8
M0
 62
     1
100
AcDbLine
 10
146.610742
 20
507.117334
 11
146.610742
 21
514.717309
  0
ARC
  5
1D9
100
AcDbEntity
  8
M0
 62
     1
100
AcDbCircle
 10
147.610742
 20
514.717309
 40
1.0
100
AcDbArc
 50
89.999126
 51
179.999945
  0
LINE
  5
1DA
100
AcDbEntity
  8
M0
 62
     1
100
AcDbLine
 10
147.610742
 20
515.717309
 11
153.810739
 21
515.717309
  0
ARC
  5
1DB
100
AcDbEntity
  8
M0
 62
     1
100
AcDbCircle
 10
153.810739
 20
514.717309
 40
1.0
100
AcDbArc
 50
0.0
 51
89.999126
  0
LINE
  5
1DC
100
AcDbEntity
  8
M0
 62
     1
100
AcDbLine
 10
154.810739
 20
514.717325
 11
154.810739
 21
507.117349
  0
ARC
  5
1DD
100
AcDbEntity
  8
M0
 62
     1
100
AcDbCircle
 10
153.810739
 20
507.117502
 40
1.0
100
AcDbArc
 50
-90.0
 51
0.0
  0
LINE
  5
1DE
100
AcDbEntity
  8
M0
 62
     1
100
AcDbLine
 10
147.610742
 20
506.117319
 11
153.810739
 21
506.117319
  0
LINE
  5
1DF
100
AcDbEntity
  8
M0
 62
     1
100
AcDbLine
 10
137.249871
 20
497.378209
 11
139.09472
 21
495.533376
  0
LINE
  5
1E0
100
AcDbEntity
  8
M0
 62
     1
100
AcDbLine
 10
139.221597
 20
498.13532
 11
136.646524
 21
495.560247
  0
LINE
  5
1E1
100
AcDbEntity
  8
M0
 62
     1
100
AcDbLine
 10
139.928704
 20
497.428213
 11
137.353631
 21
494.853139
  0
LINE
  5
1E2
100
AcDbEntity
  8
M0
 62
     1
100
AcDbLine
 10
142.310739
 20
492.617345
 11
142.310739
 21
500.217321
  0
LINE
  5
1E3
100
AcDbEntity
  8
M0
 62
     1
100
AcDbLine
 10
134.110742
 20
500.217336
 11
134.110742
 21
492.61736
  0
CIRCLE
  5
1E4
100
AcDbEntity
  8
M0
 62
     1
100
AcDbCircle
 10
138.210748
 20
496.417364
 40
3.499993
  0
ARC
  5
1E5
100
AcDbEntity
  8
M0
 62
     1
100
AcDbCircle
 10
141.310739
 20
492.61736
 40
1.0
100
AcDbArc
 50
270.0
 51
360.0
  0
ARC
  5
1E6
100
AcDbEntity
  8
M0
 62
     1
100
AcDbCircle
 10
141.310739
 20
500.217168
 40
1.0
100
AcDbArc
 50
0.0
 51
89.999126
  0
ARC
  5
1E7
100
AcDbEntity
  8
M0
 62
     1
100
AcDbCircle
 10
135.110742
 20
500.217168
 40
1.0
100
AcDbArc
 50
89.999126
 51
179.999126
  0
ARC
  5
1E8
100
AcDbEntity
  8
M0
 62
     1
100
AcDbCircle
 10
135.110742
 20
492.61736
 40
1.0
100
AcDbArc
 50
179.999126
 51
270.0
  0
LINE
  5
1E9
100
AcDbEntity
  8
M0
 62
     1
100
AcDbLine
 10
135.110742
 20
501.217351
 11
141.310739
 21
501.217351
  0
ARC
  5
1EA
100
AcDbEntity
  8
M0
 62
     1
100
AcDbCircle
 10
135.110742
 20
507.117502
 40
1.0
100
AcDbArc
 50
179.999945
 51
270.0
  0
LINE
  5
1EB
100
AcDbEntity
  8
M0
 62
     1
100
AcDbLine
 10
134.110742
 20
507.117334
 11
134.110742
 21
514.717309
  0
ARC
  5
1EC
100
AcDbEntity
  8
M0
 62
     1
100
AcDbCircle
 10
135.110742
 20
514.717309
 40
1.0
100
AcDbArc
 50
89.999126
 51
179.999945
  0
LINE
  5
1ED
100
AcDbEntity
  8
M0
 62
     1
100
AcDbLine
 10
135.110742
 20
515.717309
 11
141.310739
 21
515.717309
  0
ARC
  5
1EE
100
AcDbEntity
  8
M0
 62
     1
100
AcDbCircle
 10
141.310739
 20
514.717309
 40
1.0
100
AcDbArc
 50
0.0
 51
89.999126
  0
LINE
  5
1EF
100
AcDbEntity
  8
M0
 62
     1
100
AcDbLine
 10
142.310739
 20
514.717325
 11
142.310739
 21
507.117349
  0
ARC
  5
1F0
100
AcDbEntity
  8
M0
 62
     1
100
AcDbCircle
 10
141.310739
 20
507.117502
 40
1.0
100
AcDbArc
 50
-90.0
 51
0.0
  0
LINE
  5
1F1
100
AcDbEntity
  8
M0
 62
     1
100
AcDbLine
 10
135.110742
 20
506.117319
 11
141.310739
 21
506.117319
  0
ARC
  5
1F2
100
AcDbEntity
  8
M0
 62
     1
100
AcDbCircle
 10
166.310662
 20
514.717294
 40
1.0
100
AcDbArc
 50
0.0
 51
89.999126
  0
LINE
  5
1F3
100
AcDbEntity
  8
M0
 62
     1
100
AcDbLine
 10
167.310662
 20
507.117303
 11
167.310662
 21
514.717279
  0
ARC
  5
1F4
100
AcDbEntity
  8
M0
 62
     1
100
AcDbCircle
 10
166.310662
 20
507.117486
 40
1.0
100
AcDbArc
 50
270.0
 51
360.0
  0
LINE
  5
1F5
100
AcDbEntity
  8
M0
 62
     1
100
AcDbLine
 10
166.310662
 20
506.117303
 11
160.110665
 21
506.117303
  0
ARC
  5
1F6
100
AcDbEntity
  8
M0
 62
     1
100
AcDbCircle
 10
160.110665
 20
507.117486
 40
1.0
100
AcDbArc
 50
179.999945
 51
270.0
  0
LINE
  5
1F7
100
AcDbEntity
  8
M0
 62
     1
100
AcDbLine
 10
159.110665
 20
514.717309
 11
159.110665
 21
507.117334
  0
ARC
  5
1F8
100
AcDbEntity
  8
M0
 62
     1
100
AcDbCircle
 10
160.110665
 20
514.717294
 40
1.0
100
AcDbArc
 50
89.999126
 51
179.999945
  0
LINE
  5
1F9
100
AcDbEntity
  8
M0
 62
     1
100
AcDbLine
 10
166.310662
 20
515.717294
 11
160.110665
 21
515.717294
  0
LINE
  5
1FA
100
AcDbEntity
  8
M0
 62
     1
100
AcDbLine
 10
137.249871
 20
511.878198
 11
139.09472
 21
510.033365
  0
LINE
  5
1FB
100
AcDbEntity
  8
M0
 62
     1
100
AcDbLine
 10
139.221597
 20
512.635309
 11
136.646524
 21
510.060235
  0
LINE
  5
1FC
100
AcDbEntity
  8
M0
 62
     1
100
AcDbLine
 10
139.928704
 20
511.928201
 11
137.353631
 21
509.353128
  0
CIRCLE
  5
1FD
100
AcDbEntity
  8
M0
 62
     1
100
AcDbCircle
 10
138.210748
 20
510.917352
 40
3.499993
  0
LINE
  5
1FE
100
AcDbEntity
  8
M0
 62
     1
100
AcDbLine
 10
149.749856
 20
511.878198
 11
151.594705
 21
510.033365
  0
LINE
  5
1FF
100
AcDbEntity
  8
M0
 62
     1
100
AcDbLine
 10
151.721582
 20
512.635309
 11
149.146508
 21
510.060235
  0
LINE
  5
200
100
AcDbEntity
  8
M0
 62
     1
100
AcDbLine
 10
152.428689
 20
511.928201
 11
149.853616
 21
509.353128
  0
CIRCLE
  5
201
100
AcDbEntity
  8
M0
 62
     1
100
AcDbCircle
 10
150.710733
 20
510.917352
 40
3.499993
  0
LINE
  5
202
100
AcDbEntity
  8
M0
 62
     1
100
AcDbLine
 10
162.249826
 20
511.878198
 11
164.094674
 21
510.033365
  0
LINE
  5
203
100
AcDbEntity
  8
M0
 62
     1
100
AcDbLine
 10
164.221551
 20
512.635309
 11
161.646478
 21
510.060235
  0
LINE
  5
204
100
AcDbEntity
  8
M0
 62
     1
100
AcDbLine
 10
164.928659
 20
511.928201
 11
162.353585
 21
509.353128
  0
CIRCLE
  5
205
100
AcDbEntity
  8
M0
 62
     1
100
AcDbCircle
 10
163.210702
 20
510.917352
 40
3.499993
  0
LINE
  5
206
100
AcDbEntity
  8
M0
 62
     1
100
AcDbLine
 10
181.469703
 20
505.332891
 11
181.469703
 21
507.722039
  0
LINE
  5
207
100
AcDbEntity
  8
M0
 62
     1
100
AcDbLine
 10
181.469718
 20
507.722283
 11
179.766975
 21
507.722283
  0
LINE
  5
208
100
AcDbEntity
  8
M0
 62
     1
100
AcDbLine
 10
179.766975
 20
507.722039
 11
179.766975
 21
505.333379
  0
LINE
  5
209
100
AcDbEntity
  8
M0
 62
     1
100
AcDbLine
 10
180.618339
 20
502.943731
 11
178.964088
 21
505.333867
  0
LINE
  5
20A
100
AcDbEntity
  8
M0
 62
     1
100
AcDbLine
 10
180.618339
 20
502.943731
 11
182.272605
 21
505.333135
  0
LINE
  5
20B
100
AcDbEntity
  8
M0
 62
     1
100
AcDbLine
 10
178.964088
 20
505.333867
 11
179.766959
 21
505.333623
  0
LINE
  5
20C
100
AcDbEntity
  8
M0
 62
     1
100
AcDbLine
 10
182.272605
 20
505.333135
 11
181.469703
 21
505.333135
  0
LINE
  5
20D
100
AcDbEntity
  8
M0
  6
DASHDOT
 62
     1
100
AcDbLine
 10
171.286614
 20
505.417364
 11
189.835065
 21
505.417364
  0
LINE
  5
20E
100
AcDbEntity
  8
M0
  6
DASHDOT
 62
     1
100
AcDbLine
 10
180.560835
 20
496.143133
 11
180.560835
 21
514.691582
  0
LINE
  5
20F
100
AcDbEntity
  8
M0
 62
     1
100
AcDbLine
 10
296.295892
 20
496.7161
 11
296.295892
 21
497.916097
  0
LINE
  5
210
100
AcDbEntity
  8
M0
 62
     1
100
AcDbLine
 10
296.295892
 20
518.916076
 11
296.295892
 21
520.116072
  0
LINE
  5
211
100
AcDbEntity
  8
M0
 62
     1
100
AcDbLine
 10
311.795877
 20
496.7161
 11
296.295892
 21
496.7161
  0
LINE
  5
212
100
AcDbEntity
  8
M0
 62
     1
100
AcDbLine
 10
311.795877
 20
520.116072
 11
296.295892
 21
520.116072
  0
LINE
  5
213
100
AcDbEntity
  8
M0
 62
     1
100
AcDbLine
 10
311.795877
 20
497.916097
 11
307.995874
 21
497.916097
  0
LINE
  5
214
100
AcDbEntity
  8
M0
 62
     1
100
AcDbLine
 10
311.795877
 20
497.916097
 11
311.795877
 21
496.7161
  0
LINE
  5
215
100
AcDbEntity
  8
M0
 62
     1
100
AcDbLine
 10
299.295877
 20
498.616094
 11
303.44587
 21
498.616094
  0
LINE
  5
216
100
AcDbEntity
  8
M0
 62
     1
100
AcDbLine
 10
299.295877
 20
518.216079
 11
303.44587
 21
518.216079
  0
LINE
  5
217
100
AcDbEntity
  8
M0
 62
     1
100
AcDbLine
 10
299.295877
 20
518.216079
 11
299.295877
 21
498.616094
  0
LINE
  5
218
100
AcDbEntity
  8
M0
 62
     1
100
AcDbLine
 10
307.995874
 20
520.916075
 11
307.995874
 21
496.7161
  0
LINE
  5
219
100
AcDbEntity
  8
M0
 62
     1
100
AcDbLine
 10
311.795877
 20
520.116072
 11
311.795877
 21
518.916076
  0
LINE
  5
21A
100
AcDbEntity
  8
M0
 62
     1
100
AcDbLine
 10
298.995874
 20
520.116072
 11
298.995874
 21
521.416075
  0
LINE
  5
21B
100
AcDbEntity
  8
M0
 62
     1
100
AcDbLine
 10
298.995874
 20
521.416075
 11
307.495874
 21
521.416075
  0
LINE
  5
21C
100
AcDbEntity
  8
M0
 62
     1
100
AcDbLine
 10
311.795877
 20
518.916076
 11
307.995874
 21
518.916076
  0
LINE
  5
21D
100
AcDbEntity
  8
M0
 62
     1
100
AcDbLine
 10
303.44587
 20
497.916097
 11
296.295892
 21
497.916097
  0
LINE
  5
21E
100
AcDbEntity
  8
M0
 62
     1
100
AcDbLine
 10
303.44587
 20
518.916076
 11
296.295892
 21
518.916076
  0
ARC
  5
21F
100
AcDbEntity
  8
M0
 62
     1
100
AcDbCircle
 10
303.44587
 20
518.566085
 40
0.35
100
AcDbArc
 50
270.0
 51
360.0
  0
ARC
  5
220
100
AcDbEntity
  8
M0
 62
     1
100
AcDbCircle
 10
303.44587
 20
518.566085
 40
0.35
100
AcDbArc
 50
0.0
 51
89.997502
  0
ARC
  5
221
100
AcDbEntity
  8
M0
 62
     1
100
AcDbCircle
 10
303.44587
 20
498.266088
 40
0.35
100
AcDbArc
 50
270.0
 51
360.0
  0
ARC
  5
222
100
AcDbEntity
  8
M0
 62
     1
100
AcDbCircle
 10
303.44587
 20
498.266088
 40
0.35
100
AcDbArc
 50
0.0
 51
89.997502
  0
ARC
  5
223
100
AcDbEntity
  8
M0
 62
     1
100
AcDbCircle
 10
307.495874
 20
520.916075
 40
0.5
100
AcDbArc
 50
0.0
 51
89.998251
  0
LINE
  5
224
100
AcDbEntity
  8
M0
 62
     1
100
AcDbLine
 10
297.799234
 20
502.166631
 11
299.295877
 21
502.166631
  0
LINE
  5
225
100
AcDbEntity
  8
M0
 62
     1
100
AcDbLine
 10
299.295755
 20
508.666625
 11
297.799234
 21
508.666625
  0
LINE
  5
226
100
AcDbEntity
  8
M0
 62
     1
100
AcDbLine
 10
297.299234
 20
508.16638
 11
297.299234
 21
502.666631
  0
ARC
  5
227
100
AcDbEntity
  8
M0
 62
     1
100
AcDbCircle
 10
297.799249
 20
508.16638
 40
0.5
100
AcDbArc
 50
89.998251
 51
179.999891
  0
ARC
  5
228
100
AcDbEntity
  8
M0
 62
     1
100
AcDbCircle
 10
297.799249
 20
502.666631
 40
0.5
100
AcDbArc
 50
179.998251
 51
270.0
  0
LINE
  5
229
100
AcDbEntity
  8
M0
 62
     1
100
AcDbLine
 10
369.795168
 20
483.916509
 11
369.795613
 21
518.9165
  0
LINE
  5
22A
100
AcDbEntity
  8
M0
 62
     1
100
AcDbLine
 10
369.795781
 20
518.9165
 11
368.29471
 21
518.916122
  0
LINE
  5
22B
100
AcDbEntity
  8
M0
 62
     1
100
AcDbLine
 10
294.795816
 20
519.917433
 11
294.795632
 21
503.917364
  0
LINE
  5
22C
100
AcDbEntity
  8
M0
 62
     1
100
AcDbLine
 10
314.214639
 20
484.417211
 11
337.831262
 21
484.416906
  0
ARC
  5
22D
100
AcDbEntity
  8
M0
 62
     1
100
AcDbCircle
 10
296.795831
 20
519.917408
 40
2.0
100
AcDbArc
 50
89.999563
 51
179.999962
  0
LINE
  5
22E
100
AcDbEntity
  8
M0
 62
     1
100
AcDbLine
 10
299.295602
 20
497.917409
 11
299.295632
 21
501.167409
  0
LINE
  5
22F
100
AcDbEntity
  8
M0
 62
     1
100
AcDbLine
 10
321.095849
 20
521.917117
 11
296.738244
 21
521.917426
  0
LINE
  5
230
100
AcDbEntity
  8
M0
 62
     1
100
AcDbLine
 10
311.616586
 20
485.917241
 11
306.312829
 21
485.917318
  0
LINE
  5
231
100
AcDbEntity
  8
M0
 62
     1
100
AcDbLine
 10
301.117471
 20
496.716131
 11
303.415078
 21
488.14089
  0
ARC
  5
232
100
AcDbEntity
  8
M0
 62
     1
100
AcDbCircle
 10
306.31286
 20
488.917318
 40
3.0
100
AcDbArc
 50
194.999447
 51
270.0
  0
LINE
  5
233
100
AcDbEntity
  8
M0
 62
     1
100
AcDbLine
 10
308.617379
 20
496.716131
 11
311.316873
 21
486.640798
  0
ARC
  5
234
100
AcDbEntity
  8
M0
 62
     1
100
AcDbCircle
 10
314.214669
 20
487.417211
 40
3.0
100
AcDbArc
 50
194.998884
 51
270.0
  0
LINE
  5
235
100
AcDbEntity
  8
M0
 62
     1
100
AcDbLine
 10
299.295755
 20
509.667395
 11
299.295846
 21
517.917395
  0
ARC
  5
236
100
AcDbEntity
  8
M0
 62
     1
100
AcDbCircle
 10
300.295846
 20
517.917383
 40
1.0
100
AcDbArc
 50
89.999126
 51
179.999945
  0
LINE
  5
237
100
AcDbEntity
  8
M0
 62
     1
100
AcDbLine
 10
294.795663
 20
505.917162
 11
297.299295
 21
505.917131
  0
LINE
  5
238
100
AcDbEntity
  8
M0
 62
     1
100
AcDbLine
 10
294.795632
 20
503.91718
 11
297.299295
 21
503.917135
  0
LINE
  5
239
100
AcDbEntity
  8
M0
 62
     1
100
AcDbLine
 10
313.142907
 20
488.417226
 11
322.795419
 21
488.417104
  0
ARC
  5
23A
100
AcDbEntity
  8
M0
 62
     1
100
AcDbCircle
 10
313.142938
 20
491.417226
 40
3.0
100
AcDbArc
 50
194.999447
 51
270.0
  0
LINE
  5
23B
100
AcDbEntity
  8
M0
 62
     1
100
AcDbLine
 10
325.795404
 20
486.417058
 11
337.295373
 21
486.416921
  0
LINE
  5
23C
100
AcDbEntity
  8
M0
 62
     1
100
AcDbLine
 10
340.169717
 20
481.416891
 11
343.995309
 21
481.416829
  0
LINE
  5
23D
100
AcDbEntity
  8
M0
 62
     1
100
AcDbLine
 10
341.071618
 20
477.416875
 11
357.389126
 21
477.416662
  0
ARC
  5
23E
100
AcDbEntity
  8
M0
 62
     1
100
AcDbCircle
 10
321.095819
 20
519.917041
 40
2.0
100
AcDbArc
 50
14.333164
 51
89.999563
  0
LINE
  5
23F
100
AcDbEntity
  8
M0
 62
     1
100
AcDbLine
 10
359.121171
 20
478.416646
 11
362.296686
 21
483.916601
  0
ARC
  5
240
100
AcDbEntity
  8
M0
 62
     1
100
AcDbCircle
 10
357.389143
 20
479.416662
 40
2.0
100
AcDbArc
 50
270.0
 51
329.999445
  0
ARC
  5
241
100
AcDbEntity
  8
M0
 62
     1
100
AcDbCircle
 10
340.169747
 20
483.416891
 40
2.0
100
AcDbArc
 50
194.999701
 51
270.0
  0
LINE
  5
242
100
AcDbEntity
  8
M0
 62
     1
100
AcDbLine
 10
346.995278
 20
479.416799
 11
358.543861
 21
479.416646
  0
ARC
  5
243
100
AcDbEntity
  8
M0
 62
     1
100
AcDbCircle
 10
358.543878
 20
481.416646
 40
2.0
100
AcDbArc
 50
270.0
 51
329.999445
  0
LINE
  5
244
100
AcDbEntity
  8
M0
 62
     1
100
AcDbLine
 10
337.795388
 20
483.916906
 11
325.795358
 21
483.917058
  0
LINE
  5
245
100
AcDbEntity
  8
M0
 62
     1
100
AcDbLine
 10
325.045373
 20
484.417074
 11
325.795358
 21
483.917058
  0
LINE
  5
246
100
AcDbEntity
  8
M0
 62
     1
100
AcDbLine
 10
322.795419
 20
488.417104
 11
325.795404
 21
486.417058
  0
LINE
  5
247
100
AcDbEntity
  8
M0
 62
     1
100
AcDbLine
 10
362.296695
 20
483.916601
 11
369.795336
 21
483.916509
  0
LINE
  5
248
100
AcDbEntity
  8
M0
 62
     1
100
AcDbLine
 10
359.121195
 20
478.416646
 11
364.795267
 21
478.41657
  0
LINE
  5
249
100
AcDbEntity
  8
M0
 62
     1
100
AcDbLine
 10
366.795292
 20
480.41654
 11
366.795337
 21
483.91654
  0
ARC
  5
24A
100
AcDbEntity
  8
M0
 62
     1
100
AcDbCircle
 10
364.795292
 20
480.41657
 40
2.0
100
AcDbArc
 50
270.0
 51
360.0
  0
LINE
  5
24B
100
AcDbEntity
  8
M0
 62
     1
100
AcDbLine
 10
343.995309
 20
481.416829
 11
346.995278
 21
479.416799
  0
LINE
  5
24C
100
AcDbEntity
  8
M0
 62
     1
100
AcDbLine
 10
304.654519
 20
486.417333
 11
301.776437
 21
486.417379
  0
LINE
  5
24D
100
AcDbEntity
  8
M0
 62
     1
100
AcDbLine
 10
294.795617
 20
503.917379
 11
296.403558
 21
497.916128
  0
ARC
  5
24E
100
AcDbEntity
  8
M0
 62
     1
100
AcDbCircle
 10
301.786477
 20
489.417348
 40
3.0
100
AcDbArc
 50
194.998884
 51
270.0
  0
LINE
  5
24F
100
AcDbEntity
  8
M0
 62
     1
100
AcDbLine
 10
337.795358
 20
483.916967
 11
339.139779
 21
478.899251
  0
LINE
  5
250
100
AcDbEntity
  8
M0
 62
     1
100
AcDbLine
 10
337.295388
 20
486.416921
 11
338.237893
 21
482.899267
  0
ARC
  5
251
100
AcDbEntity
  8
M0
 62
     1
100
AcDbCircle
 10
341.071633
 20
479.416875
 40
2.0
100
AcDbArc
 50
194.999166
 51
270.0
  0
LINE
  5
252
100
AcDbEntity
  8
M0
 62
     1
100
AcDbLine
 10
368.29471
 20
520.416121
 11
312.794763
 21
520.415881
  0
LINE
  5
253
100
AcDbEntity
  8
M0
 62
     1
100
AcDbLine
 10
368.294775
 20
520.416365
 11
368.294772
 21
518.916122
  0
LINE
  5
254
100
AcDbEntity
  8
M0
 62
     1
100
AcDbLine
 10
312.794763
 20
520.416125
 11
312.294778
 21
518.915643
  0
LINE
  5
255
100
AcDbEntity
  8
M0
 62
     1
100
AcDbLine
 10
312.295114
 20
518.916131
 11
300.295861
 21
518.917383
  0
LINE
  5
256
100
AcDbEntity
  8
M0
 62
     1
100
AcDbLine
 10
296.725091
 20
496.716131
 11
298.888696
 21
488.640935
  0
LINE
  5
257
100
AcDbEntity
  8
M0
 62
   114
100
AcDbLine
 10
234.061013
 20
518.415143
 11
192.711907
 21
518.415156
  0
LINE
  5
258
100
AcDbEntity
  8
M0
 62
   114
100
AcDbLine
 10
192.711854
 20
495.415156
 11
197.561015
 21
495.415155
  0
LINE
  5
259
100
AcDbEntity
  8
M0
 62
   114
100
AcDbLine
 10
222.561012
 20
495.415147
 11
233.061006
 21
495.415144
  0
LINE
  5
25A
100
AcDbEntity
  8
M0
 62
   114
100
AcDbLine
 10
234.061006
 20
496.415143
 11
234.061013
 21
518.415143
  0
ARC
  5
25B
100
AcDbEntity
  8
M0
 62
   114
100
AcDbCircle
 10
233.061006
 20
496.415144
 40
1.0
100
AcDbArc
 50
269.999108
 51
359.999982
  0
LINE
  5
25C
100
AcDbEntity
  8
M0
  6
DASHDOT
 62
   114
100
AcDbLine
 10
228.061006
 20
493.915145
 11
228.06101
 21
506.915145
  0
LINE
  5
25D
100
AcDbEntity
  8
M0
  6
DASHDOT
 62
   114
100
AcDbLine
 10
234.561008
 20
500.415143
 11
222.561012
 21
500.415147
  0
LINE
  5
25E
100
AcDbEntity
  8
M0
  6
DASHDOT
 62
   114
100
AcDbLine
 10
192.711917
 20
500.415156
 11
197.561014
 21
500.415155
  0
LINE
  5
25F
100
AcDbEntity
  8
M0
 62
   114
100
AcDbLine
 10
455.89573
 20
488.415151
 11
455.89574
 21
518.415151
  0
LINE
  5
260
100
AcDbEntity
  8
M0
 62
   114
100
AcDbLine
 10
394.79589
 20
483.41517
 11
406.895729
 21
483.415166
  0
LINE
  5
261
100
AcDbEntity
  8
M0
 62
   114
100
AcDbLine
 10
409.89573
 20
488.415165
 11
455.89573
 21
488.415151
  0
LINE
  5
262
100
AcDbEntity
  8
M0
 62
   114
100
AcDbLine
 10
406.895729
 20
483.415166
 11
406.895729
 21
485.415166
  0
ARC
  5
263
100
AcDbEntity
  8
M0
 62
   114
100
AcDbCircle
 10
409.895729
 20
485.415165
 40
3.0
100
AcDbArc
 50
90.0
 51
179.999964
  0
LINE
  5
264
100
AcDbEntity
  8
M0
 62
   114
100
AcDbLine
 10
396.39574
 20
518.41517
 11
396.395734
 21
502.41517
  0
LINE
  5
265
100
AcDbEntity
  8
M0
 62
   114
100
AcDbLine
 10
396.395734
 20
502.41517
 11
394.795881
 21
502.41517
  0
LINE
  5
266
100
AcDbEntity
  8
M0
 62
   114
100
AcDbLine
 10
455.89574
 20
518.415151
 11
401.39574
 21
518.415168
  0
LINE
  5
267
100
AcDbEntity
  8
M0
 62
   114
100
AcDbLine
 10
401.39574
 20
518.415168
 11
401.395739
 21
516.915168
  0
LINE
  5
268
100
AcDbEntity
  8
M0
 62
   114
100
AcDbLine
 10
401.395739
 20
516.915168
 11
400.395739
 21
516.915168
  0
LINE
  5
269
100
AcDbEntity
  8
M0
 62
   114
100
AcDbLine
 10
400.395739
 20
516.915168
 11
400.39574
 21
518.415168
  0
LINE
  5
26A
100
AcDbEntity
  8
M0
 62
   114
100
AcDbLine
 10
400.39574
 20
518.415168
 11
396.39574
 21
518.41517
  0
LINE
  5
26B
100
AcDbEntity
  8
M0
 62
   114
100
AcDbLine
 10
396.395736
 20
506.41517
 11
455.895736
 21
506.415151
  0
LINE
  5
26C
100
AcDbEntity
  8
M0
 62
   114
100
AcDbLine
 10
443.895736
 20
506.415155
 11
443.895733
 21
496.415155
  0
ARC
  5
26D
100
AcDbEntity
  8
M0
 62
   114
100
AcDbCircle
 10
444.895733
 20
496.415154
 40
1.0
100
AcDbArc
 50
179.999982
 51
270.0
  0
LINE
  5
26E
100
AcDbEntity
  8
M0
 62
   114
100
AcDbLine
 10
434.89573
 20
488.415158
 11
434.895732
 21
494.415158
  0
ARC
  5
26F
100
AcDbEntity
  8
M0
 62
   114
100
AcDbCircle
 10
435.895732
 20
494.415157
 40
1.0
100
AcDbArc
 50
90.0
 51
179.999982
  0
LINE
  5
270
100
AcDbEntity
  8
M0
 62
   114
100
AcDbLine
 10
455.895732
 20
495.415151
 11
420.895732
 21
495.415162
  0
LINE
  5
271
100
AcDbEntity
  8
M0
 62
   114
100
AcDbLine
 10
419.89573
 20
488.415162
 11
419.895732
 21
494.415162
  0
ARC
  5
272
100
AcDbEntity
  8
M0
 62
   114
100
AcDbCircle
 10
420.895732
 20
494.415162
 40
1.0
100
AcDbArc
 50
90.0
 51
179.999982
  0
LINE
  5
273
100
AcDbEntity
  8
M0
 62
   114
100
AcDbLine
 10
413.045746
 20
508.415164
 11
418.745742
 21
508.415163
  0
LINE
  5
274
100
AcDbEntity
  8
M0
 62
   114
100
AcDbLine
 10
413.045745
 20
506.415164
 11
413.045746
 21
508.415164
  0
LINE
  5
275
100
AcDbEntity
  8
M0
 62
   114
100
AcDbLine
 10
418.745742
 20
506.415163
 11
418.745742
 21
508.415163
  0
LINE
  5
276
100
AcDbEntity
  8
M0
  6
DASHDOT
 62
   114
100
AcDbLine
 10
415.895735
 20
504.211072
 11
415.895747
 21
541.39342
  0
LINE
  5
277
100
AcDbEntity
  8
M0
 62
     6
100
AcDbLine
 10
164.561044
 20
581.415151
 11
139.561044
 21
581.415151
  0
LINE
  5
278
100
AcDbEntity
  8
M0
 62
     6
100
AcDbLine
 10
139.561044
 20
451.415151
 11
164.561044
 21
451.415151
  0
LINE
  5
279
100
AcDbEntity
  8
M0
  6
DASHDOT
 62
     6
100
AcDbLine
 10
152.061044
 20
443.915151
 11
152.061044
 21
593.915151
  0
LINE
  5
27A
100
AcDbEntity
  8
M0
  6
DASHDOT
 62
     6
100
AcDbLine
 10
167.654434
 20
466.415166
 11
136.37992
 21
466.415151
  0
LINE
  5
27B
100
AcDbEntity
  8
M0
 62
     6
100
AcDbLine
 10
139.561044
 20
484.917211
 11
139.561044
 21
469.985876
  0
LINE
  5
27C
100
AcDbEntity
  8
M0
 62
     6
100
AcDbLine
 10
164.561044
 20
451.415151
 11
164.561044
 21
462.844442
  0
LINE
  5
27D
100
AcDbEntity
  8
M0
  6
DASHED
 62
     6
100
AcDbLine
 10
164.561044
 20
519.917287
 11
164.561044
 21
541.415151
  0
LINE
  5
27E
100
AcDbEntity
  8
M0
  6
DASHED
 62
     6
100
AcDbLine
 10
139.561044
 20
541.415151
 11
139.561044
 21
519.917333
  0
LINE
  5
27F
100
AcDbEntity
  8
M0
 62
     6
100
AcDbLine
 10
139.561044
 20
581.415151
 11
139.561044
 21
542.415151
  0
LINE
  5
280
100
AcDbEntity
  8
M0
 62
     6
100
AcDbLine
 10
164.561044
 20
542.415151
 11
164.561044
 21
581.415151
  0
LINE
  5
281
100
AcDbEntity
  8
M0
  6
DASHDOT
 62
     6
100
AcDbLine
 10
161.561044
 20
566.415151
 11
142.561044
 21
566.415151
  0
LINE
  5
282
100
AcDbEntity
  8
M0
 62
     6
100
AcDbLine
 10
165.561044
 20
548.415151
 11
165.561044
 21
519.917287
  0
LINE
  5
283
100
AcDbEntity
  8
M0
 62
     6
100
AcDbLine
 10
138.561044
 20
548.415151
 11
138.561044
 21
520.217046
  0
LINE
  5
284
100
AcDbEntity
  8
M0
 62
     6
100
AcDbLine
 10
138.561044
 20
541.415151
 11
165.561044
 21
541.415151
  0
LINE
  5
285
100
AcDbEntity
  8
M0
 62
     6
100
AcDbLine
 10
165.561044
 20
548.415151
 11
164.561044
 21
548.415151
  0
LINE
  5
286
100
AcDbEntity
  8
M0
 62
     6
100
AcDbLine
 10
139.561044
 20
548.415151
 11
138.561044
 21
548.415151
  0
LINE
  5
287
100
AcDbEntity
  8
M0
  6
DASHED
 62
     6
100
AcDbLine
 10
164.561044
 20
547.415151
 11
139.561044
 21
547.415151
  0
LINE
  5
288
100
AcDbEntity
  8
M0
  6
DASHED
 62
     6
100
AcDbLine
 10
164.561044
 20
548.415151
 11
139.561044
 21
548.415151
  0
LINE
  5
289
100
AcDbEntity
  8
M0
 62
     6
100
AcDbLine
 10
139.561044
 20
542.415151
 11
164.561044
 21
542.415151
  0
CIRCLE
  5
28A
100
AcDbEntity
  8
M0
 62
     6
100
AcDbCircle
 10
152.061044
 20
566.415151
 40
6.5
  0
CIRCLE
  5
28B
100
AcDbEntity
  8
M0
 62
     6
100
AcDbCircle
 10
152.061044
 20
466.415151
 40
6.0
  0
CIRCLE
  5
28C
100
AcDbEntity
  8
M0
 62
     6
100
AcDbCircle
 10
152.061044
 20
466.415151
 40
5.0
  0
LINE
  5
28D
100
AcDbEntity
  8
M0
 62
     6
100
AcDbLine
 10
139.561044
 20
462.844442
 11
139.561044
 21
451.415151
  0
LINE
  5
28E
100
AcDbEntity
  8
M0
 62
     6
100
AcDbLine
 10
164.561044
 20
469.985876
 11
164.561044
 21
484.917165
  0
LINE
  5
28F
100
AcDbEntity
  8
M0
 62
    74
100
AcDbLine
 10
461.095681
 20
451.415151
 11
464.295681
 21
451.415151
  0
LINE
  5
290
100
AcDbEntity
  8
M0
 62
    74
100
AcDbLine
 10
459.095682
 20
586.415151
 11
455.895681
 21
586.415151
  0
ARC
  5
291
100
AcDbEntity
  8
M0
 62
    74
100
AcDbCircle
 10
460.095681
 20
485.615148
 40
1.0
100
AcDbArc
 50
180.0
 51
270.0
  0
LINE
  5
292
100
AcDbEntity
  8
M0
 62
    74
100
AcDbLine
 10
461.095681
 20
480.415151
 11
461.095681
 21
451.415151
  0
ARC
  5
293
100
AcDbEntity
  8
M0
 62
    74
100
AcDbCircle
 10
460.095681
 20
480.415151
 40
1.0
100
AcDbArc
 50
0.0
 51
90.0
  0
LINE
  5
294
100
AcDbEntity
  8
M0
 62
    74
100
AcDbLine
 10
464.295681
 20
451.415151
 11
464.295681
 21
480.415151
  0
ARC
  5
295
100
AcDbEntity
  8
M0
 62
    74
100
AcDbCircle
 10
460.095681
 20
480.415151
 40
4.2
100
AcDbArc
 50
0.0
 51
90.0
  0
LINE
  5
296
100
AcDbEntity
  8
M0
 62
    74
100
AcDbLine
 10
455.895681
 20
586.415151
 11
455.895681
 21
485.615148
  0
ARC
  5
297
100
AcDbEntity
  8
M0
 62
    74
100
AcDbCircle
 10
460.095681
 20
485.615148
 40
4.2
100
AcDbArc
 50
180.0
 51
270.0
  0
LINE
  5
298
100
AcDbEntity
  8
M0
 62
    74
100
AcDbLine
 10
459.095682
 20
485.615148
 11
459.095682
 21
586.415151
  0
LINE
  5
299
100
AcDbEntity
  8
M0
 62
    74
100
AcDbLine
 10
70.061044
 20
533.415151
 11
70.061044
 21
456.415151
  0
LINE
  5
29A
100
AcDbEntity
  8
M0
 62
    74
100
AcDbLine
 10
70.061044
 20
456.415151
 11
75.061044
 21
451.415151
  0
LINE
  5
29B
100
AcDbEntity
  8
M0
 62
    74
100
AcDbLine
 10
75.061044
 20
451.415151
 11
229.061044
 21
451.415151
  0
LINE
  5
29C
100
AcDbEntity
  8
M0
 62
    74
100
AcDbLine
 10
234.061044
 20
456.415151
 11
234.061044
 21
533.415151
  0
LINE
  5
29D
100
AcDbEntity
  8
M0
 62
    74
100
AcDbLine
 10
229.061044
 20
451.415151
 11
234.061044
 21
456.415151
  0
LINE
  5
29E
100
AcDbEntity
  8
M0
 62
    74
100
AcDbLine
 10
80.561044
 20
538.415151
 11
75.722619
 21
538.415151
  0
LINE
  5
29F
100
AcDbEntity
  8
M0
 62
    74
100
AcDbLine
 10
104.061044
 20
586.415151
 11
104.061044
 21
581.415151
  0
LINE
  5
2A0
100
AcDbEntity
  8
M0
 62
    74
100
AcDbLine
 10
200.061044
 20
581.415151
 11
200.061044
 21
586.415151
  0
LINE
  5
2A1
100
AcDbEntity
  8
M0
 62
    74
100
AcDbLine
 10
228.399438
 20
538.415151
 11
223.561013
 21
538.415151
  0
LINE
  5
2A2
100
AcDbEntity
  8
M0
 62
    74
100
AcDbLine
 10
70.061044
 20
481.415151
 11
81.561044
 21
481.415151
  0
CIRCLE
  5
2A3
100
AcDbEntity
  8
M0
 62
    74
100
AcDbCircle
 10
122.061044
 20
551.415151
 40
4.65
  0
CIRCLE
  5
2A4
100
AcDbEntity
  8
M0
 62
    74
100
AcDbCircle
 10
122.061044
 20
461.415151
 40
4.65
  0
LINE
  5
2A5
100
AcDbEntity
  8
M0
  6
DASHDOT
 62
    74
100
AcDbLine
 10
114.561044
 20
461.415151
 11
129.561044
 21
461.415151
  0
LINE
  5
2A6
100
AcDbEntity
  8
M0
  6
DASHDOT
 62
    74
100
AcDbLine
 10
122.061044
 20
453.915151
 11
122.061044
 21
468.915151
  0
LINE
  5
2A7
100
AcDbEntity
  8
M0
  6
DASHDOT
 62
    74
100
AcDbLine
 10
114.561044
 20
551.415151
 11
129.561044
 21
551.415151
  0
LINE
  5
2A8
100
AcDbEntity
  8
M0
  6
DASHDOT
 62
    74
100
AcDbLine
 10
122.061044
 20
543.915151
 11
122.061044
 21
558.915151
  0
LINE
  5
2A9
100
AcDbEntity
  8
M0
 62
    74
100
AcDbLine
 10
200.061044
 20
586.415151
 11
104.061044
 21
586.415151
  0
CIRCLE
  5
2AA
100
AcDbEntity
  8
M0
 62
    74
100
AcDbCircle
 10
114.061044
 20
576.415151
 40
3.15
  0
LINE
  5
2AB
100
AcDbEntity
  8
M0
  6
DASHDOT
 62
    74
100
AcDbLine
 10
106.561044
 20
576.415151
 11
121.561044
 21
576.415151
  0
LINE
  5
2AC
100
AcDbEntity
  8
M0
  6
DASHDOT
 62
    74
100
AcDbLine
 10
114.061044
 20
568.915151
 11
114.061044
 21
583.915151
  0
CIRCLE
  5
2AD
100
AcDbEntity
  8
M0
 62
    74
100
AcDbCircle
 10
182.061044
 20
461.415151
 40
4.65
  0
LINE
  5
2AE
100
AcDbEntity
  8
M0
  6
DASHDOT
 62
    74
100
AcDbLine
 10
189.561044
 20
461.415151
 11
174.561044
 21
461.415151
  0
LINE
  5
2AF
100
AcDbEntity
  8
M0
  6
DASHDOT
 62
    74
100
AcDbLine
 10
182.061044
 20
453.915151
 11
182.061044
 21
468.915151
  0
CIRCLE
  5
2B0
100
AcDbEntity
  8
M0
 62
    74
100
AcDbCircle
 10
182.061044
 20
551.415151
 40
4.65
  0
LINE
  5
2B1
100
AcDbEntity
  8
M0
  6
DASHDOT
 62
    74
100
AcDbLine
 10
189.561044
 20
551.415151
 11
174.561044
 21
551.415151
  0
LINE
  5
2B2
100
AcDbEntity
  8
M0
  6
DASHDOT
 62
    74
100
AcDbLine
 10
182.061044
 20
543.915151
 11
182.061044
 21
558.915151
  0
CIRCLE
  5
2B3
100
AcDbEntity
  8
M0
 62
    74
100
AcDbCircle
 10
190.061044
 20
576.415151
 40
3.15
  0
LINE
  5
2B4
100
AcDbEntity
  8
M0
  6
DASHDOT
 62
    74
100
AcDbLine
 10
197.561044
 20
576.415151
 11
182.561044
 21
576.415151
  0
LINE
  5
2B5
100
AcDbEntity
  8
M0
  6
DASHDOT
 62
    74
100
AcDbLine
 10
190.061044
 20
568.915151
 11
190.061044
 21
583.915151
  0
LINE
  5
2B6
100
AcDbEntity
  8
M0
 62
    74
100
AcDbLine
 10
222.561013
 20
481.415151
 11
234.061044
 21
481.415151
  0
LINE
  5
2B7
100
AcDbEntity
  8
M0
 62
    74
100
AcDbLine
 10
164.561044
 20
481.415151
 11
168.711862
 21
481.415151
  0
LINE
  5
2B8
100
AcDbEntity
  8
M0
 62
    74
100
AcDbLine
 10
106.561044
 20
481.415151
 11
139.561044
 21
481.415151
  0
LINE
  5
2B9
100
AcDbEntity
  8
M0
 62
    74
100
AcDbLine
 10
171.711862
 20
481.415151
 11
179.711816
 21
481.415151
  0
LINE
  5
2BA
100
AcDbEntity
  8
M0
 62
    74
100
AcDbLine
 10
181.711816
 20
481.415151
 11
189.711816
 21
481.415151
  0
LINE
  5
2BB
100
AcDbEntity
  8
M0
 62
    74
100
AcDbLine
 10
192.711816
 20
481.415151
 11
197.561013
 21
481.415151
  0
LINE
  5
2BC
100
AcDbEntity
  8
M0
 62
     6
100
AcDbLine
 10
222.561013
 20
581.415151
 11
197.561013
 21
581.415151
  0
LINE
  5
2BD
100
AcDbEntity
  8
M0
 62
     6
100
AcDbLine
 10
197.561013
 20
451.415151
 11
222.561013
 21
451.415151
  0
LINE
  5
2BE
100
AcDbEntity
  8
M0
  6
DASHDOT
 62
     6
100
AcDbLine
 10
210.061013
 20
443.915151
 11
210.061013
 21
593.915151
  0
LINE
  5
2BF
100
AcDbEntity
  8
M0
  6
DASHDOT
 62
     6
100
AcDbLine
 10
225.3402
 20
466.415166
 11
195.412437
 21
466.415151
  0
LINE
  5
2C0
100
AcDbEntity
  8
M0
 62
     6
100
AcDbLine
 10
197.561013
 20
504.415151
 11
197.561013
 21
469.985876
  0
LINE
  5
2C1
100
AcDbEntity
  8
M0
 62
     6
100
AcDbLine
 10
222.561013
 20
451.415151
 11
222.561013
 21
462.844442
  0
LINE
  5
2C2
100
AcDbEntity
  8
M0
  6
DASHED
 62
     6
100
AcDbLine
 10
197.561013
 20
518.415151
 11
197.561013
 21
504.415151
  0
LINE
  5
2C3
100
AcDbEntity
  8
M0
  6
DASHED
 62
     6
100
AcDbLine
 10
222.561013
 20
504.415151
 11
222.561013
 21
518.415151
  0
LINE
  5
2C4
100
AcDbEntity
  8
M0
  6
DASHED
 62
     6
100
AcDbLine
 10
222.561013
 20
535.915151
 11
222.561013
 21
541.415151
  0
LINE
  5
2C5
100
AcDbEntity
  8
M0
  6
DASHED
 62
     6
100
AcDbLine
 10
197.561013
 20
541.415151
 11
197.561013
 21
535.915151
  0
LINE
  5
2C6
100
AcDbEntity
  8
M0
 62
     6
100
AcDbLine
 10
197.561013
 20
581.415151
 11
197.561013
 21
542.415151
  0
LINE
  5
2C7
100
AcDbEntity
  8
M0
 62
     6
100
AcDbLine
 10
222.561013
 20
542.415151
 11
222.561013
 21
581.415151
  0
LINE
  5
2C8
100
AcDbEntity
  8
M0
  6
DASHDOT
 62
     6
100
AcDbLine
 10
219.561013
 20
566.415151
 11
200.561013
 21
566.415151
  0
LINE
  5
2C9
100
AcDbEntity
  8
M0
 62
     6
100
AcDbLine
 10
234.061013
 20
518.415151
 11
234.061013
 21
535.915151
  0
LINE
  5
2CA
100
AcDbEntity
  8
M0
 62
     6
100
AcDbLine
 10
234.061013
 20
535.915151
 11
186.061013
 21
535.915151
  0
LINE
  5
2CB
100
AcDbEntity
  8
M0
 62
     6
100
AcDbLine
 10
186.061013
 20
535.915151
 11
186.061013
 21
521.917119
  0
LINE
  5
2CC
100
AcDbEntity
  8
M0
 62
     6
100
AcDbLine
 10
192.711907
 20
518.415151
 11
234.061013
 21
518.415151
  0
LINE
  5
2CD
100
AcDbEntity
  8
M0
 62
     6
100
AcDbLine
 10
223.561013
 20
518.415151
 11
223.561013
 21
504.415151
  0
LINE
  5
2CE
100
AcDbEntity
  8
M0
 62
     6
100
AcDbLine
 10
223.561013
 20
548.415151
 11
223.561013
 21
535.915151
  0
LINE
  5
2CF
100
AcDbEntity
  8
M0
 62
     6
100
AcDbLine
 10
196.561013
 20
548.415151
 11
196.561013
 21
535.915151
  0
LINE
  5
2D0
100
AcDbEntity
  8
M0
 62
     6
100
AcDbLine
 10
196.561013
 20
518.415151
 11
196.561013
 21
504.415151
  0
LINE
  5
2D1
100
AcDbEntity
  8
M0
 62
     6
100
AcDbLine
 10
223.561013
 20
504.415151
 11
196.561013
 21
504.415151
  0
LINE
  5
2D2
100
AcDbEntity
  8
M0
 62
     6
100
AcDbLine
 10
196.561013
 20
541.415151
 11
223.561013
 21
541.415151
  0
LINE
  5
2D3
100
AcDbEntity
  8
M0
 62
     6
100
AcDbLine
 10
223.561013
 20
548.415151
 11
222.561013
 21
548.415151
  0
LINE
  5
2D4
100
AcDbEntity
  8
M0
 62
     6
100
AcDbLine
 10
197.561013
 20
548.415151
 11
196.561013
 21
548.415151
  0
LINE
  5
2D5
100
AcDbEntity
  8
M0
  6
DASHED
 62
     6
100
AcDbLine
 10
222.561013
 20
547.415151
 11
197.561013
 21
547.415151
  0
LINE
  5
2D6
100
AcDbEntity
  8
M0
  6
DASHED
 62
     6
100
AcDbLine
 10
222.561013
 20
548.415151
 11
197.561013
 21
548.415151
  0
LINE
  5
2D7
100
AcDbEntity
  8
M0
 62
     6
100
AcDbLine
 10
197.561013
 20
542.415151
 11
222.561013
 21
542.415151
  0
CIRCLE
  5
2D8
100
AcDbEntity
  8
M0
 62
     6
100
AcDbCircle
 10
210.061013
 20
566.415151
 40
6.5
  0
CIRCLE
  5
2D9
100
AcDbEntity
  8
M0
 62
     6
100
AcDbCircle
 10
210.061013
 20
466.415151
 40
6.0
  0
CIRCLE
  5
2DA
100
AcDbEntity
  8
M0
 62
     6
100
AcDbCircle
 10
210.061013
 20
466.415151
 40
5.0
  0
CIRCLE
  5
2DB
100
AcDbEntity
  8
M0
 62
     6
100
AcDbCircle
 10
210.061013
 20
494.415151
 40
5.25
  0
LINE
  5
2DC
100
AcDbEntity
  8
M0
 62
     6
100
AcDbLine
 10
210.909604
 20
494.41509
 11
214.173315
 21
497.678792
  0
LINE
  5
2DD
100
AcDbEntity
  8
M0
 62
     6
100
AcDbLine
 10
206.797366
 20
490.302846
 11
210.061078
 21
493.566564
  0
LINE
  5
2DE
100
AcDbEntity
  8
M0
 62
     6
100
AcDbLine
 10
209.212595
 20
494.415044
 11
205.948862
 21
491.151311
  0
LINE
  5
2DF
100
AcDbEntity
  8
M0
 62
     6
100
AcDbLine
 10
213.324843
 20
498.527303
 11
210.061121
 21
495.26357
  0
LINE
  5
2E0
100
AcDbEntity
  8
M0
 62
     6
100
AcDbLine
 10
210.06111
 20
495.26357
 11
208.293344
 21
497.031347
  0
LINE
  5
2E1
100
AcDbEntity
  8
M0
 62
     6
100
AcDbLine
 10
212.67737
 20
492.647313
 11
210.909604
 21
494.41509
  0
LINE
  5
2E2
100
AcDbEntity
  8
M0
 62
     6
100
AcDbLine
 10
210.061078
 20
493.566564
 11
211.828844
 21
491.798787
  0
LINE
  5
2E3
100
AcDbEntity
  8
M0
 62
     6
100
AcDbLine
 10
207.444818
 20
496.182821
 11
209.212584
 21
494.415044
  0
LINE
  5
2E4
100
AcDbEntity
  8
M0
 62
     6
100
AcDbLine
 10
211.828844
 20
491.798787
 11
212.67737
 21
492.647313
  0
LINE
  5
2E5
100
AcDbEntity
  8
M0
 62
     6
100
AcDbLine
 10
208.293344
 20
497.031347
 11
207.444818
 21
496.182821
  0
CIRCLE
  5
2E6
100
AcDbEntity
  8
M0
 62
     6
100
AcDbCircle
 10
210.061013
 20
494.415151
 40
5.75
  0
LINE
  5
2E7
100
AcDbEntity
  8
M0
  6
DASHDOT
 62
     6
100
AcDbLine
 10
201.705594
 20
494.415166
 11
218.416432
 21
494.415151
  0
LINE
  5
2E8
100
AcDbEntity
  8
M0
 62
     6
100
AcDbLine
 10
192.810769
 20
536.615209
 11
192.73655
 21
537.46253
  0
LINE
  5
2E9
100
AcDbEntity
  8
M0
 62
     6
100
AcDbLine
 10
187.311257
 20
536.615224
 11
187.385232
 21
537.46253
  0
ARC
  5
2EA
100
AcDbEntity
  8
M0
 62
     6
100
AcDbCircle
 10
188.38157
 20
537.375387
 40
1.0
100
AcDbArc
 50
106.260869
 51
175.000684
  0
ARC
  5
2EB
100
AcDbEntity
  8
M0
 62
     6
100
AcDbCircle
 10
191.740213
 20
537.375387
 40
1.0
100
AcDbArc
 50
4.99924
 51
73.75186
  0
ARC
  5
2EC
100
AcDbEntity
  8
M0
 62
     6
100
AcDbCircle
 10
190.061013
 20
531.615209
 40
7.0
100
AcDbArc
 50
72.985009
 51
106.255434
  0
LINE
  5
2ED
100
AcDbEntity
  8
M0
 62
     6
100
AcDbLine
 10
192.810769
 20
535.915151
 11
187.310769
 21
535.915151
  0
LINE
  5
2EE
100
AcDbEntity
  8
M0
 62
     6
100
AcDbLine
 10
187.310769
 20
536.615102
 11
187.310769
 21
535.915151
  0
LINE
  5
2EF
100
AcDbEntity
  8
M0
 62
     6
100
AcDbLine
 10
192.810769
 20
536.615102
 11
192.810769
 21
535.915151
  0
LINE
  5
2F0
100
AcDbEntity
  8
M0
 62
     6
100
AcDbLine
 10
187.311013
 20
536.615209
 11
192.811013
 21
536.615209
  0
LINE
  5
2F1
100
AcDbEntity
  8
M0
 62
     6
100
AcDbLine
 10
190.061013
 20
535.915151
 11
189.561013
 21
536.615209
  0
LINE
  5
2F2
100
AcDbEntity
  8
M0
 62
     6
100
AcDbLine
 10
190.061013
 20
536.615209
 11
190.561013
 21
535.915151
  0
LINE
  5
2F3
100
AcDbEntity
  8
M0
 62
     6
100
AcDbLine
 10
227.311257
 20
536.615209
 11
227.385476
 21
537.46253
  0
LINE
  5
2F4
100
AcDbEntity
  8
M0
 62
     6
100
AcDbLine
 10
232.810769
 20
536.615224
 11
232.736795
 21
537.46253
  0
ARC
  5
2F5
100
AcDbEntity
  8
M0
 62
     6
100
AcDbCircle
 10
231.740457
 20
537.375387
 40
1.0
100
AcDbArc
 50
4.999316
 51
73.739131
  0
ARC
  5
2F6
100
AcDbEntity
  8
M0
 62
     6
100
AcDbCircle
 10
228.381814
 20
537.375387
 40
1.0
100
AcDbArc
 50
106.24814
 51
175.00076
  0
ARC
  5
2F7
100
AcDbEntity
  8
M0
 62
     6
100
AcDbCircle
 10
230.061013
 20
531.615209
 40
7.0
100
AcDbArc
 50
73.744446
 51
107.014871
  0
LINE
  5
2F8
100
AcDbEntity
  8
M0
 62
     6
100
AcDbLine
 10
227.311257
 20
535.915151
 11
232.811257
 21
535.915151
  0
LINE
  5
2F9
100
AcDbEntity
  8
M0
 62
     6
100
AcDbLine
 10
232.811257
 20
536.615102
 11
232.811257
 21
535.915151
  0
LINE
  5
2FA
100
AcDbEntity
  8
M0
 62
     6
100
AcDbLine
 10
227.311257
 20
536.615102
 11
227.311257
 21
535.915151
  0
LINE
  5
2FB
100
AcDbEntity
  8
M0
 62
     6
100
AcDbLine
 10
228.761209
 20
516.615743
 11
228.761209
 21
512.615209
  0
LINE
  5
2FC
100
AcDbEntity
  8
M0
 62
     6
100
AcDbLine
 10
231.361062
 20
516.615743
 11
231.361062
 21
512.615209
  0
LINE
  5
2FD
100
AcDbEntity
  8
M0
 62
     6
100
AcDbLine
 10
231.561013
 20
516.615743
 11
231.561013
 21
512.615209
  0
LINE
  5
2FE
100
AcDbEntity
  8
M0
 62
     6
100
AcDbLine
 10
228.561013
 20
512.615209
 11
228.561013
 21
516.615743
  0
LINE
  5
2FF
100
AcDbEntity
  8
M0
 62
     6
100
AcDbLine
 10
231.561013
 20
512.615209
 11
228.561013
 21
512.615209
  0
LINE
  5
300
100
AcDbEntity
  8
M0
 62
     6
100
AcDbLine
 10
232.811013
 20
536.615209
 11
227.311013
 21
536.615209
  0
LINE
  5
301
100
AcDbEntity
  8
M0
 62
     6
100
AcDbLine
 10
230.061013
 20
535.915151
 11
230.561013
 21
536.615209
  0
LINE
  5
302
100
AcDbEntity
  8
M0
 62
     6
100
AcDbLine
 10
230.061013
 20
536.615209
 11
229.561013
 21
535.915151
  0
LINE
  5
303
100
AcDbEntity
  8
M0
 62
     6
100
AcDbLine
 10
197.561013
 20
462.844442
 11
197.561013
 21
451.415151
  0
LINE
  5
304
100
AcDbEntity
  8
M0
 62
     6
100
AcDbLine
 10
222.561013
 20
469.985876
 11
222.561013
 21
504.415151
  0
LINE
  5
305
100
AcDbEntity
  8
M0
 62
     6
100
AcDbLine
 10
389.795877
 20
451.415151
 11
394.795877
 21
451.415151
  0
LINE
  5
306
100
AcDbEntity
  8
M0
 62
     6
100
AcDbLine
 10
343.495889
 20
581.415151
 11
338.495889
 21
581.415151
  0
LINE
  5
307
100
AcDbEntity
  8
M0
 62
     6
100
AcDbLine
 10
343.495889
 20
550.415151
 11
343.495889
 21
581.415151
  0
ARC
  5
308
100
AcDbEntity
  8
M0
 62
     6
100
AcDbCircle
 10
346.495889
 20
550.415151
 40
3.0
100
AcDbArc
 50
180.0
 51
270.0
  0
LINE
  5
309
100
AcDbEntity
  8
M0
 62
     6
100
AcDbLine
 10
338.495889
 20
581.415151
 11
338.495889
 21
550.415151
  0
ARC
  5
30A
100
AcDbEntity
  8
M0
 62
     6
100
AcDbCircle
 10
346.495889
 20
550.415151
 40
8.0
100
AcDbArc
 50
180.0
 51
270.0
  0
LINE
  5
30B
100
AcDbEntity
  8
M0
 62
     6
100
AcDbLine
 10
419.795877
 20
535.915151
 11
371.795877
 21
535.915151
  0
LINE
  5
30C
100
AcDbEntity
  8
M0
 62
     6
100
AcDbLine
 10
419.795877
 20
518.415151
 11
419.795877
 21
535.915151
  0
LINE
  5
30D
100
AcDbEntity
  8
M0
 62
     6
100
AcDbLine
 10
371.795877
 20
518.415151
 11
419.795877
 21
518.415151
  0
LINE
  5
30E
100
AcDbEntity
  8
M0
 62
     6
100
AcDbLine
 10
388.795877
 20
518.415151
 11
388.795877
 21
504.415151
  0
LINE
  5
30F
100
AcDbEntity
  8
M0
 62
     6
100
AcDbLine
 10
395.795877
 20
518.415151
 11
395.795877
 21
504.415151
  0
LINE
  5
310
100
AcDbEntity
  8
M0
 62
     6
100
AcDbLine
 10
388.795877
 20
535.915151
 11
388.795877
 21
539.415151
  0
LINE
  5
311
100
AcDbEntity
  8
M0
 62
     6
100
AcDbLine
 10
386.795877
 20
541.415151
 11
363.795877
 21
541.415151
  0
ARC
  5
312
100
AcDbEntity
  8
M0
 62
     6
100
AcDbCircle
 10
386.795877
 20
539.415151
 40
2.0
100
AcDbArc
 50
0.0
 51
90.0
  0
LINE
  5
313
100
AcDbEntity
  8
M0
 62
     6
100
AcDbLine
 10
395.795877
 20
535.915151
 11
395.795877
 21
539.415151
  0
LINE
  5
314
100
AcDbEntity
  8
M0
 62
     6
100
AcDbLine
 10
363.795877
 20
548.415151
 11
386.795877
 21
548.415151
  0
ARC
  5
315
100
AcDbEntity
  8
M0
 62
     6
100
AcDbCircle
 10
386.795877
 20
539.415151
 40
9.0
100
AcDbArc
 50
0.0
 51
90.0
  0
LINE
  5
316
100
AcDbEntity
  8
M0
 62
     6
100
AcDbLine
 10
395.795877
 20
504.415151
 11
388.795877
 21
504.415151
  0
LINE
  5
317
100
AcDbEntity
  8
M0
 62
     6
100
AcDbLine
 10
363.795877
 20
548.415151
 11
363.795877
 21
541.415151
  0
LINE
  5
318
100
AcDbEntity
  8
M0
 62
     6
100
AcDbLine
 10
363.795877
 20
547.415151
 11
346.495889
 21
547.415151
  0
LINE
  5
319
100
AcDbEntity
  8
M0
 62
     6
100
AcDbLine
 10
346.495889
 20
542.415151
 11
363.795877
 21
542.415151
  0
LINE
  5
31A
100
AcDbEntity
  8
M0
 62
     6
100
AcDbLine
 10
389.795877
 20
504.415151
 11
389.795877
 21
451.415151
  0
LINE
  5
31B
100
AcDbEntity
  8
M0
 62
     6
100
AcDbLine
 10
394.795877
 20
451.415151
 11
394.795877
 21
504.415151
  0
LINE
  5
31C
100
AcDbEntity
  8
M0
  6
DASHED
 62
     6
100
AcDbLine
 10
386.795877
 20
547.415151
 11
363.795877
 21
547.415151
  0
LINE
  5
31D
100
AcDbEntity
  8
M0
  6
DASHED
 62
     6
100
AcDbLine
 10
363.795877
 20
542.415151
 11
386.795877
 21
542.415151
  0
ARC
  5
31E
100
AcDbEntity
  8
M0
  6
DASHED
 62
     6
100
AcDbCircle
 10
386.795877
 20
539.415151
 40
3.0
100
AcDbArc
 50
0.0
 51
90.0
  0
ARC
  5
31F
100
AcDbEntity
  8
M0
  6
DASHED
 62
     6
100
AcDbCircle
 10
386.795877
 20
539.415151
 40
8.0
100
AcDbArc
 50
0.0
 51
90.0
  0
LINE
  5
320
100
AcDbEntity
  8
M0
  6
DASHED
 62
     6
100
AcDbLine
 10
394.795877
 20
535.915151
 11
394.795877
 21
539.415151
  0
LINE
  5
321
100
AcDbEntity
  8
M0
  6
DASHED
 62
     6
100
AcDbLine
 10
389.795877
 20
539.415151
 11
389.795877
 21
535.915151
  0
LINE
  5
322
100
AcDbEntity
  8
M0
  6
DASHED
 62
     6
100
AcDbLine
 10
389.795877
 20
518.415151
 11
389.795877
 21
504.415151
  0
LINE
  5
323
100
AcDbEntity
  8
M0
  6
DASHED
 62
     6
100
AcDbLine
 10
394.795877
 20
504.415151
 11
394.795877
 21
518.415151
  0
LINE
  5
324
100
AcDbEntity
  8
M0
  6
DASHDOT
 62
     6
100
AcDbLine
 10
331.856942
 20
566.415151
 11
348.938516
 21
566.415151
  0
LINE
  5
325
100
AcDbEntity
  8
M0
 62
     6
100
AcDbLine
 10
371.795877
 20
535.915151
 11
371.795877
 21
518.415151
  0
LINE
  5
326
100
AcDbEntity
  8
M0
  6
DASHED
 62
     6
100
AcDbLine
 10
387.495877
 20
488.665151
 11
387.495877
 21
500.165151
  0
LINE
  5
327
100
AcDbEntity
  8
M0
  6
DASHED
 62
     6
100
AcDbLine
 10
386.69589
 20
488.665151
 11
387.495877
 21
488.665151
  0
LINE
  5
328
100
AcDbEntity
  8
M0
  6
DASHED
 62
     6
100
AcDbLine
 10
386.69589
 20
500.165151
 11
387.495877
 21
500.165151
  0
LINE
  5
329
100
AcDbEntity
  8
M0
  6
DASHED
 62
     6
100
AcDbLine
 10
386.69589
 20
488.665151
 11
386.69589
 21
500.165151
  0
LINE
  5
32A
100
AcDbEntity
  8
M0
  6
DASHED
 62
     6
100
AcDbLine
 10
385.19589
 20
499.915151
 11
386.69589
 21
499.915151
  0
LINE
  5
32B
100
AcDbEntity
  8
M0
  6
DASHED
 62
     6
100
AcDbLine
 10
385.19589
 20
488.915151
 11
386.69589
 21
488.915151
  0
ARC
  5
32C
100
AcDbEntity
  8
M0
  6
DASHED
 62
     6
100
AcDbCircle
 10
395.295879
 20
494.415151
 40
14.0
100
AcDbArc
 50
163.883899
 51
196.072618
  0
ARC
  5
32D
100
AcDbEntity
  8
M0
  6
DASHED
 62
     6
100
AcDbCircle
 10
383.668866
 20
491.065298
 40
1.9
100
AcDbArc
 50
196.075669
 51
270.0
  0
LINE
  5
32E
100
AcDbEntity
  8
M0
  6
DASHED
 62
     6
100
AcDbLine
 10
383.668866
 20
489.165151
 11
385.19589
 21
489.165151
  0
ARC
  5
32F
100
AcDbEntity
  8
M0
  6
DASHED
 62
     6
100
AcDbCircle
 10
383.668866
 20
497.765249
 40
1.9
100
AcDbArc
 50
90.0
 51
163.924765
  0
LINE
  5
330
100
AcDbEntity
  8
M0
  6
DASHED
 62
     6
100
AcDbLine
 10
385.19589
 20
499.665151
 11
383.668866
 21
499.665151
  0
LINE
  5
331
100
AcDbEntity
  8
M0
  6
DASHDOT
 62
     6
100
AcDbLine
 10
378.940839
 20
494.415151
 11
419.158761
 21
494.415151
  0
LINE
  5
332
100
AcDbEntity
  8
M0
  6
DASHED
 62
     6
100
AcDbLine
 10
394.795877
 20
491.415151
 11
406.795877
 21
491.415151
  0
LINE
  5
333
100
AcDbEntity
  8
M0
  6
DASHED
 62
     6
100
AcDbLine
 10
394.795877
 20
497.415151
 11
406.795877
 21
497.415151
  0
LINE
  5
334
100
AcDbEntity
  8
M0
  6
DASHED
 62
     6
100
AcDbLine
 10
385.19589
 20
499.915151
 11
385.19589
 21
488.915151
  0
LINE
  5
335
100
AcDbEntity
  8
M0
  6
DASHED
 62
     6
100
AcDbLine
 10
386.69589
 20
494.415151
 11
385.19589
 21
493.415151
  0
LINE
  5
336
100
AcDbEntity
  8
M0
  6
DASHED
 62
     6
100
AcDbLine
 10
385.19589
 20
494.415151
 11
386.69589
 21
495.415151
  0
ARC
  5
337
100
AcDbEntity
  8
M0
 62
     6
100
AcDbCircle
 10
423.545877
 20
541.665151
 40
3.0
100
AcDbArc
 50
0.0
 51
90.0
  0
LINE
  5
338
100
AcDbEntity
  8
M0
 62
     6
100
AcDbLine
 10
423.545877
 20
544.665151
 11
404.045877
 21
544.665151
  0
ARC
  5
339
100
AcDbEntity
  8
M0
 62
     6
100
AcDbCircle
 10
404.045877
 20
541.665151
 40
3.0
100
AcDbArc
 50
90.0
 51
180.0
  0
LINE
  5
33A
100
AcDbEntity
  8
M0
 62
     6
100
AcDbLine
 10
401.045877
 20
541.665151
 11
401.045877
 21
535.915151
  0
LINE
  5
33B
100
AcDbEntity
  8
M0
 62
     6
100
AcDbLine
 10
426.545877
 20
518.415151
 11
426.545877
 21
541.665151
  0
LINE
  5
33C
100
AcDbEntity
  8
M0
 62
     6
100
AcDbLine
 10
378.545632
 20
536.615209
 11
378.471414
 21
537.46253
  0
LINE
  5
33D
100
AcDbEntity
  8
M0
 62
     6
100
AcDbLine
 10
373.046121
 20
536.615224
 11
373.120095
 21
537.46253
  0
ARC
  5
33E
100
AcDbEntity
  8
M0
 62
     6
100
AcDbCircle
 10
374.116433
 20
537.375387
 40
1.0
100
AcDbArc
 50
106.261219
 51
175.001555
  0
ARC
  5
33F
100
AcDbEntity
  8
M0
 62
     6
100
AcDbCircle
 10
377.475076
 20
537.375387
 40
1.0
100
AcDbArc
 50
4.998384
 51
73.752035
  0
ARC
  5
340
100
AcDbEntity
  8
M0
 62
     6
100
AcDbCircle
 10
375.795877
 20
531.615209
 40
7.0
100
AcDbArc
 50
72.985025
 51
106.255566
  0
LINE
  5
341
100
AcDbEntity
  8
M0
 62
     6
100
AcDbLine
 10
378.545632
 20
535.915151
 11
373.045632
 21
535.915151
  0
LINE
  5
342
100
AcDbEntity
  8
M0
 62
     6
100
AcDbLine
 10
373.045632
 20
536.615102
 11
373.045632
 21
535.915151
  0
LINE
  5
343
100
AcDbEntity
  8
M0
 62
     6
100
AcDbLine
 10
378.545632
 20
536.615102
 11
378.545632
 21
535.915151
  0
LINE
  5
344
100
AcDbEntity
  8
M0
 62
     6
100
AcDbLine
 10
377.095682
 20
516.615728
 11
377.095682
 21
512.615209
  0
LINE
  5
345
100
AcDbEntity
  8
M0
 62
     6
100
AcDbLine
 10
374.495829
 20
516.615728
 11
374.495829
 21
512.615209
  0
LINE
  5
346
100
AcDbEntity
  8
M0
 62
     6
100
AcDbLine
 10
374.295878
 20
516.615728
 11
374.295878
 21
512.615209
  0
LINE
  5
347
100
AcDbEntity
  8
M0
 62
     6
100
AcDbLine
 10
377.295878
 20
512.615209
 11
377.295878
 21
516.615728
  0
LINE
  5
348
100
AcDbEntity
  8
M0
 62
     6
100
AcDbLine
 10
374.295878
 20
512.615209
 11
377.295878
 21
512.615209
  0
LINE
  5
349
100
AcDbEntity
  8
M0
 62
     6
100
AcDbLine
 10
373.045877
 20
536.615209
 11
378.545877
 21
536.615209
  0
LINE
  5
34A
100
AcDbEntity
  8
M0
 62
     6
100
AcDbLine
 10
375.795877
 20
535.915151
 11
375.295877
 21
536.615209
  0
LINE
  5
34B
100
AcDbEntity
  8
M0
 62
     6
100
AcDbLine
 10
375.795877
 20
536.615209
 11
376.295877
 21
535.915151
  0
LINE
  5
34C
100
AcDbEntity
  8
M0
 62
     6
100
AcDbLine
 10
413.046121
 20
536.615209
 11
413.120339
 21
537.46253
  0
LINE
  5
34D
100
AcDbEntity
  8
M0
 62
     6
100
AcDbLine
 10
418.545632
 20
536.615224
 11
418.471658
 21
537.46253
  0
ARC
  5
34E
100
AcDbEntity
  8
M0
 62
     6
100
AcDbCircle
 10
417.47532
 20
537.375387
 40
1.0
100
AcDbArc
 50
4.998445
 51
73.738886
  0
ARC
  5
34F
100
AcDbEntity
  8
M0
 62
     6
100
AcDbCircle
 10
414.116677
 20
537.375387
 40
1.0
100
AcDbArc
 50
106.248385
 51
175.001631
  0
ARC
  5
350
100
AcDbEntity
  8
M0
 62
     6
100
AcDbCircle
 10
415.795877
 20
531.615209
 40
7.0
100
AcDbArc
 50
73.744411
 51
107.014908
  0
LINE
  5
351
100
AcDbEntity
  8
M0
 62
     6
100
AcDbLine
 10
413.046121
 20
535.915151
 11
418.546121
 21
535.915151
  0
LINE
  5
352
100
AcDbEntity
  8
M0
 62
     6
100
AcDbLine
 10
418.546121
 20
536.615102
 11
418.546121
 21
535.915151
  0
LINE
  5
353
100
AcDbEntity
  8
M0
 62
     6
100
AcDbLine
 10
413.046121
 20
536.615102
 11
413.046121
 21
535.915151
  0
LINE
  5
354
100
AcDbEntity
  8
M0
 62
     6
100
AcDbLine
 10
418.545877
 20
536.615209
 11
413.045877
 21
536.615209
  0
LINE
  5
355
100
AcDbEntity
  8
M0
 62
     6
100
AcDbLine
 10
415.795877
 20
535.915151
 11
416.295877
 21
536.615209
  0
LINE
  5
356
100
AcDbEntity
  8
M0
 62
     6
100
AcDbLine
 10
415.795877
 20
536.615209
 11
415.295877
 21
535.915151
  0
LINE
  5
357
100
AcDbEntity
  8
M0
 62
     6
100
AcDbLine
 10
359.795877
 20
472.415151
 11
374.496118
 21
472.415151
  0
LINE
  5
358
100
AcDbEntity
  8
M0
 62
     6
100
AcDbLine
 10
402.795877
 20
460.415151
 11
394.795877
 21
460.415151
  0
LINE
  5
359
100
AcDbEntity
  8
M0
  6
DASHDOT
 62
     6
100
AcDbLine
 10
407.795877
 20
466.415151
 11
355.412026
 21
466.415151
  0
LINE
  5
35A
100
AcDbEntity
  8
M0
 62
     6
100
AcDbLine
 10
394.795877
 20
477.378148
 11
402.795877
 21
477.378148
  0
LINE
  5
35B
100
AcDbEntity
  8
M0
 62
     6
100
AcDbLine
 10
402.795877
 20
477.378148
 11
402.795877
 21
455.452138
  0
LINE
  5
35C
100
AcDbEntity
  8
M0
 62
     6
100
AcDbLine
 10
402.795877
 20
455.452138
 11
394.795877
 21
455.452138
  0
LINE
  5
35D
100
AcDbEntity
  8
M0
 62
     6
100
AcDbLine
 10
359.795877
 20
472.415151
 11
359.795877
 21
460.415151
  0
LINE
  5
35E
100
AcDbEntity
  8
M0
 62
     6
100
AcDbLine
 10
394.795877
 20
472.415151
 11
402.795877
 21
472.415151
  0
LINE
  5
35F
100
AcDbEntity
  8
M0
 62
     6
100
AcDbLine
 10
374.496118
 20
460.415151
 11
359.795877
 21
460.415151
  0
LINE
  5
360
100
AcDbEntity
  8
M0
 62
     6
100
AcDbLine
 10
374.496118
 20
471.415151
 11
359.795877
 21
471.415151
  0
LINE
  5
361
100
AcDbEntity
  8
M0
 62
     6
100
AcDbLine
 10
374.496118
 20
461.415151
 11
359.795877
 21
461.415151
  0
LINE
  5
362
100
AcDbEntity
  8
M0
 62
     6
100
AcDbLine
 10
81.561044
 20
581.415151
 11
106.561044
 21
581.415151
  0
LINE
  5
363
100
AcDbEntity
  8
M0
 62
     6
100
AcDbLine
 10
106.561044
 20
451.415151
 11
81.561044
 21
451.415151
  0
LINE
  5
364
100
AcDbEntity
  8
M0
  6
DASHDOT
 62
     6
100
AcDbLine
 10
94.061044
 20
443.915151
 11
94.061044
 21
593.915151
  0
LINE
  5
365
100
AcDbEntity
  8
M0
  6
DASHDOT
 62
     6
100
AcDbLine
 10
78.020791
 20
466.415151
 11
110.193124
 21
466.415151
  0
LINE
  5
366
100
AcDbEntity
  8
M0
 62
     6
100
AcDbLine
 10
106.561044
 20
504.415151
 11
106.561044
 21
469.985876
  0
LINE
  5
367
100
AcDbEntity
  8
M0
 62
     6
100
AcDbLine
 10
81.561044
 20
451.415151
 11
81.561044
 21
462.844442
  0
LINE
  5
368
100
AcDbEntity
  8
M0
  6
DASHED
 62
     6
100
AcDbLine
 10
106.561044
 20
518.415151
 11
106.561044
 21
504.415151
  0
LINE
  5
369
100
AcDbEntity
  8
M0
  6
DASHED
 62
     6
100
AcDbLine
 10
81.561044
 20
504.415151
 11
81.561044
 21
518.415151
  0
LINE
  5
36A
100
AcDbEntity
  8
M0
  6
DASHED
 62
     6
100
AcDbLine
 10
81.561044
 20
535.915151
 11
81.561044
 21
541.415151
  0
LINE
  5
36B
100
AcDbEntity
  8
M0
  6
DASHED
 62
     6
100
AcDbLine
 10
106.561044
 20
541.415151
 11
106.561044
 21
535.915151
  0
LINE
  5
36C
100
AcDbEntity
  8
M0
 62
     6
100
AcDbLine
 10
106.561044
 20
581.415151
 11
106.561044
 21
542.415151
  0
LINE
  5
36D
100
AcDbEntity
  8
M0
 62
     6
100
AcDbLine
 10
81.561044
 20
542.415151
 11
81.561044
 21
581.415151
  0
LINE
  5
36E
100
AcDbEntity
  8
M0
  6
DASHDOT
 62
     6
100
AcDbLine
 10
84.561044
 20
566.415151
 11
103.561044
 21
566.415151
  0
LINE
  5
36F
100
AcDbEntity
  8
M0
 62
     6
100
AcDbLine
 10
70.061044
 20
518.415151
 11
70.061044
 21
535.915151
  0
LINE
  5
370
100
AcDbEntity
  8
M0
 62
     6
100
AcDbLine
 10
70.061044
 20
535.915151
 11
118.061044
 21
535.915151
  0
LINE
  5
371
100
AcDbEntity
  8
M0
 62
     6
100
AcDbLine
 10
118.061044
 20
535.915151
 11
118.061044
 21
518.415151
  0
LINE
  5
372
100
AcDbEntity
  8
M0
 62
     6
100
AcDbLine
 10
118.061044
 20
518.415151
 11
70.061044
 21
518.415151
  0
LINE
  5
373
100
AcDbEntity
  8
M0
 62
     6
100
AcDbLine
 10
80.561044
 20
518.415151
 11
80.561044
 21
504.415151
  0
LINE
  5
374
100
AcDbEntity
  8
M0
 62
     6
100
AcDbLine
 10
80.561044
 20
548.415151
 11
80.561044
 21
535.915151
  0
LINE
  5
375
100
AcDbEntity
  8
M0
 62
     6
100
AcDbLine
 10
107.561044
 20
548.415151
 11
107.561044
 21
535.915151
  0
LINE
  5
376
100
AcDbEntity
  8
M0
 62
     6
100
AcDbLine
 10
107.561044
 20
518.415151
 11
107.561044
 21
504.415151
  0
LINE
  5
377
100
AcDbEntity
  8
M0
 62
     6
100
AcDbLine
 10
80.561044
 20
504.415151
 11
107.561044
 21
504.415151
  0
LINE
  5
378
100
AcDbEntity
  8
M0
 62
     6
100
AcDbLine
 10
107.561044
 20
541.415151
 11
80.561044
 21
541.415151
  0
LINE
  5
379
100
AcDbEntity
  8
M0
 62
     6
100
AcDbLine
 10
80.561044
 20
548.415151
 11
81.561044
 21
548.415151
  0
LINE
  5
37A
100
AcDbEntity
  8
M0
 62
     6
100
AcDbLine
 10
106.561044
 20
548.415151
 11
107.561044
 21
548.415151
  0
LINE
  5
37B
100
AcDbEntity
  8
M0
  6
DASHED
 62
     6
100
AcDbLine
 10
81.561044
 20
547.415151
 11
106.561044
 21
547.415151
  0
LINE
  5
37C
100
AcDbEntity
  8
M0
  6
DASHED
 62
     6
100
AcDbLine
 10
81.561044
 20
548.415151
 11
106.561044
 21
548.415151
  0
LINE
  5
37D
100
AcDbEntity
  8
M0
 62
     6
100
AcDbLine
 10
106.561044
 20
542.415151
 11
81.561044
 21
542.415151
  0
CIRCLE
  5
37E
100
AcDbEntity
  8
M0
 62
     6
100
AcDbCircle
 10
94.061044
 20
566.415151
 40
6.5
  0
CIRCLE
  5
37F
100
AcDbEntity
  8
M0
 62
     6
100
AcDbCircle
 10
94.061044
 20
466.415151
 40
6.0
  0
CIRCLE
  5
380
100
AcDbEntity
  8
M0
 62
     6
100
AcDbCircle
 10
94.061044
 20
466.415151
 40
5.0
  0
CIRCLE
  5
381
100
AcDbEntity
  8
M0
 62
     6
100
AcDbCircle
 10
94.061044
 20
494.415151
 40
5.25
  0
LINE
  5
382
100
AcDbEntity
  8
M0
 62
     6
100
AcDbLine
 10
94.909634
 20
494.41509
 11
98.173345
 21
497.678792
  0
LINE
  5
383
100
AcDbEntity
  8
M0
 62
     6
100
AcDbLine
 10
90.797397
 20
490.302846
 11
94.061109
 21
493.566564
  0
LINE
  5
384
100
AcDbEntity
  8
M0
 62
     6
100
AcDbLine
 10
93.212626
 20
494.415044
 11
89.948893
 21
491.151311
  0
LINE
  5
385
100
AcDbEntity
  8
M0
 62
     6
100
AcDbLine
 10
97.324873
 20
498.527303
 11
94.061152
 21
495.26357
  0
LINE
  5
386
100
AcDbEntity
  8
M0
 62
     6
100
AcDbLine
 10
94.061141
 20
495.26357
 11
92.293374
 21
497.031347
  0
LINE
  5
387
100
AcDbEntity
  8
M0
 62
     6
100
AcDbLine
 10
96.6774
 20
492.647313
 11
94.909634
 21
494.41509
  0
LINE
  5
388
100
AcDbEntity
  8
M0
 62
     6
100
AcDbLine
 10
94.061109
 20
493.566564
 11
95.828874
 21
491.798787
  0
LINE
  5
389
100
AcDbEntity
  8
M0
 62
     6
100
AcDbLine
 10
91.444848
 20
496.182821
 11
93.212615
 21
494.415044
  0
LINE
  5
38A
100
AcDbEntity
  8
M0
 62
     6
100
AcDbLine
 10
95.828874
 20
491.798787
 11
96.6774
 21
492.647313
  0
LINE
  5
38B
100
AcDbEntity
  8
M0
 62
     6
100
AcDbLine
 10
92.293374
 20
497.031347
 11
91.444848
 21
496.182821
  0
CIRCLE
  5
38C
100
AcDbEntity
  8
M0
 62
     6
100
AcDbCircle
 10
94.061044
 20
494.415151
 40
5.75
  0
LINE
  5
38D
100
AcDbEntity
  8
M0
  6
DASHDOT
 62
     6
100
AcDbLine
 10
102.416463
 20
494.415166
 11
85.705625
 21
494.415151
  0
LINE
  5
38E
100
AcDbEntity
  8
M0
 62
     6
100
AcDbLine
 10
111.311288
 20
536.615209
 11
111.385507
 21
537.46253
  0
LINE
  5
38F
100
AcDbEntity
  8
M0
 62
     6
100
AcDbLine
 10
116.8108
 20
536.615224
 11
116.736825
 21
537.46253
  0
ARC
  5
390
100
AcDbEntity
  8
M0
 62
     6
100
AcDbCircle
 10
115.740487
 20
537.375387
 40
1.0
100
AcDbArc
 50
4.999316
 51
73.739131
  0
ARC
  5
391
100
AcDbEntity
  8
M0
 62
     6
100
AcDbCircle
 10
112.381845
 20
537.375387
 40
1.0
100
AcDbArc
 50
106.24814
 51
175.00076
  0
ARC
  5
392
100
AcDbEntity
  8
M0
 62
     6
100
AcDbCircle
 10
114.061044
 20
531.615209
 40
7.0
100
AcDbArc
 50
73.744446
 51
107.014871
  0
LINE
  5
393
100
AcDbEntity
  8
M0
 62
     6
100
AcDbLine
 10
111.311288
 20
535.915151
 11
116.811288
 21
535.915151
  0
LINE
  5
394
100
AcDbEntity
  8
M0
 62
     6
100
AcDbLine
 10
116.811288
 20
536.615102
 11
116.811288
 21
535.915151
  0
LINE
  5
395
100
AcDbEntity
  8
M0
 62
     6
100
AcDbLine
 10
111.311288
 20
536.615102
 11
111.311288
 21
535.915151
  0
LINE
  5
396
100
AcDbEntity
  8
M0
 62
     6
100
AcDbLine
 10
112.761239
 20
516.615743
 11
112.761239
 21
512.615209
  0
LINE
  5
397
100
AcDbEntity
  8
M0
 62
     6
100
AcDbLine
 10
115.361093
 20
516.615743
 11
115.361093
 21
512.615209
  0
LINE
  5
398
100
AcDbEntity
  8
M0
 62
     6
100
AcDbLine
 10
115.561044
 20
516.615743
 11
115.561044
 21
512.615209
  0
LINE
  5
399
100
AcDbEntity
  8
M0
 62
     6
100
AcDbLine
 10
112.561044
 20
512.615209
 11
112.561044
 21
516.615743
  0
LINE
  5
39A
100
AcDbEntity
  8
M0
 62
     6
100
AcDbLine
 10
115.561044
 20
512.615209
 11
112.561044
 21
512.615209
  0
LINE
  5
39B
100
AcDbEntity
  8
M0
 62
     6
100
AcDbLine
 10
116.811044
 20
536.615209
 11
111.311044
 21
536.615209
  0
LINE
  5
39C
100
AcDbEntity
  8
M0
 62
     6
100
AcDbLine
 10
114.061044
 20
535.915151
 11
114.561044
 21
536.615209
  0
LINE
  5
39D
100
AcDbEntity
  8
M0
 62
     6
100
AcDbLine
 10
114.061044
 20
536.615209
 11
113.561044
 21
535.915151
  0
LINE
  5
39E
100
AcDbEntity
  8
M0
 62
     6
100
AcDbLine
 10
76.8108
 20
536.615209
 11
76.736581
 21
537.46253
  0
LINE
  5
39F
100
AcDbEntity
  8
M0
 62
     6
100
AcDbLine
 10
71.311288
 20
536.615224
 11
71.385263
 21
537.46253
  0
ARC
  5
3A0
100
AcDbEntity
  8
M0
 62
     6
100
AcDbCircle
 10
72.3816
 20
537.375387
 40
1.0
100
AcDbArc
 50
106.260869
 51
175.000684
  0
ARC
  5
3A1
100
AcDbEntity
  8
M0
 62
     6
100
AcDbCircle
 10
75.740243
 20
537.375387
 40
1.0
100
AcDbArc
 50
4.99924
 51
73.75186
  0
ARC
  5
3A2
100
AcDbEntity
  8
M0
 62
     6
100
AcDbCircle
 10
74.061044
 20
531.615209
 40
7.0
100
AcDbArc
 50
72.985009
 51
106.255434
  0
LINE
  5
3A3
100
AcDbEntity
  8
M0
 62
     6
100
AcDbLine
 10
76.8108
 20
535.915151
 11
71.3108
 21
535.915151
  0
LINE
  5
3A4
100
AcDbEntity
  8
M0
 62
     6
100
AcDbLine
 10
71.3108
 20
536.615102
 11
71.3108
 21
535.915151
  0
LINE
  5
3A5
100
AcDbEntity
  8
M0
 62
     6
100
AcDbLine
 10
76.8108
 20
536.615102
 11
76.8108
 21
535.915151
  0
LINE
  5
3A6
100
AcDbEntity
  8
M0
 62
     6
100
AcDbLine
 10
75.360848
 20
516.615743
 11
75.360848
 21
512.615209
  0
LINE
  5
3A7
100
AcDbEntity
  8
M0
 62
     6
100
AcDbLine
 10
72.760995
 20
516.615743
 11
72.760995
 21
512.615209
  0
LINE
  5
3A8
100
AcDbEntity
  8
M0
 62
     6
100
AcDbLine
 10
72.561044
 20
516.615743
 11
72.561044
 21
512.615209
  0
LINE
  5
3A9
100
AcDbEntity
  8
M0
 62
     6
100
AcDbLine
 10
75.561044
 20
512.615209
 11
75.561044
 21
516.615743
  0
LINE
  5
3AA
100
AcDbEntity
  8
M0
 62
     6
100
AcDbLine
 10
72.561044
 20
512.615209
 11
75.561044
 21
512.615209
  0
LINE
  5
3AB
100
AcDbEntity
  8
M0
 62
     6
100
AcDbLine
 10
71.311044
 20
536.615209
 11
76.811044
 21
536.615209
  0
LINE
  5
3AC
100
AcDbEntity
  8
M0
 62
     6
100
AcDbLine
 10
74.061044
 20
535.915151
 11
73.561044
 21
536.615209
  0
LINE
  5
3AD
100
AcDbEntity
  8
M0
 62
     6
100
AcDbLine
 10
74.061044
 20
536.615209
 11
74.561044
 21
535.915151
  0
LINE
  5
3AE
100
AcDbEntity
  8
M0
 62
     6
100
AcDbLine
 10
81.561044
 20
469.985876
 11
81.561044
 21
504.415151
  0
LINE
  5
3AF
100
AcDbEntity
  8
M0
 62
     6
100
AcDbLine
 10
106.561044
 20
462.844442
 11
106.561044
 21
451.415151
  0
LINE
  5
3B0
100
AcDbEntity
  8
M0
 62
   114
100
AcDbLine
 10
70.061044
 20
518.415143
 11
118.061044
 21
518.415159
  0
LINE
  5
3B1
100
AcDbEntity
  8
M0
 62
   114
100
AcDbLine
 10
118.061044
 20
518.415159
 11
118.061051
 21
496.415159
  0
LINE
  5
3B2
100
AcDbEntity
  8
M0
 62
   114
100
AcDbLine
 10
117.061051
 20
495.415158
 11
106.561042
 21
495.415155
  0
ARC
  5
3B3
100
AcDbEntity
  8
M0
 62
   114
100
AcDbCircle
 10
117.061051
 20
496.415158
 40
1.0
100
AcDbArc
 50
-90.0
 51
1.798609E-005
  0
LINE
  5
3B4
100
AcDbEntity
  8
M0
 62
   114
100
AcDbLine
 10
81.561045
 20
495.415147
 11
71.061051
 21
495.415144
  0
LINE
  5
3B5
100
AcDbEntity
  8
M0
 62
   114
100
AcDbLine
 10
70.061051
 20
496.415143
 11
70.061044
 21
518.415143
  0
ARC
  5
3B6
100
AcDbEntity
  8
M0
 62
   114
100
AcDbCircle
 10
71.061051
 20
496.415144
 40
1.0
100
AcDbArc
 50
179.999144
 51
270.0
  0
LINE
  5
3B7
100
AcDbEntity
  8
M0
  6
DASHDOT
 62
   114
100
AcDbLine
 10
76.061052
 20
493.915145
 11
76.061047
 21
506.915145
  0
LINE
  5
3B8
100
AcDbEntity
  8
M0
  6
DASHDOT
 62
   114
100
AcDbLine
 10
69.561049
 20
500.415143
 11
81.561045
 21
500.415147
  0
LINE
  5
3B9
100
AcDbEntity
  8
M0
  6
DASHDOT
 62
   114
100
AcDbLine
 10
112.061052
 20
493.915157
 11
112.061047
 21
506.915157
  0
LINE
  5
3BA
100
AcDbEntity
  8
M0
  6
DASHDOT
 62
   114
100
AcDbLine
 10
118.561049
 20
500.415159
 11
106.561043
 21
500.415155
  0
LINE
  5
3BB
100
AcDbEntity
  8
M0
 62
   114
100
AcDbLine
 10
130.211892
 20
518.414914
 11
128.061029
 21
518.414914
  0
LINE
  5
3BC
100
AcDbEntity
  8
M0
 62
   114
100
AcDbLine
 10
128.061029
 20
518.414914
 11
128.061022
 21
496.414914
  0
LINE
  5
3BD
100
AcDbEntity
  8
M0
 62
   114
100
AcDbLine
 10
129.061021
 20
495.414914
 11
130.21187
 21
495.414914
  0
ARC
  5
3BE
100
AcDbEntity
  8
M0
 62
   114
100
AcDbCircle
 10
129.061022
 20
496.414914
 40
1.0
100
AcDbArc
 50
179.999108
 51
270.0
  0
LINE
  5
3BF
100
AcDbEntity
  8
M0
 62
     1
100
AcDbLine
 10
226.860818
 20
518.41515
 11
226.860819
 21
516.615736
  0
LINE
  5
3C0
100
AcDbEntity
  8
M0
 62
     1
100
AcDbLine
 10
226.860819
 20
516.615736
 11
233.260965
 21
516.615738
  0
LINE
  5
3C1
100
AcDbEntity
  8
M0
 62
     1
100
AcDbLine
 10
233.260965
 20
516.615738
 11
233.260964
 21
518.415152
  0
LINE
  5
3C2
100
AcDbEntity
  8
M0
 62
     1
100
AcDbLine
 10
233.260964
 20
518.415152
 11
226.860818
 21
518.41515
  0
LINE
  5
3C3
100
AcDbEntity
  8
M0
 62
     1
100
AcDbLine
 10
231.660623
 20
516.615738
 11
231.660623
 21
518.415152
  0
LINE
  5
3C4
100
AcDbEntity
  8
M0
 62
     1
100
AcDbLine
 10
228.460672
 20
516.615737
 11
228.460671
 21
518.415151
  0
LINE
  5
3C5
100
AcDbEntity
  8
M0
 62
     1
100
AcDbLine
 10
110.860848
 20
518.41515
 11
110.860849
 21
516.615736
  0
LINE
  5
3C6
100
AcDbEntity
  8
M0
 62
     1
100
AcDbLine
 10
110.860849
 20
516.615736
 11
117.260996
 21
516.615738
  0
LINE
  5
3C7
100
AcDbEntity
  8
M0
 62
     1
100
AcDbLine
 10
117.260996
 20
516.615738
 11
117.260995
 21
518.415152
  0
LINE
  5
3C8
100
AcDbEntity
  8
M0
 62
     1
100
AcDbLine
 10
117.260995
 20
518.415152
 11
110.860848
 21
518.41515
  0
LINE
  5
3C9
100
AcDbEntity
  8
M0
 62
     1
100
AcDbLine
 10
115.660654
 20
516.615738
 11
115.660653
 21
518.415152
  0
LINE
  5
3CA
100
AcDbEntity
  8
M0
 62
     1
100
AcDbLine
 10
112.460703
 20
516.615737
 11
112.460702
 21
518.415151
  0
LINE
  5
3CB
100
AcDbEntity
  8
M0
 62
     1
100
AcDbLine
 10
70.860848
 20
518.41515
 11
70.860849
 21
516.615736
  0
LINE
  5
3CC
100
AcDbEntity
  8
M0
 62
     1
100
AcDbLine
 10
70.860849
 20
516.615736
 11
77.260996
 21
516.615738
  0
LINE
  5
3CD
100
AcDbEntity
  8
M0
 62
     1
100
AcDbLine
 10
77.260996
 20
516.615738
 11
77.260995
 21
518.415152
  0
LINE
  5
3CE
100
AcDbEntity
  8
M0
 62
     1
100
AcDbLine
 10
77.260995
 20
518.415152
 11
70.860848
 21
518.41515
  0
LINE
  5
3CF
100
AcDbEntity
  8
M0
 62
     1
100
AcDbLine
 10
75.660654
 20
516.615738
 11
75.660653
 21
518.415152
  0
LINE
  5
3D0
100
AcDbEntity
  8
M0
 62
     1
100
AcDbLine
 10
72.460703
 20
516.615737
 11
72.460702
 21
518.415151
  0
LINE
  5
3D1
100
AcDbEntity
  8
M0
 62
     1
100
AcDbLine
 10
372.595681
 20
518.41515
 11
372.595682
 21
516.615736
  0
LINE
  5
3D2
100
AcDbEntity
  8
M0
 62
     1
100
AcDbLine
 10
372.595682
 20
516.615736
 11
378.995828
 21
516.615738
  0
LINE
  5
3D3
100
AcDbEntity
  8
M0
 62
     1
100
AcDbLine
 10
378.995828
 20
516.615738
 11
378.995828
 21
518.415152
  0
LINE
  5
3D4
100
AcDbEntity
  8
M0
 62
     1
100
AcDbLine
 10
378.995828
 20
518.415152
 11
372.595681
 21
518.41515
  0
LINE
  5
3D5
100
AcDbEntity
  8
M0
 62
     1
100
AcDbLine
 10
377.395487
 20
516.615738
 11
377.395486
 21
518.415152
  0
LINE
  5
3D6
100
AcDbEntity
  8
M0
 62
     1
100
AcDbLine
 10
374.195535
 20
516.615737
 11
374.195535
 21
518.415151
  0
LINE
  5
3D7
100
AcDbEntity
  8
M0
 62
   253
100
AcDbLine
 10
76.768151
 20
500.414907
 11
78.864083
 21
502.510839
  0
LINE
  5
3D8
100
AcDbEntity
  8
M0
 62
   253
100
AcDbLine
 10
73.9651
 20
497.611857
 11
76.061044
 21
499.7078
  0
LINE
  5
3D9
100
AcDbEntity
  8
M0
 62
   253
100
AcDbLine
 10
75.353937
 20
500.414907
 11
73.257994
 21
498.318964
  0
LINE
  5
3DA
100
AcDbEntity
  8
M0
 62
   253
100
AcDbLine
 10
78.156976
 20
503.217946
 11
76.061044
 21
501.122014
  0
LINE
  5
3DB
100
AcDbEntity
  8
M0
 62
   253
100
AcDbLine
 10
76.061044
 20
501.122014
 11
74.964994
 21
502.218064
  0
LINE
  5
3DC
100
AcDbEntity
  8
M0
 62
   253
100
AcDbLine
 10
77.864201
 20
499.318857
 11
76.768151
 21
500.414907
  0
LINE
  5
3DD
100
AcDbEntity
  8
M0
 62
   253
100
AcDbLine
 10
76.061044
 20
499.7078
 11
77.157094
 21
498.61175
  0
LINE
  5
3DE
100
AcDbEntity
  8
M0
 62
   253
100
AcDbLine
 10
74.257887
 20
501.510957
 11
75.353937
 21
500.414907
  0
CIRCLE
  5
3DF
100
AcDbEntity
  8
M0
 62
   253
100
AcDbCircle
 10
76.061044
 20
500.414907
 40
3.5
  0
LINE
  5
3E0
100
AcDbEntity
  8
M0
 62
   253
100
AcDbLine
 10
77.157094
 20
498.61175
 11
77.864201
 21
499.318857
  0
LINE
  5
3E1
100
AcDbEntity
  8
M0
 62
   253
100
AcDbLine
 10
74.964994
 20
502.218064
 11
74.257887
 21
501.510957
  0
CIRCLE
  5
3E2
100
AcDbEntity
  8
M0
 62
   253
100
AcDbCircle
 10
76.061044
 20
500.414907
 40
4.0
  0
LINE
  5
3E3
100
AcDbEntity
  8
M0
 62
   253
100
AcDbLine
 10
112.768151
 20
500.415151
 11
114.864083
 21
502.511083
  0
LINE
  5
3E4
100
AcDbEntity
  8
M0
 62
   253
100
AcDbLine
 10
109.9651
 20
497.612101
 11
112.061044
 21
499.708044
  0
LINE
  5
3E5
100
AcDbEntity
  8
M0
 62
   253
100
AcDbLine
 10
111.353937
 20
500.415151
 11
109.257994
 21
498.319208
  0
LINE
  5
3E6
100
AcDbEntity
  8
M0
 62
   253
100
AcDbLine
 10
114.156976
 20
503.21819
 11
112.061044
 21
501.122258
  0
LINE
  5
3E7
100
AcDbEntity
  8
M0
 62
   253
100
AcDbLine
 10
112.061044
 20
501.122258
 11
110.964994
 21
502.218308
  0
LINE
  5
3E8
100
AcDbEntity
  8
M0
 62
   253
100
AcDbLine
 10
113.864201
 20
499.319101
 11
112.768151
 21
500.415151
  0
LINE
  5
3E9
100
AcDbEntity
  8
M0
 62
   253
100
AcDbLine
 10
112.061044
 20
499.708044
 11
113.157094
 21
498.611994
  0
LINE
  5
3EA
100
AcDbEntity
  8
M0
 62
   253
100
AcDbLine
 10
110.257887
 20
501.511201
 11
111.353937
 21
500.415151
  0
CIRCLE
  5
3EB
100
AcDbEntity
  8
M0
 62
   253
100
AcDbCircle
 10
112.061044
 20
500.415151
 40
3.5
  0
LINE
  5
3EC
100
AcDbEntity
  8
M0
 62
   253
100
AcDbLine
 10
113.157094
 20
498.611994
 11
113.864201
 21
499.319101
  0
LINE
  5
3ED
100
AcDbEntity
  8
M0
 62
   253
100
AcDbLine
 10
110.964994
 20
502.218308
 11
110.257887
 21
501.511201
  0
CIRCLE
  5
3EE
100
AcDbEntity
  8
M0
 62
   253
100
AcDbCircle
 10
112.061044
 20
500.415151
 40
4.0
  0
LINE
  5
3EF
100
AcDbEntity
  8
M0
 62
   253
100
AcDbLine
 10
192.767876
 20
500.415151
 11
194.863808
 21
502.511083
  0
LINE
  5
3F0
100
AcDbEntity
  8
M0
 62
   253
100
AcDbLine
 10
194.156702
 20
503.21819
 11
192.711664
 21
501.773152
  0
LINE
  5
3F1
100
AcDbEntity
  8
M0
 62
   253
100
AcDbLine
 10
193.863926
 20
499.319101
 11
192.767876
 21
500.415151
  0
LINE
  5
3F2
100
AcDbEntity
  8
M0
 62
   253
100
AcDbLine
 10
192.711665
 20
499.057148
 11
193.156819
 21
498.611994
  0
LINE
  5
3F3
100
AcDbEntity
  8
M0
 62
   253
100
AcDbLine
 10
193.156819
 20
498.611994
 11
193.863926
 21
499.319101
  0
ARC
  5
3F4
100
AcDbEntity
  8
M0
 62
   253
100
AcDbCircle
 10
192.060769
 20
500.415151
 40
4.0
100
AcDbArc
 50
279.364225
 51
440.634997
  0
ARC
  5
3F5
100
AcDbEntity
  8
M0
 62
   253
100
AcDbCircle
 10
192.060769
 20
500.415151
 40
3.5
100
AcDbArc
 50
280.716825
 51
439.282327
  0
LINE
  5
3F6
100
AcDbEntity
  8
M0
 62
   253
100
AcDbLine
 10
228.767876
 20
500.414907
 11
230.863808
 21
502.510839
  0
LINE
  5
3F7
100
AcDbEntity
  8
M0
 62
   253
100
AcDbLine
 10
225.964826
 20
497.611857
 11
228.060769
 21
499.7078
  0
LINE
  5
3F8
100
AcDbEntity
  8
M0
 62
   253
100
AcDbLine
 10
227.353662
 20
500.414907
 11
225.257719
 21
498.318964
  0
LINE
  5
3F9
100
AcDbEntity
  8
M0
 62
   253
100
AcDbLine
 10
230.156702
 20
503.217946
 11
228.060769
 21
501.122014
  0
LINE
  5
3FA
100
AcDbEntity
  8
M0
 62
   253
100
AcDbLine
 10
228.060769
 20
501.122014
 11
226.964719
 21
502.218064
  0
LINE
  5
3FB
100
AcDbEntity
  8
M0
 62
   253
100
AcDbLine
 10
229.863926
 20
499.318857
 11
228.767876
 21
500.414907
  0
LINE
  5
3FC
100
AcDbEntity
  8
M0
 62
   253
100
AcDbLine
 10
228.060769
 20
499.7078
 11
229.156819
 21
498.61175
  0
LINE
  5
3FD
100
AcDbEntity
  8
M0
 62
   253
100
AcDbLine
 10
226.257612
 20
501.510957
 11
227.353662
 21
500.414907
  0
CIRCLE
  5
3FE
100
AcDbEntity
  8
M0
 62
   253
100
AcDbCircle
 10
228.060769
 20
500.414907
 40
3.5
  0
LINE
  5
3FF
100
AcDbEntity
  8
M0
 62
   253
100
AcDbLine
 10
229.156819
 20
498.61175
 11
229.863926
 21
499.318857
  0
LINE
  5
400
100
AcDbEntity
  8
M0
 62
   253
100
AcDbLine
 10
226.964719
 20
502.218064
 11
226.257612
 21
501.510957
  0
CIRCLE
  5
401
100
AcDbEntity
  8
M0
 62
   253
100
AcDbCircle
 10
228.060769
 20
500.414907
 40
4.0
  0
LINE
  5
402
100
AcDbEntity
  8
M0
 62
   253
100
AcDbLine
 10
443.39573
 20
496.415151
 11
443.39573
 21
504.415151
  0
LINE
  5
403
100
AcDbEntity
  8
M0
 62
   253
100
AcDbLine
 10
443.89573
 20
496.415151
 11
443.89573
 21
504.415151
  0
LINE
  5
404
100
AcDbEntity
  8
M0
 62
   253
100
AcDbLine
 10
442.39573
 20
503.915151
 11
443.39573
 21
503.915151
  0
LINE
  5
405
100
AcDbEntity
  8
M0
 62
   253
100
AcDbLine
 10
442.39573
 20
496.915151
 11
443.39573
 21
496.915151
  0
LINE
  5
406
100
AcDbEntity
  8
M0
 62
   253
100
AcDbLine
 10
443.39573
 20
504.415151
 11
443.89573
 21
504.415151
  0
LINE
  5
407
100
AcDbEntity
  8
M0
 62
   253
100
AcDbLine
 10
443.39573
 20
496.415151
 11
443.89573
 21
496.415151
  0
LINE
  5
408
100
AcDbEntity
  8
M0
 62
   253
100
AcDbLine
 10
442.39573
 20
496.915273
 11
442.39573
 21
503.915273
  0
LINE
  5
409
100
AcDbEntity
  8
M0
 62
   253
100
AcDbLine
 10
460.39573
 20
498.415273
 11
460.39573
 21
502.415273
  0
LINE
  5
40A
100
AcDbEntity
  8
M0
 62
   253
100
AcDbLine
 10
460.39573
 20
502.415273
 11
459.095676
 21
502.415273
  0
LINE
  5
40B
100
AcDbEntity
  8
M0
 62
   253
100
AcDbLine
 10
442.39573
 20
502.415273
 11
442.39573
 21
498.415273
  0
LINE
  5
40C
100
AcDbEntity
  8
M0
 62
   253
100
AcDbLine
 10
459.095676
 20
498.415273
 11
460.39573
 21
498.415273
  0
LINE
  5
40D
100
AcDbEntity
  8
M0
  6
DASHDOT
 62
   253
100
AcDbLine
 10
437.39573
 20
500.415273
 11
462.406228
 21
500.415273
  0
LINE
  5
40E
100
AcDbEntity
  8
M0
 62
   253
100
AcDbLine
 10
442.39573
 20
503.915273
 11
441.416711
 21
503.915273
  0
ARC
  5
40F
100
AcDbEntity
  8
M0
 62
   253
100
AcDbCircle
 10
441.416711
 20
502.61527
 40
1.299999
100
AcDbArc
 50
90.0
 51
163.398526
  0
LINE
  5
410
100
AcDbEntity
  8
M0
 62
   253
100
AcDbLine
 10
441.416711
 20
496.915273
 11
442.39573
 21
496.915273
  0
ARC
  5
411
100
AcDbEntity
  8
M0
 62
   253
100
AcDbCircle
 10
441.416711
 20
498.215276
 40
1.299999
100
AcDbArc
 50
196.601394
 51
270.0
  0
LINE
  5
412
100
AcDbEntity
  8
M0
 62
   253
100
AcDbLine
 10
459.095676
 20
502.11527
 11
460.39573
 21
502.11527
  0
LINE
  5
413
100
AcDbEntity
  8
M0
 62
   253
100
AcDbLine
 10
459.095676
 20
498.715276
 11
460.39573
 21
498.715276
  0
LINE
  5
414
100
AcDbEntity
  8
M0
 62
   253
100
AcDbLine
 10
439.809625
 20
500.915273
 11
441.209634
 21
500.915273
  0
LINE
  5
415
100
AcDbEntity
  8
M0
 62
   253
100
AcDbLine
 10
441.209634
 20
500.915273
 11
441.209634
 21
499.915273
  0
LINE
  5
416
100
AcDbEntity
  8
M0
 62
   253
100
AcDbLine
 10
441.209634
 20
499.915273
 11
439.809625
 21
499.915273
  0
ARC
  5
417
100
AcDbEntity
  8
M0
 62
   253
100
AcDbCircle
 10
448.795724
 20
500.415273
 40
9.0
100
AcDbArc
 50
163.398451
 51
176.815238
  0
ARC
  5
418
100
AcDbEntity
  8
M0
 62
   253
100
AcDbCircle
 10
448.795724
 20
500.415273
 40
9.0
100
AcDbArc
 50
183.18469
 51
196.60153
  0
LINE
  5
419
100
AcDbEntity
  8
M0
 62
   253
100
AcDbLine
 10
443.39573
 20
500.415273
 11
442.39573
 21
499.915273
  0
LINE
  5
41A
100
AcDbEntity
  8
M0
 62
   253
100
AcDbLine
 10
442.39573
 20
500.415273
 11
443.39573
 21
500.915258
  0
LINE
  5
41B
100
AcDbEntity
  8
M0
  6
DASHED
 62
     4
100
AcDbLine
 10
412.295877
 20
488.664892
 11
407.295877
 21
488.664892
  0
LINE
  5
41C
100
AcDbEntity
  8
M0
  6
DASHED
 62
     4
100
AcDbLine
 10
412.295892
 20
500.164876
 11
412.295877
 21
488.664892
  0
LINE
  5
41D
100
AcDbEntity
  8
M0
  6
DASHED
 62
     4
100
AcDbLine
 10
407.295877
 20
488.664892
 11
407.295877
 21
500.164876
  0
LINE
  5
41E
100
AcDbEntity
  8
M0
  6
DASHED
 62
     4
100
AcDbLine
 10
412.295892
 20
497.289876
 11
407.295877
 21
497.289876
  0
LINE
  5
41F
100
AcDbEntity
  8
M0
  6
DASHED
 62
     4
100
AcDbLine
 10
412.295877
 20
491.539892
 11
407.295877
 21
491.539892
  0
LINE
  5
420
100
AcDbEntity
  8
M0
  6
DASHED
 62
     4
100
AcDbLine
 10
407.295877
 20
500.164876
 11
412.295892
 21
500.164861
  0
LINE
  5
421
100
AcDbEntity
  8
M0
 62
   253
100
AcDbLine
 10
94.0608
 20
455.465078
 11
84.57789
 21
460.940084
  0
LINE
  5
422
100
AcDbEntity
  8
M0
 62
   253
100
AcDbLine
 10
84.57789
 20
460.940084
 11
84.57789
 21
471.890066
  0
LINE
  5
423
100
AcDbEntity
  8
M0
 62
   253
100
AcDbLine
 10
84.57789
 20
471.890066
 11
94.0608
 21
477.365072
  0
LINE
  5
424
100
AcDbEntity
  8
M0
 62
   253
100
AcDbLine
 10
94.0608
 20
477.365072
 11
103.543954
 21
471.890066
  0
LINE
  5
425
100
AcDbEntity
  8
M0
 62
   253
100
AcDbLine
 10
103.543954
 20
471.890066
 11
103.543954
 21
460.940053
  0
LINE
  5
426
100
AcDbEntity
  8
M0
 62
   253
100
AcDbLine
 10
103.543954
 20
460.940053
 11
94.0608
 21
455.465078
  0
CIRCLE
  5
427
100
AcDbEntity
  8
M0
 62
   253
100
AcDbCircle
 10
94.061044
 20
466.415151
 40
13.0
  0
ARC
  5
428
100
AcDbEntity
  8
M0
 62
   253
100
AcDbCircle
 10
94.061044
 20
466.415151
 40
10.75
100
AcDbArc
 50
31.90003
 51
88.100807
  0
ARC
  5
429
100
AcDbEntity
  8
M0
 62
   253
100
AcDbCircle
 10
94.061044
 20
466.415151
 40
10.75
100
AcDbArc
 50
331.900478
 51
388.09947
  0
ARC
  5
42A
100
AcDbEntity
  8
M0
 62
   253
100
AcDbCircle
 10
94.061044
 20
466.415151
 40
10.75
100
AcDbArc
 50
271.900651
 51
328.098139
  0
ARC
  5
42B
100
AcDbEntity
  8
M0
 62
   253
100
AcDbCircle
 10
94.061044
 20
466.415151
 40
10.75
100
AcDbArc
 50
211.902957
 51
268.096618
  0
ARC
  5
42C
100
AcDbEntity
  8
M0
 62
   253
100
AcDbCircle
 10
94.061044
 20
466.415151
 40
10.75
100
AcDbArc
 50
91.901835
 51
148.098501
  0
ARC
  5
42D
100
AcDbEntity
  8
M0
 62
   253
100
AcDbCircle
 10
94.061044
 20
466.415151
 40
10.75
100
AcDbArc
 50
151.903243
 51
208.096686
  0
LINE
  5
42E
100
AcDbEntity
  8
M0
 62
   253
100
AcDbLine
 10
374.495874
 20
455.465154
 11
384.495874
 21
455.465154
  0
LINE
  5
42F
100
AcDbEntity
  8
M0
 62
   253
100
AcDbLine
 10
384.496118
 20
455.465169
 11
384.496118
 21
477.365163
  0
LINE
  5
430
100
AcDbEntity
  8
M0
 62
   253
100
AcDbLine
 10
384.495874
 20
460.94013
 11
374.495874
 21
460.94013
  0
LINE
  5
431
100
AcDbEntity
  8
M0
 62
   253
100
AcDbLine
 10
374.495629
 20
477.365148
 11
384.495874
 21
477.365148
  0
LINE
  5
432
100
AcDbEntity
  8
M0
 62
   253
100
AcDbLine
 10
384.495874
 20
471.890142
 11
374.495629
 21
471.890142
  0
LINE
  5
433
100
AcDbEntity
  8
M0
 62
   253
100
AcDbLine
 10
387.495874
 20
453.415151
 11
389.795877
 21
453.415151
  0
LINE
  5
434
100
AcDbEntity
  8
M0
 62
   253
100
AcDbLine
 10
389.795877
 20
453.415151
 11
389.795877
 21
479.415151
  0
LINE
  5
435
100
AcDbEntity
  8
M0
 62
   253
100
AcDbLine
 10
389.795877
 20
479.415151
 11
387.495874
 21
479.415151
  0
LINE
  5
436
100
AcDbEntity
  8
M0
 62
   253
100
AcDbLine
 10
387.495874
 20
479.415151
 11
387.495874
 21
453.415151
  0
LINE
  5
437
100
AcDbEntity
  8
M0
 62
   253
100
AcDbLine
 10
384.495874
 20
455.665151
 11
387.495874
 21
455.665151
  0
LINE
  5
438
100
AcDbEntity
  8
M0
 62
   253
100
AcDbLine
 10
387.495874
 20
477.165151
 11
384.495874
 21
477.165151
  0
LINE
  5
439
100
AcDbEntity
  8
M0
 62
   253
100
AcDbLine
 10
384.495874
 20
466.415166
 11
387.495874
 21
464.683126
  0
LINE
  5
43A
100
AcDbEntity
  8
M0
 62
   253
100
AcDbLine
 10
384.495874
 20
468.147191
 11
387.495874
 21
466.415151
  0
LINE
  5
43B
100
AcDbEntity
  8
M0
 62
   253
100
AcDbLine
 10
374.496118
 20
477.365117
 11
374.496118
 21
455.465139
  0
LINE
  5
43C
100
AcDbEntity
  8
M0
 62
   253
100
AcDbLine
 10
152.0608
 20
455.465078
 11
142.57789
 21
460.940084
  0
LINE
  5
43D
100
AcDbEntity
  8
M0
 62
   253
100
AcDbLine
 10
142.57789
 20
460.940084
 11
142.57789
 21
471.890066
  0
LINE
  5
43E
100
AcDbEntity
  8
M0
 62
   253
100
AcDbLine
 10
142.57789
 20
471.890066
 11
152.0608
 21
477.365072
  0
LINE
  5
43F
100
AcDbEntity
  8
M0
 62
   253
100
AcDbLine
 10
152.0608
 20
477.365072
 11
161.543954
 21
471.890066
  0
LINE
  5
440
100
AcDbEntity
  8
M0
 62
   253
100
AcDbLine
 10
161.543954
 20
471.890066
 11
161.543954
 21
460.940053
  0
LINE
  5
441
100
AcDbEntity
  8
M0
 62
   253
100
AcDbLine
 10
161.543954
 20
460.940053
 11
152.0608
 21
455.465078
  0
CIRCLE
  5
442
100
AcDbEntity
  8
M0
 62
   253
100
AcDbCircle
 10
152.061044
 20
466.415151
 40
13.0
  0
ARC
  5
443
100
AcDbEntity
  8
M0
 62
   253
100
AcDbCircle
 10
152.061044
 20
466.415151
 40
10.75
100
AcDbArc
 50
31.90003
 51
88.100807
  0
ARC
  5
444
100
AcDbEntity
  8
M0
 62
   253
100
AcDbCircle
 10
152.061044
 20
466.415151
 40
10.75
100
AcDbArc
 50
331.900478
 51
388.09947
  0
ARC
  5
445
100
AcDbEntity
  8
M0
 62
   253
100
AcDbCircle
 10
152.061044
 20
466.415151
 40
10.75
100
AcDbArc
 50
271.900651
 51
328.098139
  0
ARC
  5
446
100
AcDbEntity
  8
M0
 62
   253
100
AcDbCircle
 10
152.061044
 20
466.415151
 40
10.75
100
AcDbArc
 50
211.902957
 51
268.096618
  0
ARC
  5
447
100
AcDbEntity
  8
M0
 62
   253
100
AcDbCircle
 10
152.061044
 20
466.415151
 40
10.75
100
AcDbArc
 50
91.901835
 51
148.098501
  0
ARC
  5
448
100
AcDbEntity
  8
M0
 62
   253
100
AcDbCircle
 10
152.061044
 20
466.415151
 40
10.75
100
AcDbArc
 50
151.903243
 51
208.096686
  0
LINE
  5
449
100
AcDbEntity
  8
M0
 62
   253
100
AcDbLine
 10
210.060769
 20
455.465078
 11
200.577859
 21
460.940084
  0
LINE
  5
44A
100
AcDbEntity
  8
M0
 62
   253
100
AcDbLine
 10
200.577859
 20
460.940084
 11
200.577859
 21
471.890066
  0
LINE
  5
44B
100
AcDbEntity
  8
M0
 62
   253
100
AcDbLine
 10
200.577859
 20
471.890066
 11
210.060769
 21
477.365072
  0
LINE
  5
44C
100
AcDbEntity
  8
M0
 62
   253
100
AcDbLine
 10
210.060769
 20
477.365072
 11
219.543923
 21
471.890066
  0
LINE
  5
44D
100
AcDbEntity
  8
M0
 62
   253
100
AcDbLine
 10
219.543923
 20
471.890066
 11
219.543923
 21
460.940053
  0
LINE
  5
44E
100
AcDbEntity
  8
M0
 62
   253
100
AcDbLine
 10
219.543923
 20
460.940053
 11
210.060769
 21
455.465078
  0
CIRCLE
  5
44F
100
AcDbEntity
  8
M0
 62
   253
100
AcDbCircle
 10
210.061013
 20
466.415151
 40
13.0
  0
ARC
  5
450
100
AcDbEntity
  8
M0
 62
   253
100
AcDbCircle
 10
210.061013
 20
466.415151
 40
10.75
100
AcDbArc
 50
31.90003
 51
88.100807
  0
ARC
  5
451
100
AcDbEntity
  8
M0
 62
   253
100
AcDbCircle
 10
210.061013
 20
466.415151
 40
10.75
100
AcDbArc
 50
331.900478
 51
388.09947
  0
ARC
  5
452
100
AcDbEntity
  8
M0
 62
   253
100
AcDbCircle
 10
210.061013
 20
466.415151
 40
10.75
100
AcDbArc
 50
271.900651
 51
328.098139
  0
ARC
  5
453
100
AcDbEntity
  8
M0
 62
   253
100
AcDbCircle
 10
210.061013
 20
466.415151
 40
10.75
100
AcDbArc
 50
211.902957
 51
268.096618
  0
ARC
  5
454
100
AcDbEntity
  8
M0
 62
   253
100
AcDbCircle
 10
210.061013
 20
466.415151
 40
10.75
100
AcDbArc
 50
91.901835
 51
148.098501
  0
ARC
  5
455
100
AcDbEntity
  8
M0
 62
   253
100
AcDbCircle
 10
210.061013
 20
466.415151
 40
10.75
100
AcDbArc
 50
151.903243
 51
208.096686
  0
LINE
  5
456
100
AcDbEntity
  8
M1
 62
     2
100
AcDbLine
 10
25.0
 20
25.0
 11
25.0
 21
712.499989
  0
LINE
  5
457
100
AcDbEntity
  8
M1
 62
     2
100
AcDbLine
 10
25.0
 20
712.499989
 11
499.999993
 21
712.499989
  0
LINE
  5
458
100
AcDbEntity
  8
M1
 62
     2
100
AcDbLine
 10
499.999993
 20
712.499989
 11
499.999993
 21
25.0
  0
LINE
  5
459
100
AcDbEntity
  8
M1
 62
     2
100
AcDbLine
 10
499.999993
 20
25.0
 11
25.0
 21
25.0
  0
LINE
  5
45A
100
AcDbEntity
  8
M1
 62
     2
100
AcDbLine
 10
499.999993
 20
49.999999
 11
249.999996
 21
49.999999
  0
LINE
  5
45B
100
AcDbEntity
  8
M1
 62
     2
100
AcDbLine
 10
499.999993
 20
74.999999
 11
249.999996
 21
74.999999
  0
LINE
  5
45C
100
AcDbEntity
  8
M1
 62
     2
100
AcDbLine
 10
499.999993
 20
99.999999
 11
249.999996
 21
99.999999
  0
LINE
  5
45D
100
AcDbEntity
  8
M1
 62
     2
100
AcDbLine
 10
249.999996
 20
25.0
 11
249.999996
 21
99.999999
  0
TEXT
  5
45E
100
AcDbEntity
  8
M1
 62
     2
100
AcDbText
 10
256.249996
 20
31.25
 40
12.5
  1
適　用；
  7
STANDARD
100
AcDbText
  0
TEXT
  5
45F
100
AcDbEntity
  8
M1
 62
     2
100
AcDbText
 10
256.249996
 20
81.249999
 40
12.5
  1
登録名：
  7
STANDARD
100
AcDbText
  0
TEXT
  5
460
100
AcDbEntity
  8
M1
 62
     2
100
AcDbText
 10
316.249995
 20
81.249999
 40
12.5
  1
ＤＭＴＲ４００Ｂ１ＥＲ００
 41
0.5
  7
STANDARD
100
AcDbText
  0
TEXT
  5
461
100
AcDbEntity
  8
M1
 62
     2
100
AcDbText
 10
256.249996
 20
56.249999
 40
12.5
  1
形　式；
  7
STANDARD
100
AcDbText
  0
TEXT
  5
462
100
AcDbEntity
  8
M1
 62
     2
100
AcDbText
 10
316.249995
 20
56.249999
 40
12.5
  1
ＴＲ４００Ｂ－１Ｅ，ＴＲ４００Ｂ－２Ｅ，ＴＲ４００Ｂ－１ＥＳ
 41
0.25
  7
STANDARD
100
AcDbText
  0
LINE
  5
463
100
AcDbEntity
  8
DN0
100
AcDbLine
 10
104.65288
 20
333.932833
 11
230.377881
 21
333.932833
  0
TEXT
  5
464
100
AcDbEntity
  8
DN0
100
AcDbText
 10
106.057047
 20
335.182833
 40
12.5
  1
単独使用できません。
 41
0.833333
  7
STANDARD
100
AcDbText
  0
TEXT
  5
465
100
AcDbEntity
  8
DN0
100
AcDbText
 10
107.529108
 20
316.641498
 40
7.875
  1
電磁接触器Ｈ８Ｃ，Ｈ１０Ｃ，
 41
0.833333
  7
STANDARD
100
AcDbText
  0
TEXT
  5
466
100
AcDbEntity
  8
DN0
100
AcDbText
 10
107.529108
 20
305.26649
 40
7.875
  1
Ｈ１１，Ｈ１２，Ｈ１０Ｂ－Ｒ
 41
0.833333
  7
STANDARD
100
AcDbText
  0
TEXT
  5
467
100
AcDbEntity
  8
DN0
100
AcDbText
 10
107.529108
 20
293.891483
 40
7.875
  1
と組み合わせ専用品です。
 41
0.833333
  7
STANDARD
100
AcDbText
  0
ENDSEC
  0
SECTION
  2
OBJECTS
  0
DICTIONARY
  5
C
100
AcDbDictionary
  3
ACAD_GROUP
350
D
  3
ACAD_MLINESTYLE
350
E
  0
DICTIONARY
  5
D
102
{ACAD_REACTORS
330
C
102
}
100
AcDbDictionary
  0
DICTIONARY
  5
E
102
{ACAD_REACTORS
330
C
102
}
100
AcDbDictionary
  3
STANDARD
350
13
  0
MLINESTYLE
  5
13
102
{ACAD_REACTORS
330
E
102
}
100
AcDbMlineStyle
  2
STANDARD
 70
     0
  3

 62
     0
 51
90.0
 52
90.0
 71
     2
 49
0.5
 62
   256
  6
BYLAYER
 49
-0.5
 62
   256
  6
BYLAYER
  0
ENDSEC
  0
EOF
