  0
SECTION
  2
HEADER
  9
$ACADVER
  1
AC1014
  9
$INSBASE
 10
0.000000
 20
0.000000
 30
0.0
  9
$VIEWCTR
 10
7.531722
 20
4.5
  9
$VIEWSIZE
 40
9.0
  9
$SNAPMODE
 70
     0
  9
$SNAPUNIT
 10
1.0
 20
1.0
  9
$SNAPBASE
 10
0.0
 20
0.0
  9
$SNAPANG
 50
0.0
  9
$SNAPSTYLE
 70
     0
  9
$SNAPISOPAIR
 70
     0
  9
$GRIDMODE
 70
     0
  9
$GRIDUNIT
 10
0.0
 20
0.0
  9
$ORTHOMODE
 70
     0
  9
$REGENMODE
 70
     1
  9
$FILLMODE
 70
     1
  9
$QTEXTMODE
 70
     0
  9
$DRAGMODE
 70
     2
  9
$LTSCALE
  40
     1.000000
  9
$OSMODE
 70
     0
  9
$ATTMODE
 70
     1
  9
$TEXTSIZE
 40
0.2
  9
$TRACEWID
 40
0.05
  9
$TEXTSTYLE
  7
STANDARD
  9
$CELTYPE
  6
BYLAYER
  9
$CECOLOR
 62
   256
  9
$DIMSCALE
 40
1.0
  9
$DIMASZ
 40
0.18
  9
$DIMEXO
 40
0.0625
  9
$DIMDLI
 40
0.38
  9
$DIMRND
 40
0.0
  9
$DIMDLE
 40
0.0
  9
$DIMEXE
 40
0.18
  9
$DIMTP
 40
0.0
  9
$DIMTM
 40
0.0
  9
$DIMTXT
 40
0.18
  9
$DIMCEN
 40
0.09
  9
$DIMTSZ
 40
0.0
  9
$DIMTOL
 70
     0
  9
$DIMLIM
 70
     0
  9
$DIMTIH
 70
     1
  9
$DIMTOH
 70
     1
  9
$DIMSE1
 70
     0
  9
$DIMSE2
 70
     0
  9
$DIMTAD
 70
     0
  9
$DIMZIN
 70
     0
  9
$DIMBLK
  1

  9
$LUNITS
 70
     2
  9
$LUPREC
 70
     4
  9
$AXISMODE
 70
     0
  9
$AXISUNIT
 10
0.0
 20
0.0
  9
$SKETCHINC
 40
0.1
  9
$FILLETRAD
 40
0.0
  9
$AUNITS
 70
     0
  9
$AUPREC
 70
     0
  9
$MENU
  1
ACAD
  9
$ELEVATION
 40
0.0
  9
$THICKNESS
 40
0.0
  9
$VIEWDIR
 10
0.0
 20
0.0
 30
1.0
  9
$LIMCHECK
 70
     0
  9
$BLIPMODE
 70
     1
  9
$CHAMFERA
 40
0.0
  9
$CHAMFERB
 40
0.0
  9
$FASTZOOM
 70
     1
  9
$SKPOLY
 70
     0
  9
$TDCREATE
 40
0000000.0000000000
  9
$TDUPDATE
 40
0000000.0000000000
  9
$TDINDWG
 40
0.0000000000
  9
$TDUSRTIMER
 40
0.0000000000
  9
$USRTIMER
 70
     1
  9
$ANGBASE
 50
0.0
  9
$ANGDIR
 70
     0
  9
$PDMODE
 70
     0
  9
$PDSIZE
 40
0.0
  9
$PLINEWID
 40
0.0
  9
$COORDS
 70
     0
  9
$USERI1
 70
     0
  9
$USERI2
 70
     0
  9
$USERI3
 70
     0
  9
$USERI4
 70
     0
  9
$USERI5
 70
     0
  9
$USERR1
 40
0.0
  9
$USERR2
 40
0.0
  9
$USERR3
 40
0.0
  9
$USERR4
 40
0.0
  9
$USERR5
 40
0.0
  9
$CLAYER
  8
M0
  9
$EXTMIN
 10
12.5
 20
12.5
  9
$EXTMAX
 10
249.999996
 20
356.249995
  9
$LIMMIN
 10
0.0
 20
0.0
  9
$LIMMAX
 10
210.0
 20
297.0
  9
$HANDSEED
  5
29E
  0
ENDSEC
  0
SECTION
  2
CLASSES
  0
ENDSEC
  0
SECTION
  2
TABLES
  0
TABLE
  2
VPORT
  5
8
100
AcDbSymbolTable
 70
     2
  0
VPORT
  5
14
100
AcDbSymbolTableRecord
100
AcDbViewportTableRecord
  2
*ACTIVE
 70
     0
 10
0.0
 20
0.0
 11
1.0
 21
1.0
 12
484.0
 22
297.0
 13
0.0
 23
0.0
 14
1.0
 24
1.0
 15
0.0
 25
0.0
 16
0.0
 26
0.0
 36
1.0
 17
0.0
 27
0.0
 37
0.0
 40
594.0
 41
2.0
 42
50.0
 43
0.0
 44
0.0
 50
0.0
 51
0.0
 71
     0
 72
   100
 73
     1
 74
     1
 75
     0
 76
     0
 77
     0
 78
     0
  0
ENDTAB
  0
TABLE
  2
LTYPE
  5
5
100
AcDbSymbolTable
 70
     5
  0
LTYPE
  5
15
100
AcDbSymbolTableRecord
100
AcDbLinetypeTableRecord
  2
BYBLOCK
 70
     0
  3

 72
    65
 73
     0
 40
0.0
  0
LTYPE
  5
16
100
AcDbSymbolTableRecord
100
AcDbLinetypeTableRecord
  2
BYLAYER
 70
     0
  3

 72
    65
 73
     0
 40
0.0
  0
LTYPE
  5
17
100
AcDbSymbolTableRecord
100
AcDbLinetypeTableRecord
  2
CONTINUOUS
 70
    64
  3
Solid line
 72
    65
 73
     0
 40
0.0
  0
LTYPE
  5
18
100
AcDbSymbolTableRecord
100
AcDbLinetypeTableRecord
  2
DASHED
 70
    64
  3
__ __ __ __ __ __ __ __ __ __ __ __ __ __ __ __
 72
    65
 73
     2
 40
0.75
 49
0.5
 74
     0
 49
-0.25
 74
     0
  0
LTYPE
  5
19
100
AcDbSymbolTableRecord
100
AcDbLinetypeTableRecord
  2
DASHDOT
 70
    64
  3
__ . __ . __ . __ . __ . __ . __ . __ . __ . __
 72
    65
 73
     4
 40
1.0
 49
0.5
 74
     0
 49
-0.25
 74
     0
 49
0.0
 74
     0
 49
-0.25
 74
     0
  0
LTYPE
  5
1A
100
AcDbSymbolTableRecord
100
AcDbLinetypeTableRecord
  2
DIVIDE
 70
    64
  3
____ . . ____ . . ____ . . ____ . . ____ . . __
 72
    65
 73
     6
 40
1.25
 49
0.5
 74
     0
 49
-0.25
 74
     0
 49
0.0
 74
     0
 49
-0.25
 74
     0
 49
0.0
 74
     0
 49
-0.25
 74
     0
  0
LTYPE
  5
1B
100
AcDbSymbolTableRecord
100
AcDbLinetypeTableRecord
  2
DOT
 70
    64
  3
. . . . . . . . . . . . . . . . . . . . . . . .
 72
    65
 73
     2
 40
0.25
 49
0.0
 74
     0
 49
-0.25
 74
     0
  0
ENDTAB
  0
TABLE
  2
LAYER
  5
2
100
AcDbSymbolTable
 70
   102
  0
LAYER
  5
F
100
AcDbSymbolTableRecord
100
AcDbLayerTableRecord
  2
0
 70
     0
 62
     7
  6
CONTINUOUS
  0
LAYER
  5
1C
100
AcDbSymbolTableRecord
100
AcDbLayerTableRecord
  2
DEFPOINTS
 70
     0
 62
     7
  6
CONTINUOUS
  0
LAYER
  5
1D
100
AcDbSymbolTableRecord
100
AcDbLayerTableRecord
  2
M0
 70
     0
 62
     3
  6
CONTINUOUS
  0
LAYER
  5
1E
100
AcDbSymbolTableRecord
100
AcDbLayerTableRecord
  2
M1
 70
     0
 62
     3
  6
CONTINUOUS
  0
LAYER
  5
1F
100
AcDbSymbolTableRecord
100
AcDbLayerTableRecord
  2
DD0
 70
     0
 62
     4
  6
CONTINUOUS
  0
LAYER
  5
20
100
AcDbSymbolTableRecord
100
AcDbLayerTableRecord
  2
DN0
 70
     0
 62
     2
  6
CONTINUOUS
  0
ENDTAB
  0
TABLE
  2
STYLE
  5
3
100
AcDbSymbolTable
 70
     2
  0
STYLE
  5
10
100
AcDbSymbolTableRecord
100
AcDbTextStyleTableRecord
  2
STANDARD
 70
     0
 40
0.0
 41
1.0
 50
0.0
 71
     0
 42
0.2
  3
txt
  4
BIGFONT
  0
ENDTAB
  0
TABLE
  2
VIEW
  5
6
100
AcDbSymbolTable
 70
     0
  0
ENDTAB
  0
TABLE
  2
UCS
  5
7
100
AcDbSymbolTable
 70
     0
  0
ENDTAB
  0
TABLE
  2
APPID
  5
9
100
AcDbSymbolTable
 70
     1
  0
APPID
  5
11
100
AcDbSymbolTableRecord
100
AcDbRegAppTableRecord
  2
ACAD
 70
     0
  0
ENDTAB
  0
TABLE
  2
DIMSTYLE
  5
A
100
AcDbSymbolTable
 70
     2
  0
DIMSTYLE
105
27
100
AcDbSymbolTableRecord
100
AcDbDimStyleTableRecord
  2
STANDARD
 70
     0
  3

  4

  5

  6
_OPEN
  7
_OPEN
 40
1.0
 41
3.75
 42
1.0
 43
8.0
 44
1.0
 45
0.0
 46
0.0
 47
0.0
 48
0.0
140
3.9375
141
0.09
142
0.0
143
0.03937
144
1.0
145
0.0
146
1.0
147
0.6
 71
     0
 72
     0
 73
     1
 74
     1
 75
     0
 76
     0
 77
     3
 78
     8
170
     0
171
     2
172
     0
173
     1
174
     0
175
     0
176
     0
177
     0
178
     0
270
     2
271
     2
272
     4
273
     2
274
     2
340
10
275
     0
280
     0
281
     0
282
     0
283
     1
284
     0
285
     0
286
     0
287
     3
288
     0
  0
DIMSTYLE
105
28
100
AcDbSymbolTableRecord
100
AcDbDimStyleTableRecord
  2
LEADSTYL
 70
     0
  3

  4

  5

  6
_OPEN
  7
_OPEN
 40
1.0
 41
3.75
 42
0.0625
 43
0.38
 44
0.18
 45
0.0
 46
0.0
 47
0.0
 48
0.0
140
3.9375
141
0.09
142
0.0
143
25.4
144
1.0
145
0.0
146
1.0
147
0.6
 71
     0
 72
     0
 73
     1
 74
     1
 75
     0
 76
     0
 77
     0
 78
     0
170
     0
171
     2
172
     0
173
     1
174
     0
175
     0
176
     0
177
     0
178
     0
270
     2
271
     4
272
     4
273
     2
274
     2
340
10
275
     0
280
     0
281
     0
282
     0
283
     1
284
     0
285
     0
286
     0
287
     3
288
     0
  0
ENDTAB
  0
TABLE
  2
BLOCK_RECORD
  5
1
100
AcDbSymbolTable
 70
    16
  0
BLOCK_RECORD
  5
21
100
AcDbSymbolTableRecord
100
AcDbBlockTableRecord
  2
*MODEL_SPACE
  0
BLOCK_RECORD
  5
24
100
AcDbSymbolTableRecord
100
AcDbBlockTableRecord
  2
*PAPER_SPACE
  0
BLOCK_RECORD
  5
29
100
AcDbSymbolTableRecord
100
AcDbBlockTableRecord
  2
_NONE
  0
BLOCK_RECORD
  5
2D
100
AcDbSymbolTableRecord
100
AcDbBlockTableRecord
  2
_OPEN
  0
BLOCK_RECORD
  5
33
100
AcDbSymbolTableRecord
100
AcDbBlockTableRecord
  2
_CLOSED
  0
BLOCK_RECORD
  5
3A
100
AcDbSymbolTableRecord
100
AcDbBlockTableRecord
  2
_ORIGIN
  0
BLOCK_RECORD
  5
3F
100
AcDbSymbolTableRecord
100
AcDbBlockTableRecord
  2
_DOT
  0
BLOCK_RECORD
  5
47
100
AcDbSymbolTableRecord
100
AcDbBlockTableRecord
  2
_OBLIQUE
  0
BLOCK_RECORD
  5
4B
100
AcDbSymbolTableRecord
100
AcDbBlockTableRecord
  2
DIMS0
  0
BLOCK_RECORD
  5
54
100
AcDbSymbolTableRecord
100
AcDbBlockTableRecord
  2
DIMS1
  0
BLOCK_RECORD
  5
60
100
AcDbSymbolTableRecord
100
AcDbBlockTableRecord
  2
DIMS2
  0
BLOCK_RECORD
  5
69
100
AcDbSymbolTableRecord
100
AcDbBlockTableRecord
  2
DIMS3
  0
BLOCK_RECORD
  5
75
100
AcDbSymbolTableRecord
100
AcDbBlockTableRecord
  2
DIMS4
  0
BLOCK_RECORD
  5
81
100
AcDbSymbolTableRecord
100
AcDbBlockTableRecord
  2
DIMS5
  0
BLOCK_RECORD
  5
8D
100
AcDbSymbolTableRecord
100
AcDbBlockTableRecord
  2
DIMS6
  0
BLOCK_RECORD
  5
99
100
AcDbSymbolTableRecord
100
AcDbBlockTableRecord
  2
DIMS7
  0
BLOCK_RECORD
  5
A4
100
AcDbSymbolTableRecord
100
AcDbBlockTableRecord
  2
DIMS8
  0
BLOCK_RECORD
  5
AF
100
AcDbSymbolTableRecord
100
AcDbBlockTableRecord
  2
DIMS9
  0
ENDTAB
  0
ENDSEC
  0
SECTION
  2
BLOCKS
  0
BLOCK
  5
22
100
AcDbEntity
  8
0
100
AcDbBlockBegin
  2
*MODEL_SPACE
 70
     0
 10
0.0
 20
0.0
 30
0.0
  3
*MODEL_SPACE
  1

  0
ENDBLK
  5
23
100
AcDbEntity
  8
0
100
AcDbBlockEnd
  0
BLOCK
  5
25
100
AcDbEntity
 67
     1
  8
0
100
AcDbBlockBegin
  2
*PAPER_SPACE
 70
     0
 10
0.0
 20
0.0
 30
0.0
  3
*PAPER_SPACE
  1

  0
ENDBLK
  5
26
100
AcDbEntity
 67
     1
  8
0
100
AcDbBlockEnd
  0
BLOCK
  5
2A
100
AcDbEntity
  8
0
100
AcDbBlockBegin
  2
_NONE
 70
     0
 10
0.0
 20
0.0
  0
CIRCLE
  5
2B
100
AcDbEntity
  8
0
 62
     0
100
AcDbCircle
 10
0.0
 20
0.0
 40
0.25
  0
ENDBLK
  5
2C
100
AcDbEntity
  8
0
100
AcDbBlockEnd
  0
BLOCK
  5
2E
100
AcDbEntity
  8
0
100
AcDbBlockBegin
  2
_OPEN
 70
     0
 10
0.0
 20
0.0
  0
LINE
  5
2F
100
AcDbEntity
  8
0
 62
     0
100
AcDbLine
 10
-0.965926
 20
0.258819
 11
0.0
 21
0.0
  0
LINE
  5
30
100
AcDbEntity
  8
0
 62
     0
100
AcDbLine
 10
0.0
 20
0.0
 11
-0.965926
 21
-0.258819
  0
LINE
  5
31
100
AcDbEntity
  8
0
 62
     0
100
AcDbLine
 10
0.0
 20
0.0
 11
-1.0
 21
0.0
  0
ENDBLK
  5
32
100
AcDbEntity
  8
0
100
AcDbBlockEnd
  0
BLOCK
  5
34
100
AcDbEntity
  8
0
100
AcDbBlockBegin
  2
_CLOSED
 70
     0
 10
0.0
 20
0.0
  0
LINE
  5
35
100
AcDbEntity
  8
0
 62
     0
100
AcDbLine
 10
-0.965926
 20
0.258819
 11
0.0
 21
0.0
  0
LINE
  5
36
100
AcDbEntity
  8
0
 62
     0
100
AcDbLine
 10
0.0
 20
0.0
 11
-0.965926
 21
-0.258819
  0
LINE
  5
37
100
AcDbEntity
  8
0
 62
     0
100
AcDbLine
 10
-0.965926
 20
0.258819
 11
-0.965926
 21
-0.258819
  0
LINE
  5
38
100
AcDbEntity
  8
0
 62
     0
100
AcDbLine
 10
0.0
 20
0.0
 11
-1.0
 21
0.0
  0
ENDBLK
  5
39
100
AcDbEntity
  8
0
100
AcDbBlockEnd
  0
BLOCK
  5
3B
100
AcDbEntity
  8
0
100
AcDbBlockBegin
  2
_ORIGIN
 70
     0
 10
0.0
 20
0.0
  0
CIRCLE
  5
3C
100
AcDbEntity
  8
0
 62
     0
100
AcDbCircle
 10
0.0
 20
0.0
 40
0.5
  0
LINE
  5
3D
100
AcDbEntity
  8
0
 62
     0
100
AcDbLine
 10
0.0
 20
0.0
 11
-1.0
 21
0.0
  0
ENDBLK
  5
3E
100
AcDbEntity
  8
0
100
AcDbBlockEnd
  0
BLOCK
  5
40
100
AcDbEntity
  8
0
100
AcDbBlockBegin
  2
_DOT
 70
     0
 10
0.0
 20
0.0
  0
POLYLINE
  5
41
100
AcDbEntity
  8
0
 62
     0
100
AcDb2dPolyline
 66
     1
 70
     1
 40
0.5
 41
0.5
  0
VERTEX
  5
42
100
AcDbEntity
  8
0
 62
     0
100
AcDbVertex
100
AcDb2dVertex
 10
-0.25
 20
0.0
 42
1.0
  0
VERTEX
  5
43
100
AcDbEntity
  8
0
 62
     0
100
AcDbVertex
100
AcDb2dVertex
 10
0.25
 20
0.0
 42
1.0
  0
SEQEND
  5
44
100
AcDbEntity
  8
0
 62
     0
  0
LINE
  5
45
100
AcDbEntity
  8
0
 62
     0
100
AcDbLine
 10
-0.5
 20
0.0
 11
-1.0
 21
0.0
  0
ENDBLK
  5
46
100
AcDbEntity
  8
0
100
AcDbBlockEnd
  0
BLOCK
  5
48
100
AcDbEntity
  8
0
100
AcDbBlockBegin
  2
_OBLIQUE
 70
     0
 10
0.0
 20
0.0
  0
LINE
  5
49
100
AcDbEntity
  8
0
 62
     0
100
AcDbLine
 10
-0.353553
 20
-0.353553
 11
0.353553
 21
0.353553
  0
ENDBLK
  5
4A
100
AcDbEntity
  8
0
100
AcDbBlockEnd
  0
BLOCK
  5
4C
100
AcDbEntity
  8
DD0
100
AcDbBlockBegin
  2
DIMS0
 70
     0
 10
0.0
 20
0.0
  0
LINE
  5
4D
100
AcDbEntity
  8
DD0
100
AcDbLine
 10
42.450276
 20
165.824962
 11
43.947348
 21
169.26317
  0
LINE
  5
4E
100
AcDbEntity
  8
DD0
100
AcDbLine
 10
43.947348
 20
169.26317
 11
40.931741
 21
167.03413
  0
LINE
  5
4F
100
AcDbEntity
  8
DD0
100
AcDbLine
 10
43.947348
 20
169.26317
 11
24.571282
 21
144.929741
  0
LINE
  5
50
100
AcDbEntity
  8
DD0
100
AcDbLine
 10
24.571282
 20
144.929741
 11
60.383781
 21
144.929741
  0
TEXT
  5
51
100
AcDbEntity
  8
DD0
100
AcDbText
 10
31.667179
 20
145.679662
 40
3.9375
  1
３－Ｍ４ねじ穴
 41
0.833333
  7
STANDARD
100
AcDbText
  0
ENDBLK
  5
52
100
AcDbEntity
  8
DD0
100
AcDbBlockEnd
  0
BLOCK
  5
55
100
AcDbEntity
  8
DD0
100
AcDbBlockBegin
  2
DIMS1
 70
     0
 10
0.0
 20
0.0
  0
LINE
  5
56
100
AcDbEntity
  8
DD0
100
AcDbLine
 10
32.443456
 20
205.328004
 11
23.321237
 21
205.328004
  0
LINE
  5
57
100
AcDbEntity
  8
DD0
100
AcDbLine
 10
32.443456
 20
203.327996
 11
23.321237
 21
203.327996
  0
LINE
  5
58
100
AcDbEntity
  8
DD0
100
AcDbLine
 10
23.600666
 20
208.950225
 11
24.571237
 21
205.328004
  0
LINE
  5
59
100
AcDbEntity
  8
DD0
100
AcDbLine
 10
24.571237
 20
205.328004
 11
25.541809
 21
208.950225
  0
LINE
  5
5A
100
AcDbEntity
  8
DD0
100
AcDbLine
 10
25.541809
 20
199.705774
 11
24.571237
 21
203.327996
  0
LINE
  5
5B
100
AcDbEntity
  8
DD0
100
AcDbLine
 10
24.571237
 20
203.327996
 11
23.600666
 21
199.705774
  0
LINE
  5
5C
100
AcDbEntity
  8
DD0
100
AcDbLine
 10
24.571237
 20
216.253265
 11
24.571237
 21
199.202996
  0
TEXT
  5
5D
100
AcDbEntity
  8
DD0
100
AcDbText
 10
23.821237
 20
211.387643
 40
3.9375
  1
２
 50
89.999982
 41
0.833333
  7
STANDARD
100
AcDbText
  0
ENDBLK
  5
5E
100
AcDbEntity
  8
DD0
100
AcDbBlockEnd
  0
BLOCK
  5
61
100
AcDbEntity
  8
DD0
100
AcDbBlockBegin
  2
DIMS2
 70
     0
 10
0.0
 20
0.0
  0
LINE
  5
62
100
AcDbEntity
  8
DD0
100
AcDbLine
 10
37.943181
 20
170.827749
 11
23.321237
 21
170.827749
  0
LINE
  5
63
100
AcDbEntity
  8
DD0
100
AcDbLine
 10
23.600666
 20
174.44997
 11
24.571237
 21
170.827749
  0
LINE
  5
64
100
AcDbEntity
  8
DD0
100
AcDbLine
 10
24.571237
 20
170.827749
 11
25.541809
 21
174.44997
  0
LINE
  5
65
100
AcDbEntity
  8
DD0
100
AcDbLine
 10
24.571237
 20
203.327996
 11
24.571237
 21
170.827749
  0
TEXT
  5
66
100
AcDbEntity
  8
DD0
100
AcDbText
 10
23.821237
 20
179.524736
 40
3.9375
  1
３２．５
 50
90.000003
 41
0.833333
  7
STANDARD
100
AcDbText
  0
ENDBLK
  5
67
100
AcDbEntity
  8
DD0
100
AcDbBlockEnd
  0
BLOCK
  5
6A
100
AcDbEntity
  8
DD0
100
AcDbBlockBegin
  2
DIMS3
 70
     0
 10
0.0
 20
0.0
  0
LINE
  5
6B
100
AcDbEntity
  8
DD0
100
AcDbLine
 10
33.689396
 20
307.55445
 11
33.689396
 21
317.469058
  0
LINE
  5
6C
100
AcDbEntity
  8
DD0
100
AcDbLine
 10
118.692864
 20
307.55178
 11
118.692864
 21
317.469058
  0
LINE
  5
6D
100
AcDbEntity
  8
DD0
100
AcDbLine
 10
37.311618
 20
317.18963
 11
33.689396
 21
316.219058
  0
LINE
  5
6E
100
AcDbEntity
  8
DD0
100
AcDbLine
 10
33.689396
 20
316.219058
 11
37.311618
 21
315.248487
  0
LINE
  5
6F
100
AcDbEntity
  8
DD0
100
AcDbLine
 10
115.070642
 20
315.248487
 11
118.692864
 21
316.219058
  0
LINE
  5
70
100
AcDbEntity
  8
DD0
100
AcDbLine
 10
118.692864
 20
316.219058
 11
115.070642
 21
317.18963
  0
LINE
  5
71
100
AcDbEntity
  8
DD0
100
AcDbLine
 10
33.689396
 20
316.219058
 11
118.692864
 21
316.219058
  0
TEXT
  5
72
100
AcDbEntity
  8
DD0
100
AcDbText
 10
72.575503
 20
316.969066
 40
3.9375
  1
８５
 41
0.833333
  7
STANDARD
100
AcDbText
  0
ENDBLK
  5
73
100
AcDbEntity
  8
DD0
100
AcDbBlockEnd
  0
BLOCK
  5
76
100
AcDbEntity
  8
DD0
100
AcDbBlockBegin
  2
DIMS4
 70
     0
 10
0.0
 20
0.0
  0
LINE
  5
77
100
AcDbEntity
  8
DD0
100
AcDbLine
 10
119.942835
 20
304.501491
 11
131.478031
 21
304.501491
  0
LINE
  5
78
100
AcDbEntity
  8
DD0
100
AcDbLine
 10
107.942837
 20
261.801792
 11
131.478031
 21
261.801792
  0
LINE
  5
79
100
AcDbEntity
  8
DD0
100
AcDbLine
 10
131.198603
 20
300.879269
 11
130.228031
 21
304.501491
  0
LINE
  5
7A
100
AcDbEntity
  8
DD0
100
AcDbLine
 10
130.228031
 20
304.501491
 11
129.25746
 21
300.879269
  0
LINE
  5
7B
100
AcDbEntity
  8
DD0
100
AcDbLine
 10
129.25746
 20
265.424014
 11
130.228031
 21
261.801792
  0
LINE
  5
7C
100
AcDbEntity
  8
DD0
100
AcDbLine
 10
130.228031
 20
261.801792
 11
131.198603
 21
265.424014
  0
LINE
  5
7D
100
AcDbEntity
  8
DD0
100
AcDbLine
 10
130.228031
 20
304.501491
 11
130.228031
 21
261.801792
  0
TEXT
  5
7E
100
AcDbEntity
  8
DD0
100
AcDbText
 10
129.478033
 20
275.598514
 40
3.9375
  1
４２．５
 50
90.000003
 41
0.833333
  7
STANDARD
100
AcDbText
  0
ENDBLK
  5
7F
100
AcDbEntity
  8
DD0
100
AcDbBlockEnd
  0
BLOCK
  5
82
100
AcDbEntity
  8
DD0
100
AcDbBlockBegin
  2
DIMS5
 70
     0
 10
0.0
 20
0.0
  0
LINE
  5
83
100
AcDbEntity
  8
DD0
100
AcDbLine
 10
231.499401
 20
267.051769
 11
231.499401
 21
247.839256
  0
LINE
  5
84
100
AcDbEntity
  8
DD0
100
AcDbLine
 10
224.499222
 20
271.067005
 11
224.499222
 21
247.839256
  0
LINE
  5
85
100
AcDbEntity
  8
DD0
100
AcDbLine
 10
235.121623
 20
250.059828
 11
231.499401
 21
249.089256
  0
LINE
  5
86
100
AcDbEntity
  8
DD0
100
AcDbLine
 10
231.499401
 20
249.089256
 11
235.121623
 21
248.118685
  0
LINE
  5
87
100
AcDbEntity
  8
DD0
100
AcDbLine
 10
220.877
 20
248.118685
 11
224.499222
 21
249.089256
  0
LINE
  5
88
100
AcDbEntity
  8
DD0
100
AcDbLine
 10
224.499222
 20
249.089256
 11
220.877
 21
250.059828
  0
LINE
  5
89
100
AcDbEntity
  8
DD0
100
AcDbLine
 10
235.624401
 20
249.089256
 11
195.499224
 21
249.089256
  0
TEXT
  5
8A
100
AcDbEntity
  8
DD0
100
AcDbText
 10
196.508607
 20
249.839264
 40
3.9375
  1
７（取付足）
 41
0.833333
  7
STANDARD
100
AcDbText
  0
ENDBLK
  5
8B
100
AcDbEntity
  8
DD0
100
AcDbBlockEnd
  0
BLOCK
  5
8E
100
AcDbEntity
  8
DD0
100
AcDbBlockBegin
  2
DIMS6
 70
     0
 10
0.0
 20
0.0
  0
LINE
  5
8F
100
AcDbEntity
  8
DD0
100
AcDbLine
 10
231.500012
 20
304.551902
 11
231.500012
 21
317.469058
  0
LINE
  5
90
100
AcDbEntity
  8
DD0
100
AcDbLine
 10
148.499639
 20
303.555789
 11
148.499639
 21
317.469058
  0
LINE
  5
91
100
AcDbEntity
  8
DD0
100
AcDbLine
 10
227.87779
 20
315.248487
 11
231.500012
 21
316.219058
  0
LINE
  5
92
100
AcDbEntity
  8
DD0
100
AcDbLine
 10
231.500012
 20
316.219058
 11
227.87779
 21
317.18963
  0
LINE
  5
93
100
AcDbEntity
  8
DD0
100
AcDbLine
 10
152.121861
 20
317.18963
 11
148.499639
 21
316.219058
  0
LINE
  5
94
100
AcDbEntity
  8
DD0
100
AcDbLine
 10
148.499639
 20
316.219058
 11
152.121861
 21
315.248487
  0
LINE
  5
95
100
AcDbEntity
  8
DD0
100
AcDbLine
 10
231.500012
 20
316.219058
 11
148.499639
 21
316.219058
  0
TEXT
  5
96
100
AcDbEntity
  8
DD0
100
AcDbText
 10
186.38421
 20
316.969066
 40
3.9375
  1
８３
 41
0.833333
  7
STANDARD
100
AcDbText
  0
ENDBLK
  5
97
100
AcDbEntity
  8
DD0
100
AcDbBlockEnd
  0
BLOCK
  5
9A
100
AcDbEntity
  8
DD0
100
AcDbBlockBegin
  2
DIMS7
 70
     0
 10
0.0
 20
0.0
  0
LINE
  5
9B
100
AcDbEntity
  8
DD0
100
AcDbLine
 10
118.693207
 20
206.577966
 11
118.693207
 21
225.309369
  0
LINE
  5
9C
100
AcDbEntity
  8
DD0
100
AcDbLine
 10
92.815402
 20
225.02994
 11
89.193181
 21
224.059369
  0
LINE
  5
9D
100
AcDbEntity
  8
DD0
100
AcDbLine
 10
89.193181
 20
224.059369
 11
92.815402
 21
223.088797
  0
LINE
  5
9E
100
AcDbEntity
  8
DD0
100
AcDbLine
 10
115.070985
 20
223.088797
 11
118.693207
 21
224.059369
  0
LINE
  5
9F
100
AcDbEntity
  8
DD0
100
AcDbLine
 10
118.693207
 20
224.059369
 11
115.070985
 21
225.02994
  0
LINE
  5
A0
100
AcDbEntity
  8
DD0
100
AcDbLine
 10
89.193181
 20
224.059369
 11
118.693207
 21
224.059369
  0
TEXT
  5
A1
100
AcDbEntity
  8
DD0
100
AcDbText
 10
96.390067
 20
224.809376
 40
3.9375
  1
２９．５
 41
0.833333
  7
STANDARD
100
AcDbText
  0
ENDBLK
  5
A2
100
AcDbEntity
  8
DD0
100
AcDbBlockEnd
  0
BLOCK
  5
A5
100
AcDbEntity
  8
DD0
100
AcDbBlockBegin
  2
DIMS8
 70
     0
 10
0.0
 20
0.0
  0
LINE
  5
A6
100
AcDbEntity
  8
DD0
100
AcDbLine
 10
64.193195
 20
178.077752
 11
64.193195
 21
214.213711
  0
LINE
  5
A7
100
AcDbEntity
  8
DD0
100
AcDbLine
 10
85.570959
 20
211.99314
 11
89.193181
 21
212.963711
  0
LINE
  5
A8
100
AcDbEntity
  8
DD0
100
AcDbLine
 10
89.193181
 20
212.963711
 11
85.570959
 21
213.934283
  0
LINE
  5
A9
100
AcDbEntity
  8
DD0
100
AcDbLine
 10
67.815417
 20
213.934283
 11
64.193195
 21
212.963711
  0
LINE
  5
AA
100
AcDbEntity
  8
DD0
100
AcDbLine
 10
64.193195
 20
212.963711
 11
67.815417
 21
211.99314
  0
LINE
  5
AB
100
AcDbEntity
  8
DD0
100
AcDbLine
 10
89.193181
 20
212.963711
 11
64.193195
 21
212.963711
  0
TEXT
  5
AC
100
AcDbEntity
  8
DD0
100
AcDbText
 10
73.077565
 20
213.713719
 40
3.9375
  1
２５
 41
0.833333
  7
STANDARD
100
AcDbText
  0
ENDBLK
  5
AD
100
AcDbEntity
  8
DD0
100
AcDbBlockEnd
  0
BLOCK
  5
B0
100
AcDbEntity
  8
DD0
100
AcDbBlockBegin
  2
DIMS9
 70
     0
 10
0.0
 20
0.0
  0
LINE
  5
B1
100
AcDbEntity
  8
DD0
100
AcDbLine
 10
45.193166
 20
178.077733
 11
45.193166
 21
225.309369
  0
LINE
  5
B2
100
AcDbEntity
  8
DD0
100
AcDbLine
 10
89.193181
 20
178.077752
 11
89.193181
 21
225.309369
  0
LINE
  5
B3
100
AcDbEntity
  8
DD0
100
AcDbLine
 10
48.815388
 20
225.02994
 11
45.193166
 21
224.059369
  0
LINE
  5
B4
100
AcDbEntity
  8
DD0
100
AcDbLine
 10
45.193166
 20
224.059369
 11
48.815388
 21
223.088797
  0
LINE
  5
B5
100
AcDbEntity
  8
DD0
100
AcDbLine
 10
85.570959
 20
223.088797
 11
89.193181
 21
224.059369
  0
LINE
  5
B6
100
AcDbEntity
  8
DD0
100
AcDbLine
 10
89.193181
 20
224.059369
 11
85.570959
 21
225.02994
  0
LINE
  5
B7
100
AcDbEntity
  8
DD0
100
AcDbLine
 10
45.193166
 20
224.059369
 11
89.193181
 21
224.059369
  0
TEXT
  5
B8
100
AcDbEntity
  8
DD0
100
AcDbText
 10
63.577548
 20
224.809376
 40
3.9375
  1
４４
 41
0.833333
  7
STANDARD
100
AcDbText
  0
ENDBLK
  5
B9
100
AcDbEntity
  8
DD0
100
AcDbBlockEnd
  0
ENDSEC
  0
SECTION
  2
ENTITIES
  0
INSERT
  5
53
100
AcDbEntity
  8
DD0
100
AcDbBlockReference
  2
DIMS0
 10
0.0
 20
0.0
  0
INSERT
  5
5F
100
AcDbEntity
  8
DD0
100
AcDbBlockReference
  2
DIMS1
 10
0.0
 20
0.0
  0
INSERT
  5
68
100
AcDbEntity
  8
DD0
100
AcDbBlockReference
  2
DIMS2
 10
0.0
 20
0.0
  0
INSERT
  5
74
100
AcDbEntity
  8
DD0
100
AcDbBlockReference
  2
DIMS3
 10
0.0
 20
0.0
  0
INSERT
  5
80
100
AcDbEntity
  8
DD0
100
AcDbBlockReference
  2
DIMS4
 10
0.0
 20
0.0
  0
INSERT
  5
8C
100
AcDbEntity
  8
DD0
100
AcDbBlockReference
  2
DIMS5
 10
0.0
 20
0.0
  0
INSERT
  5
98
100
AcDbEntity
  8
DD0
100
AcDbBlockReference
  2
DIMS6
 10
0.0
 20
0.0
  0
INSERT
  5
A3
100
AcDbEntity
  8
DD0
100
AcDbBlockReference
  2
DIMS7
 10
0.0
 20
0.0
  0
INSERT
  5
AE
100
AcDbEntity
  8
DD0
100
AcDbBlockReference
  2
DIMS8
 10
0.0
 20
0.0
  0
INSERT
  5
BA
100
AcDbEntity
  8
DD0
100
AcDbBlockReference
  2
DIMS9
 10
0.0
 20
0.0
  0
LINE
  5
BB
100
AcDbEntity
  8
M0
 62
     2
100
AcDbLine
 10
39.68928
 20
288.804229
 11
50.68928
 21
288.804229
  0
LINE
  5
BC
100
AcDbEntity
  8
M0
 62
     2
100
AcDbLine
 10
51.18928
 20
289.303985
 11
51.18928
 21
300.303741
  0
LINE
  5
BD
100
AcDbEntity
  8
M0
 62
     2
100
AcDbLine
 10
39.18928
 20
300.303741
 11
39.18928
 21
289.304229
  0
LINE
  5
BE
100
AcDbEntity
  8
M0
  6
DASHDOT
 62
     2
100
AcDbLine
 10
36.68928
 20
294.804229
 11
53.68928
 21
294.804229
  0
LINE
  5
BF
100
AcDbEntity
  8
M0
  6
DASHDOT
 62
     2
100
AcDbLine
 10
45.18928
 20
286.304229
 11
45.18928
 21
302.484314
  0
CIRCLE
  5
C0
100
AcDbEntity
  8
M0
 62
     2
100
AcDbCircle
 10
45.18928
 20
294.804229
 40
4.5
  0
ARC
  5
C1
100
AcDbEntity
  8
M0
 62
     2
100
AcDbCircle
 10
50.68928
 20
289.304229
 40
0.5
100
AcDbArc
 50
270.0
 51
359.971805
  0
ARC
  5
C2
100
AcDbEntity
  8
M0
 62
     2
100
AcDbCircle
 10
39.68928
 20
289.304229
 40
0.5
100
AcDbArc
 50
179.999891
 51
270.0
  0
LINE
  5
C3
100
AcDbEntity
  8
M0
 62
     2
100
AcDbLine
 10
43.229274
 20
296.76419
 11
47.149272
 21
292.844024
  0
LINE
  5
C4
100
AcDbEntity
  8
M0
 62
     2
100
AcDbLine
 10
46.057215
 20
297.086212
 11
42.907115
 21
293.936065
  0
LINE
  5
C5
100
AcDbEntity
  8
M0
 62
     2
100
AcDbLine
 10
47.471415
 20
295.672149
 11
44.321315
 21
292.522003
  0
ARC
  5
C6
100
AcDbEntity
  8
M0
 62
     2
100
AcDbCircle
 10
39.68928
 20
300.303985
 40
0.5
100
AcDbArc
 50
90.0
 51
180.0
  0
LINE
  5
C7
100
AcDbEntity
  8
M0
 62
     2
100
AcDbLine
 10
39.68928
 20
300.803985
 11
50.68928
 21
300.803985
  0
ARC
  5
C8
100
AcDbEntity
  8
M0
 62
     2
100
AcDbCircle
 10
50.68928
 20
300.303985
 40
0.5
100
AcDbArc
 50
0.027977
 51
90.0
  0
LINE
  5
C9
100
AcDbEntity
  8
M0
 62
     2
100
AcDbLine
 10
59.689387
 20
288.804473
 11
70.689387
 21
288.804473
  0
LINE
  5
CA
100
AcDbEntity
  8
M0
 62
     2
100
AcDbLine
 10
71.189387
 20
289.304229
 11
71.189387
 21
300.303985
  0
LINE
  5
CB
100
AcDbEntity
  8
M0
 62
     2
100
AcDbLine
 10
59.189387
 20
300.303985
 11
59.189387
 21
289.304473
  0
LINE
  5
CC
100
AcDbEntity
  8
M0
  6
DASHDOT
 62
     2
100
AcDbLine
 10
56.689387
 20
294.804473
 11
73.689387
 21
294.804473
  0
LINE
  5
CD
100
AcDbEntity
  8
M0
  6
DASHDOT
 62
     2
100
AcDbLine
 10
65.189387
 20
286.304473
 11
65.189387
 21
302.484558
  0
CIRCLE
  5
CE
100
AcDbEntity
  8
M0
 62
     2
100
AcDbCircle
 10
65.189387
 20
294.804473
 40
4.5
  0
ARC
  5
CF
100
AcDbEntity
  8
M0
 62
     2
100
AcDbCircle
 10
70.689387
 20
289.304473
 40
0.5
100
AcDbArc
 50
270.0
 51
359.971805
  0
ARC
  5
D0
100
AcDbEntity
  8
M0
 62
     2
100
AcDbCircle
 10
59.689387
 20
289.304473
 40
0.5
100
AcDbArc
 50
179.999891
 51
270.0
  0
LINE
  5
D1
100
AcDbEntity
  8
M0
 62
     2
100
AcDbLine
 10
63.22938
 20
296.764434
 11
67.149378
 21
292.844268
  0
LINE
  5
D2
100
AcDbEntity
  8
M0
 62
     2
100
AcDbLine
 10
66.057322
 20
297.086456
 11
62.907222
 21
293.936309
  0
LINE
  5
D3
100
AcDbEntity
  8
M0
 62
     2
100
AcDbLine
 10
67.471522
 20
295.672393
 11
64.321421
 21
292.522247
  0
ARC
  5
D4
100
AcDbEntity
  8
M0
 62
     2
100
AcDbCircle
 10
59.689387
 20
300.304229
 40
0.5
100
AcDbArc
 50
90.0
 51
180.0
  0
LINE
  5
D5
100
AcDbEntity
  8
M0
 62
     2
100
AcDbLine
 10
59.689387
 20
300.804229
 11
70.689387
 21
300.804229
  0
ARC
  5
D6
100
AcDbEntity
  8
M0
 62
     2
100
AcDbCircle
 10
70.689387
 20
300.304229
 40
0.5
100
AcDbArc
 50
0.027977
 51
90.0
  0
LINE
  5
D7
100
AcDbEntity
  8
M0
  6
DIVIDE
 62
     7
100
AcDbLine
 10
109.193211
 20
204.828
 11
43.693455
 21
204.828
  0
LINE
  5
D8
100
AcDbEntity
  8
M0
  6
DIVIDE
 62
     7
100
AcDbLine
 10
33.693455
 20
205.328
 11
33.693455
 21
162.828
  0
LINE
  5
D9
100
AcDbEntity
  8
M0
  6
DIVIDE
 62
     7
100
AcDbLine
 10
118.693211
 20
160.828
 11
118.693211
 21
205.32797
  0
CIRCLE
  5
DA
100
AcDbEntity
  8
M0
 62
     7
100
AcDbCircle
 10
45.19318
 20
170.827741
 40
2.0
  0
CIRCLE
  5
DB
100
AcDbEntity
  8
M0
 62
     7
100
AcDbCircle
 10
45.19318
 20
170.827741
 40
1.299999
  0
LINE
  5
DC
100
AcDbEntity
  8
M0
  6
DASHDOT
 62
     7
100
AcDbLine
 10
51.19318
 20
170.827741
 11
39.19318
 21
170.827741
  0
LINE
  5
DD
100
AcDbEntity
  8
M0
  6
DASHDOT
 62
     7
100
AcDbLine
 10
45.193165
 20
176.827741
 11
45.19318
 21
164.827741
  0
CIRCLE
  5
DE
100
AcDbEntity
  8
M0
 62
     7
100
AcDbCircle
 10
64.193211
 20
170.827756
 40
2.0
  0
CIRCLE
  5
DF
100
AcDbEntity
  8
M0
 62
     7
100
AcDbCircle
 10
64.193211
 20
170.827756
 40
1.299999
  0
LINE
  5
E0
100
AcDbEntity
  8
M0
  6
DASHDOT
 62
     7
100
AcDbLine
 10
70.193211
 20
170.827756
 11
58.193211
 21
170.827756
  0
LINE
  5
E1
100
AcDbEntity
  8
M0
  6
DASHDOT
 62
     7
100
AcDbLine
 10
64.193196
 20
176.827756
 11
64.193211
 21
164.827756
  0
CIRCLE
  5
E2
100
AcDbEntity
  8
M0
 62
     7
100
AcDbCircle
 10
89.193196
 20
170.827756
 40
2.0
  0
CIRCLE
  5
E3
100
AcDbEntity
  8
M0
 62
     7
100
AcDbCircle
 10
89.193196
 20
170.827756
 40
1.299999
  0
LINE
  5
E4
100
AcDbEntity
  8
M0
  6
DASHDOT
 62
     7
100
AcDbLine
 10
95.193196
 20
170.827756
 11
83.193196
 21
170.827756
  0
LINE
  5
E5
100
AcDbEntity
  8
M0
  6
DASHDOT
 62
     7
100
AcDbLine
 10
89.19318
 20
176.827756
 11
89.193196
 21
164.827756
  0
LINE
  5
E6
100
AcDbEntity
  8
M0
  6
DIVIDE
 62
     7
100
AcDbLine
 10
43.693455
 20
205.328
 11
33.693455
 21
205.328
  0
LINE
  5
E7
100
AcDbEntity
  8
M0
  6
DIVIDE
 62
     7
100
AcDbLine
 10
43.693455
 20
205.328
 11
43.693455
 21
204.828
  0
LINE
  5
E8
100
AcDbEntity
  8
M0
  6
DIVIDE
 62
     7
100
AcDbLine
 10
118.693211
 20
203.328
 11
33.693455
 21
203.328
  0
LINE
  5
E9
100
AcDbEntity
  8
M0
  6
DIVIDE
 62
     7
100
AcDbLine
 10
93.692204
 20
162.828
 11
33.693455
 21
162.828
  0
LINE
  5
EA
100
AcDbEntity
  8
M0
  6
DIVIDE
 62
     7
100
AcDbLine
 10
118.693211
 20
160.828015
 11
93.692204
 21
160.828015
  0
LINE
  5
EB
100
AcDbEntity
  8
M0
 62
     7
100
AcDbLine
 10
109.193211
 20
205.32797
 11
109.193211
 21
204.828
  0
LINE
  5
EC
100
AcDbEntity
  8
M0
  6
DIVIDE
 62
     7
100
AcDbLine
 10
109.193211
 20
205.32797
 11
118.693211
 21
205.32797
  0
LINE
  5
ED
100
AcDbEntity
  8
M0
  6
DIVIDE
 62
     7
100
AcDbLine
 10
93.692204
 20
162.828
 11
93.692204
 21
160.828015
  0
LINE
  5
EE
100
AcDbEntity
  8
M0
100
AcDbLine
 10
58.689263
 20
268.304606
 11
58.689306
 21
280.804361
  0
LINE
  5
EF
100
AcDbEntity
  8
M0
100
AcDbLine
 10
71.689263
 20
268.304804
 11
71.689306
 21
280.804316
  0
LINE
  5
F0
100
AcDbEntity
  8
M0
100
AcDbLine
 10
56.689251
 20
264.804368
 11
56.68939
 21
304.804368
  0
LINE
  5
F1
100
AcDbEntity
  8
M0
100
AcDbLine
 10
73.689251
 20
264.804309
 11
73.68939
 21
304.804309
  0
LINE
  5
F2
100
AcDbEntity
  8
M0
100
AcDbLine
 10
96.539384
 20
303.304229
 11
76.689385
 21
303.304299
  0
LINE
  5
F3
100
AcDbEntity
  8
M0
100
AcDbLine
 10
53.689251
 20
264.804379
 11
53.68939
 21
304.804379
  0
LINE
  5
F4
100
AcDbEntity
  8
M0
100
AcDbLine
 10
36.68927
 20
270.304438
 11
36.689387
 21
303.804438
  0
LINE
  5
F5
100
AcDbEntity
  8
M0
100
AcDbLine
 10
33.689262
 20
268.104497
 11
33.689395
 21
306.304449
  0
LINE
  5
F6
100
AcDbEntity
  8
M0
100
AcDbLine
 10
76.689251
 20
264.804299
 11
76.68939
 21
304.804299
  0
LINE
  5
F7
100
AcDbEntity
  8
M0
100
AcDbLine
 10
93.68925
 20
266.304239
 11
93.689311
 21
283.804239
  0
LINE
  5
F8
100
AcDbEntity
  8
M0
100
AcDbLine
 10
53.689385
 20
303.304379
 11
36.689385
 21
303.304438
  0
LINE
  5
F9
100
AcDbEntity
  8
M0
100
AcDbLine
 10
73.689385
 20
303.304309
 11
56.689385
 21
303.304368
  0
LINE
  5
FA
100
AcDbEntity
  8
M0
100
AcDbLine
 10
35.689266
 20
269.304442
 11
33.689266
 21
269.304449
  0
ARC
  5
FB
100
AcDbEntity
  8
M0
100
AcDbCircle
 10
35.68927
 20
270.304442
 40
1.0
100
AcDbArc
 50
270.0
 51
359.9998
  0
LINE
  5
FC
100
AcDbEntity
  8
M0
100
AcDbLine
 10
52.689331
 20
287.804382
 11
37.689331
 21
287.804435
  0
LINE
  5
FD
100
AcDbEntity
  8
M0
100
AcDbLine
 10
72.689331
 20
287.804313
 11
57.689331
 21
287.804365
  0
LINE
  5
FE
100
AcDbEntity
  8
M0
100
AcDbLine
 10
91.689325
 20
287.804246
 11
76.689331
 21
287.804299
  0
LINE
  5
FF
100
AcDbEntity
  8
M0
100
AcDbLine
 10
52.68932
 20
284.804382
 11
37.68932
 21
284.804435
  0
LINE
  5
100
100
AcDbEntity
  8
M0
100
AcDbLine
 10
72.68932
 20
284.804313
 11
57.68932
 21
284.804365
  0
LINE
  5
101
100
AcDbEntity
  8
M0
100
AcDbLine
 10
92.689315
 20
284.804243
 11
77.68932
 21
284.804295
  0
LINE
  5
102
100
AcDbEntity
  8
M0
100
AcDbLine
 10
52.68931
 20
281.804382
 11
37.68931
 21
281.804435
  0
LINE
  5
103
100
AcDbEntity
  8
M0
100
AcDbLine
 10
72.68931
 20
281.804313
 11
57.68931
 21
281.804365
  0
LINE
  5
104
100
AcDbEntity
  8
M0
100
AcDbLine
 10
92.689304
 20
281.804243
 11
77.68931
 21
281.804295
  0
LINE
  5
105
100
AcDbEntity
  8
M0
100
AcDbLine
 10
38.689278
 20
272.804675
 11
38.689306
 21
280.804431
  0
LINE
  5
106
100
AcDbEntity
  8
M0
100
AcDbLine
 10
51.689263
 20
268.30463
 11
51.689306
 21
280.804386
  0
ARC
  5
107
100
AcDbEntity
  8
M0
100
AcDbCircle
 10
50.689306
 20
280.804389
 40
1.0
100
AcDbArc
 50
359.9998
 51
449.998926
  0
LINE
  5
108
100
AcDbEntity
  8
M0
100
AcDbLine
 10
71.689334
 20
288.804316
 11
71.689378
 21
301.304316
  0
LINE
  5
109
100
AcDbEntity
  8
M0
100
AcDbLine
 10
58.689334
 20
288.804361
 11
58.689378
 21
301.304361
  0
LINE
  5
10A
100
AcDbEntity
  8
M0
100
AcDbLine
 10
78.689263
 20
268.304536
 11
78.689306
 21
280.804292
  0
LINE
  5
10B
100
AcDbEntity
  8
M0
100
AcDbLine
 10
91.689256
 20
268.104295
 11
91.689301
 21
280.804246
  0
LINE
  5
10C
100
AcDbEntity
  8
M0
100
AcDbLine
 10
78.689334
 20
288.804292
 11
78.689378
 21
301.30478
  0
LINE
  5
10D
100
AcDbEntity
  8
M0
100
AcDbLine
 10
91.689329
 20
288.804246
 11
91.689379
 21
303.304246
  0
ARC
  5
10E
100
AcDbEntity
  8
M0
100
AcDbCircle
 10
70.689306
 20
280.80432
 40
1.0
100
AcDbArc
 50
359.9998
 51
449.998926
  0
ARC
  5
10F
100
AcDbEntity
  8
M0
100
AcDbCircle
 10
90.689301
 20
280.80425
 40
1.0
100
AcDbArc
 50
359.9998
 51
450.0
  0
ARC
  5
110
100
AcDbEntity
  8
M0
100
AcDbCircle
 10
79.689306
 20
280.804288
 40
1.0
100
AcDbArc
 50
89.998926
 51
179.9998
  0
ARC
  5
111
100
AcDbEntity
  8
M0
100
AcDbCircle
 10
59.689306
 20
280.804358
 40
1.0
100
AcDbArc
 50
89.998926
 51
179.9998
  0
ARC
  5
112
100
AcDbEntity
  8
M0
100
AcDbCircle
 10
39.689306
 20
280.804428
 40
1.0
100
AcDbArc
 50
89.998926
 51
179.9998
  0
ARC
  5
113
100
AcDbEntity
  8
M0
100
AcDbCircle
 10
37.689334
 20
288.804435
 40
1.0
100
AcDbArc
 50
179.9998
 51
270.0
  0
ARC
  5
114
100
AcDbEntity
  8
M0
100
AcDbCircle
 10
57.689334
 20
288.804365
 40
1.0
100
AcDbArc
 50
179.9998
 51
270.0
  0
ARC
  5
115
100
AcDbEntity
  8
M0
100
AcDbCircle
 10
79.689334
 20
288.804288
 40
1.0
100
AcDbArc
 50
179.9998
 51
270.0
  0
LINE
  5
116
100
AcDbEntity
  8
M0
100
AcDbLine
 10
51.68938
 20
288.804386
 11
51.689424
 21
301.30463
  0
LINE
  5
117
100
AcDbEntity
  8
M0
100
AcDbLine
 10
38.68938
 20
288.804431
 11
38.689424
 21
301.305164
  0
ARC
  5
118
100
AcDbEntity
  8
M0
100
AcDbCircle
 10
50.68938
 20
288.804389
 40
1.0
100
AcDbArc
 50
270.0
 51
359.9998
  0
ARC
  5
119
100
AcDbEntity
  8
M0
100
AcDbCircle
 10
70.689334
 20
288.80432
 40
1.0
100
AcDbArc
 50
270.0
 51
359.9998
  0
ARC
  5
11A
100
AcDbEntity
  8
M0
100
AcDbCircle
 10
90.689329
 20
288.80425
 40
1.0
100
AcDbArc
 50
270.0
 51
359.9998
  0
ARC
  5
11B
100
AcDbEntity
  8
M0
100
AcDbCircle
 10
39.68938
 20
288.804428
 40
1.0
100
AcDbArc
 50
179.9998
 51
270.0
  0
ARC
  5
11C
100
AcDbEntity
  8
M0
100
AcDbCircle
 10
59.689334
 20
288.804358
 40
1.0
100
AcDbArc
 50
179.9998
 51
270.0
  0
ARC
  5
11D
100
AcDbEntity
  8
M0
100
AcDbCircle
 10
37.689306
 20
280.804435
 40
1.0
100
AcDbArc
 50
89.998926
 51
179.9998
  0
ARC
  5
11E
100
AcDbEntity
  8
M0
100
AcDbCircle
 10
57.689306
 20
280.804365
 40
1.0
100
AcDbArc
 50
89.998926
 51
179.9998
  0
ARC
  5
11F
100
AcDbEntity
  8
M0
100
AcDbCircle
 10
77.689306
 20
280.804295
 40
1.0
100
AcDbArc
 50
89.998926
 51
179.9998
  0
ARC
  5
120
100
AcDbEntity
  8
M0
100
AcDbCircle
 10
52.689334
 20
288.804382
 40
1.0
100
AcDbArc
 50
270.0
 51
359.9998
  0
ARC
  5
121
100
AcDbEntity
  8
M0
100
AcDbCircle
 10
72.689334
 20
288.804313
 40
1.0
100
AcDbArc
 50
270.0
 51
359.9998
  0
ARC
  5
122
100
AcDbEntity
  8
M0
100
AcDbCircle
 10
52.689306
 20
280.804382
 40
1.0
100
AcDbArc
 50
359.9998
 51
449.998926
  0
ARC
  5
123
100
AcDbEntity
  8
M0
100
AcDbCircle
 10
72.689306
 20
280.804313
 40
1.0
100
AcDbArc
 50
359.9998
 51
449.998926
  0
ARC
  5
124
100
AcDbEntity
  8
M0
100
AcDbCircle
 10
92.689301
 20
280.804243
 40
1.0
100
AcDbArc
 50
359.9998
 51
450.0
  0
LINE
  5
125
100
AcDbEntity
  8
M0
100
AcDbLine
 10
43.689426
 20
306.304231
 11
39.285739
 21
306.304231
  0
LINE
  5
126
100
AcDbEntity
  8
M0
100
AcDbLine
 10
56.689394
 20
305.804368
 11
43.689394
 21
305.804414
  0
LINE
  5
127
100
AcDbEntity
  8
M0
100
AcDbLine
 10
76.689394
 20
305.804299
 11
56.689394
 21
305.804368
  0
LINE
  5
128
100
AcDbEntity
  8
M0
100
AcDbLine
 10
109.328242
 20
305.804231
 11
96.68899
 21
305.803985
  0
LINE
  5
129
100
AcDbEntity
  8
M0
100
AcDbLine
 10
93.689256
 20
268.104288
 11
76.689262
 21
268.104347
  0
LINE
  5
12A
100
AcDbEntity
  8
M0
100
AcDbLine
 10
42.939277
 20
268.104282
 11
42.939264
 21
268.803745
  0
LINE
  5
12B
100
AcDbEntity
  8
M0
100
AcDbLine
 10
47.439277
 20
268.104282
 11
47.439264
 21
268.803745
  0
LINE
  5
12C
100
AcDbEntity
  8
M0
100
AcDbLine
 10
43.689394
 20
305.804414
 11
43.689395
 21
306.304414
  0
ARC
  5
12D
100
AcDbEntity
  8
M0
100
AcDbCircle
 10
55.68939
 20
304.804372
 40
1.0
100
AcDbArc
 50
359.9998
 51
449.998926
  0
ARC
  5
12E
100
AcDbEntity
  8
M0
100
AcDbCircle
 10
75.68939
 20
304.804302
 40
1.0
100
AcDbArc
 50
359.9998
 51
449.998926
  0
ARC
  5
12F
100
AcDbEntity
  8
M0
100
AcDbCircle
 10
74.68939
 20
304.804306
 40
1.0
100
AcDbArc
 50
89.998926
 51
179.9998
  0
ARC
  5
130
100
AcDbEntity
  8
M0
100
AcDbCircle
 10
54.68939
 20
304.804375
 40
1.0
100
AcDbArc
 50
89.998926
 51
179.9998
  0
LINE
  5
131
100
AcDbEntity
  8
M0
100
AcDbLine
 10
75.689247
 20
263.804302
 11
74.689247
 21
263.804306
  0
LINE
  5
132
100
AcDbEntity
  8
M0
100
AcDbLine
 10
55.689247
 20
263.804372
 11
54.689247
 21
263.804375
  0
ARC
  5
133
100
AcDbEntity
  8
M0
100
AcDbCircle
 10
54.689251
 20
264.804375
 40
1.0
100
AcDbArc
 50
179.9998
 51
270.0
  0
ARC
  5
134
100
AcDbEntity
  8
M0
100
AcDbCircle
 10
55.689251
 20
264.804372
 40
1.0
100
AcDbArc
 50
270.0
 51
359.9998
  0
ARC
  5
135
100
AcDbEntity
  8
M0
100
AcDbCircle
 10
74.689251
 20
264.804306
 40
1.0
100
AcDbArc
 50
179.9998
 51
270.0
  0
ARC
  5
136
100
AcDbEntity
  8
M0
100
AcDbCircle
 10
75.689251
 20
264.804302
 40
1.0
100
AcDbArc
 50
270.0
 51
359.9998
  0
LINE
  5
137
100
AcDbEntity
  8
M0
100
AcDbLine
 10
96.539255
 20
266.304229
 11
96.539307
 21
281.102035
  0
LINE
  5
138
100
AcDbEntity
  8
M0
100
AcDbLine
 10
73.689262
 20
268.104358
 11
56.689262
 21
268.104417
  0
LINE
  5
139
100
AcDbEntity
  8
M0
100
AcDbLine
 10
53.689262
 20
268.104428
 11
33.689262
 21
268.104497
  0
LINE
  5
13A
100
AcDbEntity
  8
M0
100
AcDbLine
 10
36.689287
 20
270.804438
 11
38.689278
 21
272.804675
  0
LINE
  5
13B
100
AcDbEntity
  8
M0
100
AcDbLine
 10
53.689271
 20
266.304379
 11
51.689263
 21
268.30463
  0
LINE
  5
13C
100
AcDbEntity
  8
M0
100
AcDbLine
 10
76.689271
 20
266.304299
 11
78.689263
 21
268.304536
  0
LINE
  5
13D
100
AcDbEntity
  8
M0
100
AcDbLine
 10
56.689271
 20
266.304368
 11
58.689263
 21
268.304606
  0
LINE
  5
13E
100
AcDbEntity
  8
M0
100
AcDbLine
 10
73.689271
 20
266.304309
 11
71.689263
 21
268.304804
  0
ARC
  5
13F
100
AcDbEntity
  8
M0
100
AcDbCircle
 10
52.689317
 20
283.804382
 40
1.0
100
AcDbArc
 50
359.9998
 51
449.998926
  0
ARC
  5
140
100
AcDbEntity
  8
M0
100
AcDbCircle
 10
72.689317
 20
283.804313
 40
1.0
100
AcDbArc
 50
359.9998
 51
449.998926
  0
ARC
  5
141
100
AcDbEntity
  8
M0
100
AcDbCircle
 10
92.689311
 20
283.804243
 40
1.0
100
AcDbArc
 50
359.9998
 51
450.0
  0
ARC
  5
142
100
AcDbEntity
  8
M0
100
AcDbCircle
 10
77.689317
 20
283.804295
 40
1.0
100
AcDbArc
 50
89.998926
 51
179.9998
  0
ARC
  5
143
100
AcDbEntity
  8
M0
100
AcDbCircle
 10
57.689317
 20
283.804365
 40
1.0
100
AcDbArc
 50
89.998926
 51
179.9998
  0
ARC
  5
144
100
AcDbEntity
  8
M0
100
AcDbCircle
 10
37.689317
 20
283.804435
 40
1.0
100
AcDbArc
 50
89.998926
 51
179.9998
  0
LINE
  5
145
100
AcDbEntity
  8
M0
100
AcDbLine
 10
53.6894
 20
303.304379
 11
51.689424
 21
301.30463
  0
LINE
  5
146
100
AcDbEntity
  8
M0
100
AcDbLine
 10
76.689461
 20
303.304299
 11
78.689378
 21
301.30478
  0
LINE
  5
147
100
AcDbEntity
  8
M0
100
AcDbLine
 10
56.6894
 20
303.304368
 11
58.689378
 21
301.304361
  0
LINE
  5
148
100
AcDbEntity
  8
M0
100
AcDbLine
 10
73.689461
 20
303.304309
 11
71.689378
 21
301.304316
  0
LINE
  5
149
100
AcDbEntity
  8
M0
100
AcDbLine
 10
36.689461
 20
303.304682
 11
38.689424
 21
301.305164
  0
LINE
  5
14A
100
AcDbEntity
  8
M0
100
AcDbLine
 10
92.689329
 20
288.804243
 11
92.689379
 21
303.304243
  0
LINE
  5
14B
100
AcDbEntity
  8
M0
100
AcDbLine
 10
96.039254
 20
265.804231
 11
94.189248
 21
265.804238
  0
ARC
  5
14C
100
AcDbEntity
  8
M0
100
AcDbCircle
 10
94.18925
 20
266.304238
 40
0.5
100
AcDbArc
 50
179.9998
 51
270.0
  0
ARC
  5
14D
100
AcDbEntity
  8
M0
100
AcDbCircle
 10
96.039255
 20
266.304231
 40
0.5
100
AcDbArc
 50
270.0
 51
359.9998
  0
ARC
  5
14E
100
AcDbEntity
  8
M0
100
AcDbCircle
 10
91.689329
 20
288.804246
 40
1.0
100
AcDbArc
 50
270.0
 51
359.9998
  0
LINE
  5
14F
100
AcDbEntity
  8
M0
100
AcDbLine
 10
35.68939
 20
304.804442
 11
33.68939
 21
304.804449
  0
ARC
  5
150
100
AcDbEntity
  8
M0
100
AcDbCircle
 10
35.689387
 20
303.804442
 40
1.0
100
AcDbArc
 50
359.9998
 51
449.998926
  0
ARC
  5
151
100
AcDbEntity
  8
M0
100
AcDbCircle
 10
106.539337
 20
289.804194
 40
13.299996
100
AcDbArc
 50
165.18762
 51
194.810764
  0
LINE
  5
152
100
AcDbEntity
  8
M0
  6
DASHDOT
100
AcDbLine
 10
101.679674
 20
289.804211
 11
85.731828
 21
289.804267
  0
LINE
  5
153
100
AcDbEntity
  8
M0
100
AcDbLine
 10
93.681233
 20
286.404581
 11
96.539315
 21
283.546417
  0
LINE
  5
154
100
AcDbEntity
  8
M0
100
AcDbLine
 10
93.681348
 20
293.20463
 11
96.539359
 21
296.062774
  0
LINE
  5
155
100
AcDbEntity
  8
M0
100
AcDbLine
 10
93.689296
 20
282.304239
 11
96.539302
 21
282.304229
  0
LINE
  5
156
100
AcDbEntity
  8
M0
100
AcDbLine
 10
90.688991
 20
305.80399
 11
76.689409
 21
305.804238
  0
LINE
  5
157
100
AcDbEntity
  8
M0
100
AcDbLine
 10
34.093067
 20
306.304234
 11
33.689273
 21
306.303991
  0
LINE
  5
158
100
AcDbEntity
  8
M0
100
AcDbLine
 10
96.539311
 20
282.304229
 11
96.539384
 21
303.304229
  0
LINE
  5
159
100
AcDbEntity
  8
M0
 62
     2
100
AcDbLine
 10
79.68925
 20
288.803985
 11
90.68925
 21
288.803985
  0
LINE
  5
15A
100
AcDbEntity
  8
M0
 62
     2
100
AcDbLine
 10
91.18925
 20
289.303741
 11
91.18925
 21
300.303497
  0
LINE
  5
15B
100
AcDbEntity
  8
M0
 62
     2
100
AcDbLine
 10
79.18925
 20
300.303497
 11
79.18925
 21
289.303985
  0
LINE
  5
15C
100
AcDbEntity
  8
M0
  6
DASHDOT
 62
     2
100
AcDbLine
 10
76.68925
 20
294.803985
 11
93.68925
 21
294.803985
  0
LINE
  5
15D
100
AcDbEntity
  8
M0
  6
DASHDOT
 62
     2
100
AcDbLine
 10
85.18925
 20
286.303985
 11
85.18925
 21
302.484069
  0
CIRCLE
  5
15E
100
AcDbEntity
  8
M0
 62
     2
100
AcDbCircle
 10
85.18925
 20
294.803985
 40
4.5
  0
ARC
  5
15F
100
AcDbEntity
  8
M0
 62
     2
100
AcDbCircle
 10
90.68925
 20
289.303985
 40
0.5
100
AcDbArc
 50
270.0
 51
359.971805
  0
ARC
  5
160
100
AcDbEntity
  8
M0
 62
     2
100
AcDbCircle
 10
79.68925
 20
289.303985
 40
0.5
100
AcDbArc
 50
179.999891
 51
270.0
  0
LINE
  5
161
100
AcDbEntity
  8
M0
 62
     2
100
AcDbLine
 10
83.229243
 20
296.763946
 11
87.149241
 21
292.84378
  0
LINE
  5
162
100
AcDbEntity
  8
M0
 62
     2
100
AcDbLine
 10
86.057185
 20
297.085968
 11
82.907084
 21
293.935821
  0
LINE
  5
163
100
AcDbEntity
  8
M0
 62
     2
100
AcDbLine
 10
87.471385
 20
295.671905
 11
84.321284
 21
292.521759
  0
ARC
  5
164
100
AcDbEntity
  8
M0
 62
     2
100
AcDbCircle
 10
79.68925
 20
300.303741
 40
0.5
100
AcDbArc
 50
90.0
 51
180.0
  0
LINE
  5
165
100
AcDbEntity
  8
M0
 62
     2
100
AcDbLine
 10
79.68925
 20
300.803741
 11
90.68925
 21
300.803741
  0
ARC
  5
166
100
AcDbEntity
  8
M0
 62
     2
100
AcDbCircle
 10
90.68925
 20
300.303741
 40
0.5
100
AcDbArc
 50
0.027977
 51
90.0
  0
LINE
  5
167
100
AcDbEntity
  8
M0
 62
     2
100
AcDbLine
 10
39.689265
 20
268.803741
 11
50.689265
 21
268.803741
  0
LINE
  5
168
100
AcDbEntity
  8
M0
 62
     2
100
AcDbLine
 10
51.189265
 20
269.303497
 11
51.189265
 21
280.303253
  0
LINE
  5
169
100
AcDbEntity
  8
M0
 62
     2
100
AcDbLine
 10
39.189265
 20
280.303253
 11
39.189265
 21
269.303741
  0
LINE
  5
16A
100
AcDbEntity
  8
M0
  6
DASHDOT
 62
     2
100
AcDbLine
 10
36.689265
 20
274.803741
 11
53.689265
 21
274.803741
  0
LINE
  5
16B
100
AcDbEntity
  8
M0
  6
DASHDOT
 62
     2
100
AcDbLine
 10
45.189265
 20
266.303741
 11
45.189265
 21
282.483825
  0
CIRCLE
  5
16C
100
AcDbEntity
  8
M0
 62
     2
100
AcDbCircle
 10
45.189265
 20
274.803741
 40
4.5
  0
ARC
  5
16D
100
AcDbEntity
  8
M0
 62
     2
100
AcDbCircle
 10
50.689265
 20
269.303741
 40
0.5
100
AcDbArc
 50
270.0
 51
359.971805
  0
ARC
  5
16E
100
AcDbEntity
  8
M0
 62
     2
100
AcDbCircle
 10
39.689265
 20
269.303741
 40
0.5
100
AcDbArc
 50
179.999891
 51
270.0
  0
LINE
  5
16F
100
AcDbEntity
  8
M0
 62
     2
100
AcDbLine
 10
43.229258
 20
276.763702
 11
47.149256
 21
272.843536
  0
LINE
  5
170
100
AcDbEntity
  8
M0
 62
     2
100
AcDbLine
 10
46.0572
 20
277.085723
 11
42.907099
 21
273.935577
  0
LINE
  5
171
100
AcDbEntity
  8
M0
 62
     2
100
AcDbLine
 10
47.4714
 20
275.671661
 11
44.321299
 21
272.521515
  0
ARC
  5
172
100
AcDbEntity
  8
M0
 62
     2
100
AcDbCircle
 10
39.689265
 20
280.303497
 40
0.5
100
AcDbArc
 50
90.0
 51
180.0
  0
LINE
  5
173
100
AcDbEntity
  8
M0
 62
     2
100
AcDbLine
 10
39.689265
 20
280.803497
 11
50.689265
 21
280.803497
  0
ARC
  5
174
100
AcDbEntity
  8
M0
 62
     2
100
AcDbCircle
 10
50.689265
 20
280.303497
 40
0.5
100
AcDbArc
 50
0.027977
 51
90.0
  0
LINE
  5
175
100
AcDbEntity
  8
M0
 62
     2
100
AcDbLine
 10
59.689265
 20
268.803741
 11
70.689265
 21
268.803741
  0
LINE
  5
176
100
AcDbEntity
  8
M0
 62
     2
100
AcDbLine
 10
71.189265
 20
269.303497
 11
71.189265
 21
280.303253
  0
LINE
  5
177
100
AcDbEntity
  8
M0
 62
     2
100
AcDbLine
 10
59.189265
 20
280.303253
 11
59.189265
 21
269.303741
  0
LINE
  5
178
100
AcDbEntity
  8
M0
  6
DASHDOT
 62
     2
100
AcDbLine
 10
56.689265
 20
274.803741
 11
73.689265
 21
274.803741
  0
LINE
  5
179
100
AcDbEntity
  8
M0
  6
DASHDOT
 62
     2
100
AcDbLine
 10
65.189265
 20
266.303741
 11
65.189265
 21
282.483825
  0
CIRCLE
  5
17A
100
AcDbEntity
  8
M0
 62
     2
100
AcDbCircle
 10
65.189265
 20
274.803741
 40
4.5
  0
ARC
  5
17B
100
AcDbEntity
  8
M0
 62
     2
100
AcDbCircle
 10
70.689265
 20
269.303741
 40
0.5
100
AcDbArc
 50
270.0
 51
359.971805
  0
ARC
  5
17C
100
AcDbEntity
  8
M0
 62
     2
100
AcDbCircle
 10
59.689265
 20
269.303741
 40
0.5
100
AcDbArc
 50
179.999891
 51
270.0
  0
LINE
  5
17D
100
AcDbEntity
  8
M0
 62
     2
100
AcDbLine
 10
63.229258
 20
276.763702
 11
67.149256
 21
272.843536
  0
LINE
  5
17E
100
AcDbEntity
  8
M0
 62
     2
100
AcDbLine
 10
66.0572
 20
277.085723
 11
62.907099
 21
273.935577
  0
LINE
  5
17F
100
AcDbEntity
  8
M0
 62
     2
100
AcDbLine
 10
67.4714
 20
275.671661
 11
64.321299
 21
272.521515
  0
ARC
  5
180
100
AcDbEntity
  8
M0
 62
     2
100
AcDbCircle
 10
59.689265
 20
280.303497
 40
0.5
100
AcDbArc
 50
90.0
 51
180.0
  0
LINE
  5
181
100
AcDbEntity
  8
M0
 62
     2
100
AcDbLine
 10
59.689265
 20
280.803497
 11
70.689265
 21
280.803497
  0
ARC
  5
182
100
AcDbEntity
  8
M0
 62
     2
100
AcDbCircle
 10
70.689265
 20
280.303497
 40
0.5
100
AcDbArc
 50
0.027977
 51
90.0
  0
LINE
  5
183
100
AcDbEntity
  8
M0
 62
     2
100
AcDbLine
 10
79.68925
 20
268.803741
 11
90.68925
 21
268.803741
  0
LINE
  5
184
100
AcDbEntity
  8
M0
 62
     2
100
AcDbLine
 10
91.18925
 20
269.303497
 11
91.18925
 21
280.303253
  0
LINE
  5
185
100
AcDbEntity
  8
M0
 62
     2
100
AcDbLine
 10
79.18925
 20
280.303253
 11
79.18925
 21
269.303741
  0
LINE
  5
186
100
AcDbEntity
  8
M0
  6
DASHDOT
 62
     2
100
AcDbLine
 10
76.68925
 20
274.803741
 11
93.68925
 21
274.803741
  0
LINE
  5
187
100
AcDbEntity
  8
M0
  6
DASHDOT
 62
     2
100
AcDbLine
 10
85.18925
 20
266.303741
 11
85.18925
 21
282.483825
  0
CIRCLE
  5
188
100
AcDbEntity
  8
M0
 62
     2
100
AcDbCircle
 10
85.18925
 20
274.803741
 40
4.5
  0
ARC
  5
189
100
AcDbEntity
  8
M0
 62
     2
100
AcDbCircle
 10
90.68925
 20
269.303741
 40
0.5
100
AcDbArc
 50
270.0
 51
359.971805
  0
ARC
  5
18A
100
AcDbEntity
  8
M0
 62
     2
100
AcDbCircle
 10
79.68925
 20
269.303741
 40
0.5
100
AcDbArc
 50
179.999891
 51
270.0
  0
LINE
  5
18B
100
AcDbEntity
  8
M0
 62
     2
100
AcDbLine
 10
83.229243
 20
276.763702
 11
87.149241
 21
272.843536
  0
LINE
  5
18C
100
AcDbEntity
  8
M0
 62
     2
100
AcDbLine
 10
86.057185
 20
277.085723
 11
82.907084
 21
273.935577
  0
LINE
  5
18D
100
AcDbEntity
  8
M0
 62
     2
100
AcDbLine
 10
87.471385
 20
275.671661
 11
84.321284
 21
272.521515
  0
ARC
  5
18E
100
AcDbEntity
  8
M0
 62
     2
100
AcDbCircle
 10
79.68925
 20
280.303497
 40
0.5
100
AcDbArc
 50
90.0
 51
180.0
  0
LINE
  5
18F
100
AcDbEntity
  8
M0
 62
     2
100
AcDbLine
 10
79.68925
 20
280.803497
 11
90.68925
 21
280.803497
  0
ARC
  5
190
100
AcDbEntity
  8
M0
 62
     2
100
AcDbCircle
 10
90.68925
 20
280.303497
 40
0.5
100
AcDbArc
 50
0.027977
 51
90.0
  0
LINE
  5
191
100
AcDbEntity
  8
M0
100
AcDbLine
 10
150.499655
 20
303.305694
 11
174.001628
 21
303.305695
  0
LINE
  5
192
100
AcDbEntity
  8
M0
100
AcDbLine
 10
157.195894
 20
263.805782
 11
183.345064
 21
263.805749
  0
LINE
  5
193
100
AcDbEntity
  8
M0
100
AcDbLine
 10
152.499903
 20
306.305773
 11
175.999659
 21
306.305743
  0
LINE
  5
194
100
AcDbEntity
  8
M0
100
AcDbLine
 10
148.499639
 20
302.305789
 11
148.499586
 21
284.805824
  0
LINE
  5
195
100
AcDbEntity
  8
M0
100
AcDbLine
 10
148.499586
 20
284.805808
 11
153.332113
 21
266.770509
  0
ARC
  5
196
100
AcDbEntity
  8
M0
100
AcDbCircle
 10
157.195823
 20
267.805782
 40
4.0
100
AcDbArc
 50
194.999783
 51
270.0
  0
ARC
  5
197
100
AcDbEntity
  8
M0
100
AcDbCircle
 10
152.499639
 20
302.305777
 40
4.0
100
AcDbArc
 50
90.0
 51
179.9999
  0
LINE
  5
198
100
AcDbEntity
  8
M0
100
AcDbLine
 10
150.49964
 20
303.305783
 11
150.499583
 21
282.305791
  0
LINE
  5
199
100
AcDbEntity
  8
M0
100
AcDbLine
 10
150.499598
 20
282.305699
 11
160.300074
 21
282.305717
  0
LINE
  5
19A
100
AcDbEntity
  8
M0
100
AcDbLine
 10
150.49963
 20
283.545781
 11
160.300076
 21
283.545768
  0
LINE
  5
19B
100
AcDbEntity
  8
M0
100
AcDbLine
 10
150.499646
 20
296.065739
 11
160.300077
 21
296.065727
  0
ARC
  5
19C
100
AcDbEntity
  8
M0
100
AcDbCircle
 10
175.999657
 20
304.805743
 40
1.5
100
AcDbArc
 50
359.999891
 51
450.0
  0
ARC
  5
19D
100
AcDbEntity
  8
M0
100
AcDbCircle
 10
183.345057
 20
267.805703
 40
4.0
100
AcDbArc
 50
270.0
 51
311.480153
  0
LINE
  5
19E
100
AcDbEntity
  8
M0
100
AcDbLine
 10
162.222569
 20
265.8057
 11
184.499582
 21
265.805702
  0
CIRCLE
  5
19F
100
AcDbEntity
  8
M0
 62
     6
100
AcDbCircle
 10
100.691645
 20
277.801788
 40
2.999997
  0
LINE
  5
1A0
100
AcDbEntity
  8
M0
 62
     6
100
AcDbLine
 10
97.533161
 20
281.102031
 11
96.916499
 21
279.101837
  0
LINE
  5
1A1
100
AcDbEntity
  8
M0
 62
     6
100
AcDbLine
 10
97.732661
 20
273.854538
 11
96.916499
 21
276.501861
  0
LINE
  5
1A2
100
AcDbEntity
  8
M0
 62
     6
100
AcDbLine
 10
104.210135
 20
279.933287
 11
104.466548
 21
279.101837
  0
LINE
  5
1A3
100
AcDbEntity
  8
M0
 62
     6
100
AcDbLine
 10
103.650141
 20
273.854522
 11
104.466548
 21
276.501861
  0
LINE
  5
1A4
100
AcDbEntity
  8
M0
 62
     6
100
AcDbLine
 10
98.210688
 20
273.501861
 11
103.172358
 21
273.501861
  0
LINE
  5
1A5
100
AcDbEntity
  8
M0
 62
     6
100
AcDbLine
 10
104.466548
 20
276.501861
 11
104.466548
 21
279.101837
  0
LINE
  5
1A6
100
AcDbEntity
  8
M0
 62
     6
100
AcDbLine
 10
96.916499
 20
279.101837
 11
96.916499
 21
276.501861
  0
LINE
  5
1A7
100
AcDbEntity
  8
M0
 62
     6
100
AcDbLine
 10
102.282222
 20
276.210968
 11
99.100581
 21
279.39273
  0
LINE
  5
1A8
100
AcDbEntity
  8
M0
 62
     6
100
AcDbLine
 10
101.044917
 20
279.215973
 11
99.277339
 21
277.448272
  0
LINE
  5
1A9
100
AcDbEntity
  8
M0
 62
     6
100
AcDbLine
 10
102.105464
 20
278.155304
 11
100.337886
 21
276.387725
  0
ARC
  5
1AA
100
AcDbEntity
  8
M0
 62
     6
100
AcDbCircle
 10
98.210688
 20
274.001861
 40
0.5
100
AcDbArc
 50
197.128737
 51
270.0
  0
ARC
  5
1AB
100
AcDbEntity
  8
M0
 62
     6
100
AcDbCircle
 10
103.172358
 20
274.001861
 40
0.5
100
AcDbArc
 50
270.0
 51
342.861308
  0
LINE
  5
1AC
100
AcDbEntity
  8
M0
  6
DASHDOT
 62
     6
100
AcDbLine
 10
104.191645
 20
277.801788
 11
97.191645
 21
277.801788
  0
LINE
  5
1AD
100
AcDbEntity
  8
M0
  6
DASHDOT
 62
     6
100
AcDbLine
 10
100.69163
 20
281.301788
 11
100.691645
 21
274.301788
  0
CIRCLE
  5
1AE
100
AcDbEntity
  8
M0
 62
     6
100
AcDbCircle
 10
111.691645
 20
277.801788
 40
2.999997
  0
LINE
  5
1AF
100
AcDbEntity
  8
M0
 62
     6
100
AcDbLine
 10
108.13237
 20
279.802031
 11
107.916499
 21
279.101837
  0
LINE
  5
1B0
100
AcDbEntity
  8
M0
 62
     6
100
AcDbLine
 10
108.732661
 20
273.854538
 11
107.916499
 21
276.501861
  0
LINE
  5
1B1
100
AcDbEntity
  8
M0
 62
     6
100
AcDbLine
 10
114.849704
 20
281.102031
 11
115.466548
 21
279.101837
  0
LINE
  5
1B2
100
AcDbEntity
  8
M0
 62
     6
100
AcDbLine
 10
114.650141
 20
273.854522
 11
115.466548
 21
276.501861
  0
LINE
  5
1B3
100
AcDbEntity
  8
M0
 62
     6
100
AcDbLine
 10
109.210688
 20
273.501861
 11
114.172358
 21
273.501861
  0
LINE
  5
1B4
100
AcDbEntity
  8
M0
 62
     6
100
AcDbLine
 10
115.466548
 20
276.501861
 11
115.466548
 21
279.101837
  0
LINE
  5
1B5
100
AcDbEntity
  8
M0
 62
     6
100
AcDbLine
 10
107.916499
 20
279.101837
 11
107.916499
 21
276.501861
  0
LINE
  5
1B6
100
AcDbEntity
  8
M0
 62
     6
100
AcDbLine
 10
113.282222
 20
276.210968
 11
110.100581
 21
279.39273
  0
LINE
  5
1B7
100
AcDbEntity
  8
M0
 62
     6
100
AcDbLine
 10
112.044917
 20
279.215973
 11
110.277339
 21
277.448272
  0
LINE
  5
1B8
100
AcDbEntity
  8
M0
 62
     6
100
AcDbLine
 10
113.105464
 20
278.155304
 11
111.337886
 21
276.387725
  0
ARC
  5
1B9
100
AcDbEntity
  8
M0
 62
     6
100
AcDbCircle
 10
109.210688
 20
274.001861
 40
0.5
100
AcDbArc
 50
197.128737
 51
270.0
  0
ARC
  5
1BA
100
AcDbEntity
  8
M0
 62
     6
100
AcDbCircle
 10
114.172358
 20
274.001861
 40
0.5
100
AcDbArc
 50
270.0
 51
342.861308
  0
LINE
  5
1BB
100
AcDbEntity
  8
M0
  6
DASHDOT
 62
     6
100
AcDbLine
 10
115.191645
 20
277.801788
 11
108.191645
 21
277.801788
  0
LINE
  5
1BC
100
AcDbEntity
  8
M0
  6
DASHDOT
 62
     6
100
AcDbLine
 10
111.69163
 20
281.301788
 11
111.691645
 21
274.301788
  0
LINE
  5
1BD
100
AcDbEntity
  8
M0
 62
     5
100
AcDbLine
 10
93.527095
 20
270.801788
 11
94.19163
 21
270.802032
  0
LINE
  5
1BE
100
AcDbEntity
  8
M0
100
AcDbLine
 10
107.041743
 20
299.652032
 11
111.041743
 21
299.652032
  0
LINE
  5
1BF
100
AcDbEntity
  8
M0
100
AcDbLine
 10
111.041743
 20
299.652032
 11
111.041743
 21
302.452032
  0
LINE
  5
1C0
100
AcDbEntity
  8
M0
100
AcDbLine
 10
111.041743
 20
302.452032
 11
107.041743
 21
302.452032
  0
LINE
  5
1C1
100
AcDbEntity
  8
M0
100
AcDbLine
 10
107.041743
 20
302.452032
 11
107.041743
 21
299.652032
  0
LINE
  5
1C2
100
AcDbEntity
  8
M0
100
AcDbLine
 10
107.450641
 20
289.717558
 11
107.450641
 21
292.106719
  0
LINE
  5
1C3
100
AcDbEntity
  8
M0
100
AcDbLine
 10
107.450657
 20
292.106963
 11
105.747913
 21
292.106963
  0
LINE
  5
1C4
100
AcDbEntity
  8
M0
100
AcDbLine
 10
105.747913
 20
292.106719
 11
105.747913
 21
289.718047
  0
LINE
  5
1C5
100
AcDbEntity
  8
M0
100
AcDbLine
 10
106.599277
 20
287.328398
 11
104.945026
 21
289.718535
  0
LINE
  5
1C6
100
AcDbEntity
  8
M0
100
AcDbLine
 10
106.599277
 20
287.328398
 11
108.253544
 21
289.717803
  0
LINE
  5
1C7
100
AcDbEntity
  8
M0
100
AcDbLine
 10
104.945026
 20
289.718535
 11
105.747898
 21
289.718291
  0
LINE
  5
1C8
100
AcDbEntity
  8
M0
100
AcDbLine
 10
108.253544
 20
289.717803
 11
107.450641
 21
289.717803
  0
LINE
  5
1C9
100
AcDbEntity
  8
M0
 62
     4
100
AcDbLine
 10
231.500429
 20
303.301901
 11
229.999934
 21
303.301531
  0
LINE
  5
1CA
100
AcDbEntity
  8
M0
 62
     4
100
AcDbLine
 10
175.919107
 20
268.802873
 11
199.53573
 21
268.80246
  0
LINE
  5
1CB
100
AcDbEntity
  8
M0
 62
     4
100
AcDbLine
 10
169.000062
 20
282.302994
 11
170.000077
 21
282.302976
  0
LINE
  5
1CC
100
AcDbEntity
  8
M0
 62
     4
100
AcDbLine
 10
169.000062
 20
282.302994
 11
169.000429
 21
303.302994
  0
LINE
  5
1CD
100
AcDbEntity
  8
M0
 62
     4
100
AcDbLine
 10
170.000077
 20
282.302961
 11
170.320872
 21
281.105694
  0
ARC
  5
1CE
100
AcDbEntity
  8
M0
 62
     4
100
AcDbCircle
 10
175.919159
 20
271.802873
 40
3.0
100
AcDbArc
 50
194.999061
 51
269.998998
  0
LINE
  5
1CF
100
AcDbEntity
  8
M0
 62
     4
100
AcDbLine
 10
174.847399
 20
272.802892
 11
184.499911
 21
272.802723
  0
ARC
  5
1D0
100
AcDbEntity
  8
M0
 62
     4
100
AcDbCircle
 10
174.847452
 20
275.802892
 40
3.0
100
AcDbArc
 50
194.999067
 51
269.998998
  0
LINE
  5
1D1
100
AcDbEntity
  8
M0
 62
     4
100
AcDbLine
 10
187.499891
 20
270.80267
 11
198.999861
 21
270.802469
  0
LINE
  5
1D2
100
AcDbEntity
  8
M0
 62
     4
100
AcDbLine
 10
201.874178
 20
265.802419
 11
205.69977
 21
265.802352
  0
LINE
  5
1D3
100
AcDbEntity
  8
M0
 62
     4
100
AcDbLine
 10
202.776055
 20
261.802403
 11
219.093575
 21
261.802118
  0
LINE
  5
1D4
100
AcDbEntity
  8
M0
 62
     4
100
AcDbLine
 10
220.825625
 20
262.802089
 11
224.001166
 21
268.302033
  0
ARC
  5
1D5
100
AcDbEntity
  8
M0
 62
     4
100
AcDbCircle
 10
219.093602
 20
263.802119
 40
2.0
100
AcDbArc
 50
269.998971
 51
329.998878
  0
ARC
  5
1D6
100
AcDbEntity
  8
M0
 62
     4
100
AcDbCircle
 10
201.874213
 20
267.802419
 40
2.0
100
AcDbArc
 50
194.999439
 51
269.998998
  0
LINE
  5
1D7
100
AcDbEntity
  8
M0
 62
     4
100
AcDbLine
 10
208.699735
 20
263.8023
 11
220.248319
 21
263.802098
  0
ARC
  5
1D8
100
AcDbEntity
  8
M0
 62
     4
100
AcDbCircle
 10
220.248346
 20
265.802099
 40
2.0
100
AcDbArc
 50
269.998971
 51
329.998878
  0
LINE
  5
1D9
100
AcDbEntity
  8
M0
 62
     4
100
AcDbLine
 10
199.499863
 20
268.302461
 11
187.499832
 21
268.30267
  0
LINE
  5
1DA
100
AcDbEntity
  8
M0
 62
     4
100
AcDbLine
 10
186.749841
 20
268.802684
 11
187.499832
 21
268.30267
  0
LINE
  5
1DB
100
AcDbEntity
  8
M0
 62
     4
100
AcDbLine
 10
184.499911
 20
272.802723
 11
187.499891
 21
270.80267
  0
LINE
  5
1DC
100
AcDbEntity
  8
M0
 62
     4
100
AcDbLine
 10
224.001175
 20
268.302032
 11
231.499817
 21
268.301901
  0
LINE
  5
1DD
100
AcDbEntity
  8
M0
 62
     4
100
AcDbLine
 10
220.825648
 20
262.802088
 11
226.499721
 21
262.801989
  0
LINE
  5
1DE
100
AcDbEntity
  8
M0
 62
     4
100
AcDbLine
 10
228.499756
 20
264.801954
 11
228.499817
 21
268.301954
  0
ARC
  5
1DF
100
AcDbEntity
  8
M0
 62
     4
100
AcDbCircle
 10
226.499756
 20
264.801989
 40
2.0
100
AcDbArc
 50
269.998971
 51
359.998971
  0
LINE
  5
1E0
100
AcDbEntity
  8
M0
 62
     4
100
AcDbLine
 10
205.69977
 20
265.802352
 11
208.699735
 21
263.8023
  0
LINE
  5
1E1
100
AcDbEntity
  8
M0
 62
     4
100
AcDbLine
 10
199.499832
 20
268.302522
 11
200.844227
 21
263.284798
  0
LINE
  5
1E2
100
AcDbEntity
  8
M0
 62
     4
100
AcDbLine
 10
198.999876
 20
270.802469
 11
199.942365
 21
267.284814
  0
ARC
  5
1E3
100
AcDbEntity
  8
M0
 62
     4
100
AcDbCircle
 10
202.77609
 20
263.802403
 40
2.0
100
AcDbArc
 50
194.999096
 51
269.998998
  0
LINE
  5
1E4
100
AcDbEntity
  8
M0
 62
     4
100
AcDbLine
 10
231.499405
 20
268.301764
 11
231.500017
 21
303.301901
  0
LINE
  5
1E5
100
AcDbEntity
  8
M0
  6
DASHED
 62
     4
100
AcDbLine
 10
161.999925
 20
296.301773
 11
161.99994
 21
303.305954
  0
LINE
  5
1E6
100
AcDbEntity
  8
M0
  6
DASHED
 62
     4
100
AcDbLine
 10
162.99994
 20
296.301771
 11
162.999956
 21
303.301786
  0
LINE
  5
1E7
100
AcDbEntity
  8
M0
  6
DASHED
 62
     4
100
AcDbLine
 10
224.499168
 20
268.301869
 11
224.499226
 21
272.317005
  0
LINE
  5
1E8
100
AcDbEntity
  8
M0
  6
DASHED
 62
     4
100
AcDbLine
 10
221.499269
 20
275.317536
 11
218.499269
 21
275.317579
  0
ARC
  5
1E9
100
AcDbEntity
  8
M0
  6
DASHED
 62
     4
100
AcDbCircle
 10
221.499226
 20
272.317292
 40
3.0
100
AcDbArc
 50
359.998944
 51
449.998998
  0
LINE
  5
1EA
100
AcDbEntity
  8
M0
 62
     4
100
AcDbLine
 10
155.499589
 20
282.305287
 11
159.324641
 21
268.029623
  0
ARC
  5
1EB
100
AcDbEntity
  8
M0
 62
     4
100
AcDbCircle
 10
162.22239
 20
268.806213
 40
3.0
100
AcDbArc
 50
195.0026
 51
269.998998
  0
LINE
  5
1EC
100
AcDbEntity
  8
M0
 62
     4
100
AcDbLine
 10
184.499392
 20
265.805956
 11
187.499418
 21
263.805939
  0
LINE
  5
1ED
100
AcDbEntity
  8
M0
 62
     4
100
AcDbLine
 10
187.499464
 20
263.805858
 11
193.499433
 21
263.805835
  0
LINE
  5
1EE
100
AcDbEntity
  8
M0
 62
     4
100
AcDbLine
 10
194.499405
 20
264.805831
 11
200.436706
 21
264.805808
  0
ARC
  5
1EF
100
AcDbEntity
  8
M0
 62
     4
100
AcDbCircle
 10
193.499435
 20
264.805835
 40
1.0
100
AcDbArc
 50
269.998998
 51
359.998998
  0
LINE
  5
1F0
100
AcDbEntity
  8
M0
 62
     4
100
AcDbLine
 10
229.999967
 20
304.801287
 11
174.499982
 21
304.801097
  0
LINE
  5
1F1
100
AcDbEntity
  8
M0
 62
     4
100
AcDbLine
 10
229.999999
 20
304.801531
 11
229.999996
 21
303.301531
  0
LINE
  5
1F2
100
AcDbEntity
  8
M0
 62
     4
100
AcDbLine
 10
174.499982
 20
304.801296
 11
174.000001
 21
303.301045
  0
LINE
  5
1F3
100
AcDbEntity
  8
M0
 62
     4
100
AcDbLine
 10
174.000337
 20
303.301533
 11
162.000505
 21
303.303116
  0
CIRCLE
  5
1F4
100
AcDbEntity
  8
M0
  6
DASHED
 62
     4
100
AcDbCircle
 10
106.542917
 20
289.801292
 40
7.699992
  0
LINE
  5
1F5
100
AcDbEntity
  8
M0
 62
     4
100
AcDbLine
 10
170.642384
 20
279.905694
 11
173.021364
 21
271.026465
  0
ARC
  5
1F6
100
AcDbEntity
  8
M0
 62
     6
100
AcDbCircle
 10
111.692866
 20
270.801788
 40
2.999997
100
AcDbArc
 50
115.844051
 51
424.156194
  0
LINE
  5
1F7
100
AcDbEntity
  8
M0
 62
     6
100
AcDbLine
 10
108.595378
 20
274.299591
 11
107.91772
 21
272.101837
  0
LINE
  5
1F8
100
AcDbEntity
  8
M0
 62
     6
100
AcDbLine
 10
108.733882
 20
266.854538
 11
107.91772
 21
269.501861
  0
LINE
  5
1F9
100
AcDbEntity
  8
M0
 62
     6
100
AcDbLine
 10
114.788691
 20
274.303741
 11
115.467768
 21
272.101837
  0
LINE
  5
1FA
100
AcDbEntity
  8
M0
 62
     6
100
AcDbLine
 10
114.651362
 20
266.854522
 11
115.467768
 21
269.501861
  0
LINE
  5
1FB
100
AcDbEntity
  8
M0
 62
     6
100
AcDbLine
 10
109.211909
 20
266.501861
 11
114.173579
 21
266.501861
  0
LINE
  5
1FC
100
AcDbEntity
  8
M0
 62
     6
100
AcDbLine
 10
115.467768
 20
269.501861
 11
115.467768
 21
272.101837
  0
LINE
  5
1FD
100
AcDbEntity
  8
M0
 62
     6
100
AcDbLine
 10
107.91772
 20
272.101837
 11
107.91772
 21
269.501861
  0
LINE
  5
1FE
100
AcDbEntity
  8
M0
  6
DASHDOT
 62
     6
100
AcDbLine
 10
105.41772
 20
270.801788
 11
117.967768
 21
270.801788
  0
LINE
  5
1FF
100
AcDbEntity
  8
M0
  6
DASHDOT
 62
     6
100
AcDbLine
 10
111.692866
 20
264.001876
 11
111.692866
 21
273.277824
  0
LINE
  5
200
100
AcDbEntity
  8
M0
 62
     6
100
AcDbLine
 10
113.283442
 20
269.210968
 11
110.101802
 21
272.39273
  0
LINE
  5
201
100
AcDbEntity
  8
M0
 62
     6
100
AcDbLine
 10
112.046138
 20
272.215973
 11
110.278559
 21
270.448272
  0
LINE
  5
202
100
AcDbEntity
  8
M0
 62
     6
100
AcDbLine
 10
113.106684
 20
271.155304
 11
111.339106
 21
269.387725
  0
ARC
  5
203
100
AcDbEntity
  8
M0
 62
     6
100
AcDbCircle
 10
109.211909
 20
267.001861
 40
0.5
100
AcDbArc
 50
197.128737
 51
270.0
  0
ARC
  5
204
100
AcDbEntity
  8
M0
 62
     6
100
AcDbCircle
 10
114.173579
 20
267.001861
 40
0.5
100
AcDbArc
 50
270.0
 51
342.861308
  0
ARC
  5
205
100
AcDbEntity
  8
M0
 62
     6
100
AcDbCircle
 10
101.692866
 20
270.801788
 40
2.999997
100
AcDbArc
 50
115.844051
 51
424.156194
  0
LINE
  5
206
100
AcDbEntity
  8
M0
 62
     6
100
AcDbLine
 10
98.349345
 20
273.501739
 11
97.91772
 21
272.101837
  0
LINE
  5
207
100
AcDbEntity
  8
M0
 62
     6
100
AcDbLine
 10
98.733882
 20
266.854538
 11
97.91772
 21
269.501861
  0
LINE
  5
208
100
AcDbEntity
  8
M0
 62
     6
100
AcDbLine
 10
104.651362
 20
266.854522
 11
105.279536
 21
268.891388
  0
LINE
  5
209
100
AcDbEntity
  8
M0
 62
     6
100
AcDbLine
 10
99.211909
 20
266.501861
 11
104.173579
 21
266.501861
  0
LINE
  5
20A
100
AcDbEntity
  8
M0
 62
     6
100
AcDbLine
 10
97.91772
 20
272.101837
 11
97.91772
 21
269.501861
  0
LINE
  5
20B
100
AcDbEntity
  8
M0
  6
DASHDOT
 62
     6
100
AcDbLine
 10
95.41772
 20
270.801788
 11
107.967768
 21
270.801788
  0
LINE
  5
20C
100
AcDbEntity
  8
M0
  6
DASHDOT
 62
     6
100
AcDbLine
 10
101.692866
 20
264.001876
 11
101.692866
 21
277.601837
  0
LINE
  5
20D
100
AcDbEntity
  8
M0
 62
     6
100
AcDbLine
 10
103.283442
 20
269.210968
 11
100.101802
 21
272.39273
  0
LINE
  5
20E
100
AcDbEntity
  8
M0
 62
     6
100
AcDbLine
 10
102.046138
 20
272.215973
 11
100.278559
 21
270.448272
  0
LINE
  5
20F
100
AcDbEntity
  8
M0
 62
     6
100
AcDbLine
 10
103.106684
 20
271.155304
 11
101.339106
 21
269.387725
  0
ARC
  5
210
100
AcDbEntity
  8
M0
 62
     6
100
AcDbCircle
 10
99.211909
 20
267.001861
 40
0.5
100
AcDbArc
 50
197.128737
 51
270.0
  0
ARC
  5
211
100
AcDbEntity
  8
M0
 62
     6
100
AcDbCircle
 10
104.173579
 20
267.001861
 40
0.5
100
AcDbArc
 50
270.0
 51
342.861308
  0
ARC
  5
212
100
AcDbEntity
  8
M0
 62
     4
100
AcDbCircle
 10
106.692839
 20
262.801795
 40
1.0
100
AcDbArc
 50
179.999964
 51
270.0
  0
ARC
  5
213
100
AcDbEntity
  8
M0
 62
     4
100
AcDbCircle
 10
106.692839
 20
262.801795
 40
1.0
100
AcDbArc
 50
270.0
 51
359.999964
  0
LINE
  5
214
100
AcDbEntity
  8
M0
 62
     4
100
AcDbLine
 10
97.692869
 20
262.801801
 11
94.692869
 21
262.801803
  0
LINE
  5
215
100
AcDbEntity
  8
M0
 62
     4
100
AcDbLine
 10
118.692864
 20
303.301788
 11
93.526864
 21
303.301544
  0
LINE
  5
216
100
AcDbEntity
  8
M0
 62
     4
100
AcDbLine
 10
97.692856
 20
266.801801
 11
98.750153
 21
266.8018
  0
LINE
  5
217
100
AcDbEntity
  8
M0
 62
     4
100
AcDbLine
 10
118.69284
 20
264.301788
 11
118.692866
 21
306.301788
  0
LINE
  5
218
100
AcDbEntity
  8
M0
 62
     4
100
AcDbLine
 10
115.69284
 20
264.80179
 11
115.69285
 21
281.102037
  0
LINE
  5
219
100
AcDbEntity
  8
M0
 62
     4
100
AcDbLine
 10
118.19283
 20
272.801788
 11
116.69283
 21
272.801789
  0
ARC
  5
21A
100
AcDbEntity
  8
M0
 62
     4
100
AcDbCircle
 10
118.19283
 20
273.301788
 40
0.5
100
AcDbArc
 50
270.0
 51
359.999964
  0
ARC
  5
21B
100
AcDbEntity
  8
M0
 62
     4
100
AcDbCircle
 10
116.69283
 20
273.801789
 40
1.0
100
AcDbArc
 50
179.999964
 51
270.0
  0
LINE
  5
21C
100
AcDbEntity
  8
M0
 62
     4
100
AcDbLine
 10
99.192851
 20
282.3018
 11
94.192881
 21
282.301803
  0
LINE
  5
21D
100
AcDbEntity
  8
M0
 62
     4
100
AcDbLine
 10
118.192841
 20
265.801788
 11
116.692841
 21
265.801789
  0
LINE
  5
21E
100
AcDbEntity
  8
M0
 62
     4
100
AcDbLine
 10
118.192839
 20
263.801788
 11
116.692839
 21
263.801789
  0
ARC
  5
21F
100
AcDbEntity
  8
M0
 62
     4
100
AcDbCircle
 10
118.19284
 20
264.301788
 40
0.5
100
AcDbArc
 50
270.0
 51
359.999964
  0
ARC
  5
220
100
AcDbEntity
  8
M0
 62
     4
100
AcDbCircle
 10
116.69284
 20
264.801789
 40
1.0
100
AcDbArc
 50
179.999964
 51
270.0
  0
ARC
  5
221
100
AcDbEntity
  8
M0
 62
     4
100
AcDbCircle
 10
118.192841
 20
266.301788
 40
0.5
100
AcDbArc
 50
270.0
 51
359.999964
  0
ARC
  5
222
100
AcDbEntity
  8
M0
 62
     4
100
AcDbCircle
 10
116.692841
 20
266.801789
 40
1.0
100
AcDbArc
 50
179.999964
 51
270.0
  0
LINE
  5
223
100
AcDbEntity
  8
M0
 62
     4
100
AcDbLine
 10
118.192844
 20
270.801788
 11
116.692844
 21
270.801789
  0
ARC
  5
224
100
AcDbEntity
  8
M0
 62
     4
100
AcDbCircle
 10
116.692844
 20
271.801789
 40
1.0
100
AcDbArc
 50
179.999964
 51
270.0
  0
ARC
  5
225
100
AcDbEntity
  8
M0
 62
     4
100
AcDbCircle
 10
118.192844
 20
271.301788
 40
0.5
100
AcDbArc
 50
270.0
 51
359.999964
  0
LINE
  5
226
100
AcDbEntity
  8
M0
 62
     4
100
AcDbLine
 10
107.692839
 20
262.801795
 11
107.692849
 21
279.802039
  0
LINE
  5
227
100
AcDbEntity
  8
M0
 62
     4
100
AcDbLine
 10
114.635102
 20
266.80179
 11
115.692811
 21
266.80179
  0
LINE
  5
228
100
AcDbEntity
  8
M0
 62
     4
100
AcDbLine
 10
115.692815
 20
273.80179
 11
114.943502
 21
273.801546
  0
LINE
  5
229
100
AcDbEntity
  8
M0
 62
     4
100
AcDbLine
 10
108.441884
 20
273.80155
 11
107.692815
 21
273.801795
  0
LINE
  5
22A
100
AcDbEntity
  8
M0
 62
     4
100
AcDbLine
 10
104.692813
 20
269.801797
 11
104.692833
 21
279.802041
  0
LINE
  5
22B
100
AcDbEntity
  8
M0
 62
     4
100
AcDbLine
 10
106.692842
 20
268.801795
 11
105.692842
 21
268.801796
  0
ARC
  5
22C
100
AcDbEntity
  8
M0
 62
     4
100
AcDbCircle
 10
106.692843
 20
269.801795
 40
1.0
100
AcDbArc
 50
270.0
 51
359.999964
  0
ARC
  5
22D
100
AcDbEntity
  8
M0
 62
     4
100
AcDbCircle
 10
105.692843
 20
269.801796
 40
1.0
100
AcDbArc
 50
179.999964
 51
270.0
  0
LINE
  5
22E
100
AcDbEntity
  8
M0
 62
     4
100
AcDbLine
 10
96.692875
 20
271.301817
 11
96.692881
 21
281.102034
  0
LINE
  5
22F
100
AcDbEntity
  8
M0
 62
     4
100
AcDbLine
 10
103.633901
 20
273.801797
 11
104.692846
 21
273.801797
  0
LINE
  5
230
100
AcDbEntity
  8
M0
 62
     4
100
AcDbLine
 10
98.692856
 20
266.801801
 11
98.692857
 21
266.987592
  0
LINE
  5
231
100
AcDbEntity
  8
M0
 62
     4
100
AcDbLine
 10
97.692869
 20
262.801801
 11
97.692861
 21
273.983686
  0
LINE
  5
232
100
AcDbEntity
  8
M0
 62
     4
100
AcDbLine
 10
105.692839
 20
262.801796
 11
105.692842
 21
268.801796
  0
LINE
  5
233
100
AcDbEntity
  8
M0
 62
     4
100
AcDbLine
 10
107.692811
 20
266.801795
 11
108.750138
 21
266.801794
  0
LINE
  5
234
100
AcDbEntity
  8
M0
 62
     4
100
AcDbLine
 10
97.692857
 20
268.301801
 11
96.539217
 21
268.301558
  0
LINE
  5
235
100
AcDbEntity
  8
M0
 62
     4
100
AcDbLine
 10
97.692859
 20
270.301801
 11
96.539218
 21
270.301558
  0
LINE
  5
236
100
AcDbEntity
  8
M0
 62
     4
100
AcDbLine
 10
96.692875
 20
271.801802
 11
96.692881
 21
281.102034
  0
LINE
  5
237
100
AcDbEntity
  8
M0
 62
     4
100
AcDbLine
 10
94.692854
 20
262.801803
 11
94.692856
 21
265.804
  0
ARC
  5
238
100
AcDbEntity
  8
M0
 62
     4
100
AcDbCircle
 10
114.19285
 20
280.801791
 40
1.499996
100
AcDbArc
 50
359.999964
 51
371.546587
  0
LINE
  5
239
100
AcDbEntity
  8
M0
 62
     4
100
AcDbLine
 10
96.542862
 20
289.801802
 11
95.042861
 21
288.301818
  0
LINE
  5
23A
100
AcDbEntity
  8
M0
 62
     4
100
AcDbLine
 10
96.542862
 20
289.801802
 11
95.042863
 21
291.301803
  0
LINE
  5
23B
100
AcDbEntity
  8
M0
 62
     4
100
AcDbLine
 10
94.192901
 20
288.301788
 11
94.192902
 21
291.301788
  0
LINE
  5
23C
100
AcDbEntity
  8
M0
 62
     4
100
AcDbLine
 10
96.54287
 20
303.301802
 11
96.542857
 21
282.301802
  0
LINE
  5
23D
100
AcDbEntity
  8
M0
 62
     4
100
AcDbLine
 10
95.042846
 20
288.301559
 11
94.192885
 21
288.301803
  0
LINE
  5
23E
100
AcDbEntity
  8
M0
 62
     4
100
AcDbLine
 10
95.042863
 20
291.301559
 11
94.192902
 21
291.301803
  0
LINE
  5
23F
100
AcDbEntity
  8
M0
 62
     4
100
AcDbLine
 10
104.635117
 20
266.801797
 11
105.692811
 21
266.801796
  0
LINE
  5
240
100
AcDbEntity
  8
M0
 62
     4
100
AcDbLine
 10
118.692866
 20
306.301788
 11
110.192866
 21
306.301793
  0
LINE
  5
241
100
AcDbEntity
  8
M0
 62
     4
100
AcDbLine
 10
109.192865
 20
304.501806
 11
109.192865
 21
305.301794
  0
LINE
  5
242
100
AcDbEntity
  8
M0
 62
     4
100
AcDbLine
 10
118.692834
 20
304.501495
 11
76.689264
 21
304.501521
  0
ARC
  5
243
100
AcDbEntity
  8
M0
 62
     4
100
AcDbCircle
 10
110.192865
 20
305.301793
 40
1.0
100
AcDbArc
 50
90.0
 51
179.999964
  0
LINE
  5
244
100
AcDbEntity
  8
M0
 62
     4
100
AcDbLine
 10
96.992847
 20
295.31554
 11
96.542865
 21
295.575331
  0
LINE
  5
245
100
AcDbEntity
  8
M0
 62
     4
100
AcDbLine
 10
97.692886
 20
264.801801
 11
94.692871
 21
264.801803
  0
ARC
  5
246
100
AcDbEntity
  8
M0
 62
     4
100
AcDbCircle
 10
96.692871
 20
265.801802
 40
1.0
100
AcDbArc
 50
179.999964
 51
270.0
  0
ARC
  5
247
100
AcDbEntity
  8
M0
 62
     4
100
AcDbCircle
 10
96.692871
 20
265.801802
 40
1.0
100
AcDbArc
 50
270.0
 51
359.999964
  0
LINE
  5
248
100
AcDbEntity
  8
M0
 62
     4
100
AcDbLine
 10
73.689264
 20
304.501523
 11
56.689264
 21
304.50129
  0
LINE
  5
249
100
AcDbEntity
  8
M0
 62
     4
100
AcDbLine
 10
53.689264
 20
304.501292
 11
36.405954
 21
304.501547
  0
LINE
  5
24A
100
AcDbEntity
  8
M0
100
AcDbLine
 10
158.503733
 20
286.552032
 11
161.499897
 21
286.552032
  0
LINE
  5
24B
100
AcDbEntity
  8
M0
100
AcDbLine
 10
161.499897
 20
293.052032
 11
158.503733
 21
293.052032
  0
LINE
  5
24C
100
AcDbEntity
  8
M0
100
AcDbLine
 10
158.003733
 20
292.551787
 11
158.003733
 21
287.052032
  0
ARC
  5
24D
100
AcDbEntity
  8
M0
100
AcDbCircle
 10
158.503748
 20
292.551787
 40
0.5
100
AcDbArc
 50
90.0
 51
180.0
  0
ARC
  5
24E
100
AcDbEntity
  8
M0
100
AcDbCircle
 10
158.503748
 20
287.052032
 40
0.5
100
AcDbArc
 50
179.999891
 51
270.0
  0
LINE
  5
24F
100
AcDbEntity
  8
M0
  6
DASHDOT
100
AcDbLine
 10
153.188368
 20
289.801788
 11
168.897731
 21
289.801788
  0
LINE
  5
250
100
AcDbEntity
  8
M0
  6
DASHDOT
100
AcDbLine
 10
97.280432
 20
289.802032
 11
118.393149
 21
289.802032
  0
LINE
  5
251
100
AcDbEntity
  8
M0
  6
DASHDOT
100
AcDbLine
 10
106.541743
 20
273.994526
 11
106.541743
 21
305.609539
  0
LINE
  5
252
100
AcDbEntity
  8
M0
 62
     7
100
AcDbLine
 10
38.689402
 20
306.501724
 11
34.689402
 21
306.501709
  0
LINE
  5
253
100
AcDbEntity
  8
M0
 62
     7
100
AcDbLine
 10
33.689402
 20
305.501709
 11
33.689402
 21
304.501724
  0
LINE
  5
254
100
AcDbEntity
  8
M0
 62
     7
100
AcDbLine
 10
39.689402
 20
305.501724
 11
39.689402
 21
304.501724
  0
ARC
  5
255
100
AcDbEntity
  8
M0
 62
     7
100
AcDbCircle
 10
38.689402
 20
305.501724
 40
1.0
100
AcDbArc
 50
0.0
 51
89.999126
  0
ARC
  5
256
100
AcDbEntity
  8
M0
 62
     7
100
AcDbCircle
 10
34.689402
 20
305.501709
 40
1.0
100
AcDbArc
 50
89.999126
 51
179.999966
  0
LINE
  5
257
100
AcDbEntity
  8
M0
 62
     7
100
AcDbLine
 10
95.68899
 20
306.50148
 11
91.68899
 21
306.501464
  0
LINE
  5
258
100
AcDbEntity
  8
M0
 62
     7
100
AcDbLine
 10
90.68899
 20
305.501464
 11
90.68899
 21
304.50148
  0
LINE
  5
259
100
AcDbEntity
  8
M0
 62
     7
100
AcDbLine
 10
96.68899
 20
305.50148
 11
96.68899
 21
304.50148
  0
ARC
  5
25A
100
AcDbEntity
  8
M0
 62
     7
100
AcDbCircle
 10
95.68899
 20
305.50148
 40
1.0
100
AcDbArc
 50
0.0
 51
89.999126
  0
ARC
  5
25B
100
AcDbEntity
  8
M0
 62
     7
100
AcDbCircle
 10
91.68899
 20
305.501464
 40
1.0
100
AcDbArc
 50
89.999126
 51
179.999966
  0
LINE
  5
25C
100
AcDbEntity
  8
M0
 62
    34
100
AcDbLine
 10
96.992851
 20
285.001985
 11
96.992841
 21
300.60197
  0
LINE
  5
25D
100
AcDbEntity
  8
M0
 62
    34
100
AcDbLine
 10
93.692836
 20
304.501968
 11
93.692836
 21
303.301968
  0
LINE
  5
25E
100
AcDbEntity
  8
M0
 62
    34
100
AcDbLine
 10
93.692849
 20
282.301971
 11
93.69285
 21
281.101974
  0
LINE
  5
25F
100
AcDbEntity
  8
M0
 62
    34
100
AcDbLine
 10
93.692849
 20
282.301971
 11
99.192849
 21
282.301974
  0
LINE
  5
260
100
AcDbEntity
  8
M0
 62
    34
100
AcDbLine
 10
93.692836
 20
303.301968
 11
99.192836
 21
303.301972
  0
LINE
  5
261
100
AcDbEntity
  8
M0
 62
    34
100
AcDbLine
 10
104.492851
 20
279.801978
 11
108.492851
 21
279.80198
  0
LINE
  5
262
100
AcDbEntity
  8
M0
 62
    34
100
AcDbLine
 10
110.69285
 20
281.101985
 11
108.492851
 21
279.80198
  0
LINE
  5
263
100
AcDbEntity
  8
M0
 62
    34
100
AcDbLine
 10
104.492851
 20
279.801978
 11
101.69285
 21
281.101979
  0
LINE
  5
264
100
AcDbEntity
  8
M0
 62
    34
100
AcDbLine
 10
101.69285
 20
281.101979
 11
93.69285
 21
281.101974
  0
LINE
  5
265
100
AcDbEntity
  8
M0
 62
    34
100
AcDbLine
 10
118.19285
 20
281.101989
 11
110.69285
 21
281.101985
  0
ARC
  5
266
100
AcDbEntity
  8
M0
 62
    34
100
AcDbCircle
 10
118.19285
 20
281.601989
 40
0.5
100
AcDbArc
 50
270.0
 51
360.000036
  0
LINE
  5
267
100
AcDbEntity
  8
M0
 62
    34
100
AcDbLine
 10
118.69285
 20
281.60199
 11
118.692836
 21
304.001984
  0
LINE
  5
268
100
AcDbEntity
  8
M0
 62
    34
100
AcDbLine
 10
118.192836
 20
304.501983
 11
93.692836
 21
304.501968
  0
ARC
  5
269
100
AcDbEntity
  8
M0
 62
    34
100
AcDbCircle
 10
118.192836
 20
304.001983
 40
0.5
100
AcDbArc
 50
1.821226E-006
 51
90.0
  0
LINE
  5
26A
100
AcDbEntity
  8
M0
 62
    34
100
AcDbLine
 10
99.192849
 20
282.301974
 11
99.192848
 21
284.001987
  0
LINE
  5
26B
100
AcDbEntity
  8
M0
 62
    34
100
AcDbLine
 10
96.992851
 20
285.001985
 11
98.192848
 21
285.001986
  0
ARC
  5
26C
100
AcDbEntity
  8
M0
 62
    34
100
AcDbCircle
 10
98.192848
 20
284.001986
 40
1.0
100
AcDbArc
 50
3.597218E-005
 51
89.999162
  0
LINE
  5
26D
100
AcDbEntity
  8
M0
 62
    34
100
AcDbLine
 10
96.992841
 20
300.60197
 11
98.192838
 21
300.601971
  0
LINE
  5
26E
100
AcDbEntity
  8
M0
 62
    34
100
AcDbLine
 10
99.192837
 20
301.601972
 11
99.192836
 21
303.301972
  0
ARC
  5
26F
100
AcDbEntity
  8
M0
 62
    34
100
AcDbCircle
 10
98.192837
 20
301.601971
 40
1.0
100
AcDbArc
 50
270.0
 51
360.000036
  0
CIRCLE
  5
270
100
AcDbEntity
  8
M0
 62
    34
100
AcDbCircle
 10
106.492845
 20
289.801976
 40
4.25
  0
LINE
  5
271
100
AcDbEntity
  8
M0
 62
    34
100
AcDbLine
 10
157.300074
 20
279.905693
 11
157.300074
 21
281.105692
  0
LINE
  5
272
100
AcDbEntity
  8
M0
 62
    34
100
AcDbLine
 10
157.300074
 20
302.105682
 11
157.300074
 21
303.305679
  0
LINE
  5
273
100
AcDbEntity
  8
M0
 62
    34
100
AcDbLine
 10
172.800061
 20
279.905693
 11
157.300074
 21
279.905693
  0
LINE
  5
274
100
AcDbEntity
  8
M0
 62
    34
100
AcDbLine
 10
172.800061
 20
303.305679
 11
157.300074
 21
303.305679
  0
LINE
  5
275
100
AcDbEntity
  8
M0
 62
    34
100
AcDbLine
 10
172.800061
 20
281.105692
 11
169.000061
 21
281.105692
  0
LINE
  5
276
100
AcDbEntity
  8
M0
 62
    34
100
AcDbLine
 10
172.800061
 20
281.105692
 11
172.800061
 21
279.905693
  0
LINE
  5
277
100
AcDbEntity
  8
M0
 62
    34
100
AcDbLine
 10
160.300061
 20
281.805692
 11
164.450062
 21
281.805692
  0
LINE
  5
278
100
AcDbEntity
  8
M0
 62
    34
100
AcDbLine
 10
160.300061
 20
301.405685
 11
164.450062
 21
301.405685
  0
LINE
  5
279
100
AcDbEntity
  8
M0
 62
    34
100
AcDbLine
 10
160.300061
 20
301.405685
 11
160.300061
 21
281.805692
  0
LINE
  5
27A
100
AcDbEntity
  8
M0
 62
    34
100
AcDbLine
 10
169.000061
 20
304.105682
 11
169.000061
 21
279.905693
  0
LINE
  5
27B
100
AcDbEntity
  8
M0
 62
    34
100
AcDbLine
 10
172.800061
 20
303.305679
 11
172.800061
 21
302.105682
  0
LINE
  5
27C
100
AcDbEntity
  8
M0
 62
    34
100
AcDbLine
 10
160.000061
 20
303.305679
 11
160.000061
 21
304.605682
  0
LINE
  5
27D
100
AcDbEntity
  8
M0
 62
    34
100
AcDbLine
 10
160.000061
 20
304.605682
 11
168.500061
 21
304.605682
  0
LINE
  5
27E
100
AcDbEntity
  8
M0
 62
    34
100
AcDbLine
 10
172.800061
 20
302.105682
 11
169.000061
 21
302.105682
  0
LINE
  5
27F
100
AcDbEntity
  8
M0
 62
    34
100
AcDbLine
 10
164.450062
 20
281.105692
 11
157.300074
 21
281.105692
  0
LINE
  5
280
100
AcDbEntity
  8
M0
 62
    34
100
AcDbLine
 10
164.450062
 20
302.105682
 11
157.300074
 21
302.105682
  0
ARC
  5
281
100
AcDbEntity
  8
M0
 62
    34
100
AcDbCircle
 10
164.450062
 20
301.755691
 40
0.35
100
AcDbArc
 50
270.0
 51
360.0
  0
ARC
  5
282
100
AcDbEntity
  8
M0
 62
    34
100
AcDbCircle
 10
164.450062
 20
301.755691
 40
0.35
100
AcDbArc
 50
0.0
 51
90.0
  0
ARC
  5
283
100
AcDbEntity
  8
M0
 62
    34
100
AcDbCircle
 10
164.450062
 20
281.455693
 40
0.35
100
AcDbArc
 50
270.0
 51
360.0
  0
ARC
  5
284
100
AcDbEntity
  8
M0
 62
    34
100
AcDbCircle
 10
164.450062
 20
281.455693
 40
0.35
100
AcDbArc
 50
0.0
 51
90.0
  0
ARC
  5
285
100
AcDbEntity
  8
M0
 62
    34
100
AcDbCircle
 10
168.500061
 20
304.105682
 40
0.5
100
AcDbArc
 50
0.0
 51
90.0
  0
LINE
  5
286
100
AcDbEntity
  8
M0
100
AcDbLine
 10
103.626445
 20
299.451934
 11
103.626445
 21
302.451934
  0
LINE
  5
287
100
AcDbEntity
  8
M0
100
AcDbLine
 10
103.626445
 20
302.451934
 11
101.626445
 21
302.451934
  0
LINE
  5
288
100
AcDbEntity
  8
M0
100
AcDbLine
 10
101.626445
 20
302.451934
 11
101.626445
 21
299.451934
  0
LINE
  5
289
100
AcDbEntity
  8
M0
100
AcDbLine
 10
101.626445
 20
299.451934
 11
103.626445
 21
299.451934
  0
LINE
  5
28A
100
AcDbEntity
  8
M0
  6
DASHED
100
AcDbLine
 10
167.999888
 20
283.301788
 11
167.999888
 21
296.301788
  0
LINE
  5
28B
100
AcDbEntity
  8
M0
  6
DASHED
100
AcDbLine
 10
167.999888
 20
296.301788
 11
161.499888
 21
296.301788
  0
LINE
  5
28C
100
AcDbEntity
  8
M0
  6
DASHED
100
AcDbLine
 10
161.499888
 20
296.301788
 11
161.499888
 21
283.301788
  0
LINE
  5
28D
100
AcDbEntity
  8
M0
  6
DASHED
100
AcDbLine
 10
161.499888
 20
283.301788
 11
167.999888
 21
283.301788
  0
LINE
  5
28E
100
AcDbEntity
  8
M1
 62
     2
100
AcDbLine
 10
12.5
 20
12.5
 11
12.5
 21
356.249995
  0
LINE
  5
28F
100
AcDbEntity
  8
M1
 62
     2
100
AcDbLine
 10
12.5
 20
356.249995
 11
249.999996
 21
356.249995
  0
LINE
  5
290
100
AcDbEntity
  8
M1
 62
     2
100
AcDbLine
 10
249.999996
 20
356.249995
 11
249.999996
 21
12.5
  0
LINE
  5
291
100
AcDbEntity
  8
M1
 62
     2
100
AcDbLine
 10
249.999996
 20
12.5
 11
12.5
 21
12.5
  0
LINE
  5
292
100
AcDbEntity
  8
M1
 62
     2
100
AcDbLine
 10
249.999996
 20
25.0
 11
124.999998
 21
25.0
  0
LINE
  5
293
100
AcDbEntity
  8
M1
 62
     2
100
AcDbLine
 10
249.999996
 20
37.499999
 11
124.999998
 21
37.499999
  0
LINE
  5
294
100
AcDbEntity
  8
M1
 62
     2
100
AcDbLine
 10
249.999996
 20
49.999999
 11
124.999998
 21
49.999999
  0
LINE
  5
295
100
AcDbEntity
  8
M1
 62
     2
100
AcDbLine
 10
124.999998
 20
12.5
 11
124.999998
 21
49.999999
  0
TEXT
  5
296
100
AcDbEntity
  8
M1
 62
     2
100
AcDbText
 10
128.124998
 20
15.625
 40
6.25
  1
適　用；
  7
STANDARD
100
AcDbText
  0
TEXT
  5
297
100
AcDbEntity
  8
M1
 62
     2
100
AcDbText
 10
128.124998
 20
40.624999
 40
6.25
  1
登録名：
  7
STANDARD
100
AcDbText
  0
TEXT
  5
298
100
AcDbEntity
  8
M1
 62
     2
100
AcDbText
 10
158.124998
 20
40.624999
 40
6.25
  1
ＤＭＴＲ５０Ｂ１ＥＲ００
 41
0.5
  7
STANDARD
100
AcDbText
  0
TEXT
  5
299
100
AcDbEntity
  8
M1
 62
     2
100
AcDbText
 10
128.124998
 20
28.125
 40
6.25
  1
形　式；
  7
STANDARD
100
AcDbText
  0
TEXT
  5
29A
100
AcDbEntity
  8
M1
 62
     2
100
AcDbText
 10
158.124998
 20
28.125
 40
6.25
  1
ＴＲ５０Ｂ－１Ｅ，ＴＲ５０Ｂ－１ＥＦ，ＴＲ５０Ｂ－２Ｅ，ＴＲ５０Ｂ－２ＥＦ
 41
0.25
  7
STANDARD
100
AcDbText
  0
LINE
  5
29B
100
AcDbEntity
  8
DN0
100
AcDbLine
 10
66.208315
 20
132.499298
 11
89.03332
 21
132.499298
  0
TEXT
  5
29C
100
AcDbEntity
  8
DN0
100
AcDbText
 10
66.839565
 20
133.061798
 40
5.625
  1
せん孔図
 41
0.833333
  7
STANDARD
100
AcDbText
  0
ENDSEC
  0
SECTION
  2
OBJECTS
  0
DICTIONARY
  5
C
100
AcDbDictionary
  3
ACAD_GROUP
350
D
  3
ACAD_MLINESTYLE
350
E
  0
DICTIONARY
  5
D
102
{ACAD_REACTORS
330
C
102
}
100
AcDbDictionary
  0
DICTIONARY
  5
E
102
{ACAD_REACTORS
330
C
102
}
100
AcDbDictionary
  3
STANDARD
350
13
  0
MLINESTYLE
  5
13
102
{ACAD_REACTORS
330
E
102
}
100
AcDbMlineStyle
  2
STANDARD
 70
     0
  3

 62
     0
 51
90.0
 52
90.0
 71
     2
 49
0.5
 62
   256
  6
BYLAYER
 49
-0.5
 62
   256
  6
BYLAYER
  0
ENDSEC
  0
EOF
