  0
SECTION
  2
HEADER
  9
$ACADVER
  1
AC1014
  9
$INSBASE
 10
0.000000
 20
0.000000
 30
0.0
  9
$VIEWCTR
 10
7.531722
 20
4.5
  9
$VIEWSIZE
 40
9.0
  9
$SNAPMODE
 70
     0
  9
$SNAPUNIT
 10
1.0
 20
1.0
  9
$SNAPBASE
 10
0.0
 20
0.0
  9
$SNAPANG
 50
0.0
  9
$SNAPSTYLE
 70
     0
  9
$SNAPISOPAIR
 70
     0
  9
$GRIDMODE
 70
     0
  9
$GRIDUNIT
 10
0.0
 20
0.0
  9
$ORTHOMODE
 70
     0
  9
$REGENMODE
 70
     1
  9
$FILLMODE
 70
     1
  9
$QTEXTMODE
 70
     0
  9
$DRAGMODE
 70
     2
  9
$LTSCALE
  40
     1.000000
  9
$OSMODE
 70
     0
  9
$ATTMODE
 70
     1
  9
$TEXTSIZE
 40
0.2
  9
$TRACEWID
 40
0.05
  9
$TEXTSTYLE
  7
STANDARD
  9
$CELTYPE
  6
BYLAYER
  9
$CECOLOR
 62
   256
  9
$DIMSCALE
 40
1.0
  9
$DIMASZ
 40
0.18
  9
$DIMEXO
 40
0.0625
  9
$DIMDLI
 40
0.38
  9
$DIMRND
 40
0.0
  9
$DIMDLE
 40
0.0
  9
$DIMEXE
 40
0.18
  9
$DIMTP
 40
0.0
  9
$DIMTM
 40
0.0
  9
$DIMTXT
 40
0.18
  9
$DIMCEN
 40
0.09
  9
$DIMTSZ
 40
0.0
  9
$DIMTOL
 70
     0
  9
$DIMLIM
 70
     0
  9
$DIMTIH
 70
     1
  9
$DIMTOH
 70
     1
  9
$DIMSE1
 70
     0
  9
$DIMSE2
 70
     0
  9
$DIMTAD
 70
     0
  9
$DIMZIN
 70
     0
  9
$DIMBLK
  1

  9
$LUNITS
 70
     2
  9
$LUPREC
 70
     4
  9
$AXISMODE
 70
     0
  9
$AXISUNIT
 10
0.0
 20
0.0
  9
$SKETCHINC
 40
0.1
  9
$FILLETRAD
 40
0.0
  9
$AUNITS
 70
     0
  9
$AUPREC
 70
     0
  9
$MENU
  1
ACAD
  9
$ELEVATION
 40
0.0
  9
$THICKNESS
 40
0.0
  9
$VIEWDIR
 10
0.0
 20
0.0
 30
1.0
  9
$LIMCHECK
 70
     0
  9
$BLIPMODE
 70
     1
  9
$CHAMFERA
 40
0.0
  9
$CHAMFERB
 40
0.0
  9
$FASTZOOM
 70
     1
  9
$SKPOLY
 70
     0
  9
$TDCREATE
 40
0000000.0000000000
  9
$TDUPDATE
 40
0000000.0000000000
  9
$TDINDWG
 40
0.0000000000
  9
$TDUSRTIMER
 40
0.0000000000
  9
$USRTIMER
 70
     1
  9
$ANGBASE
 50
0.0
  9
$ANGDIR
 70
     0
  9
$PDMODE
 70
     0
  9
$PDSIZE
 40
0.0
  9
$PLINEWID
 40
0.0
  9
$COORDS
 70
     0
  9
$USERI1
 70
     0
  9
$USERI2
 70
     0
  9
$USERI3
 70
     0
  9
$USERI4
 70
     0
  9
$USERI5
 70
     0
  9
$USERR1
 40
0.0
  9
$USERR2
 40
0.0
  9
$USERR3
 40
0.0
  9
$USERR4
 40
0.0
  9
$USERR5
 40
0.0
  9
$CLAYER
  8
M0
  9
$EXTMIN
 10
28.571429
 20
28.571429
  9
$EXTMAX
 10
571.428581
 20
814.285728
  9
$LIMMIN
 10
0.0
 20
0.0
  9
$LIMMAX
 10
210.0
 20
297.0
  9
$HANDSEED
  5
526
  0
ENDSEC
  0
SECTION
  2
CLASSES
  0
ENDSEC
  0
SECTION
  2
TABLES
  0
TABLE
  2
VPORT
  5
8
100
AcDbSymbolTable
 70
     2
  0
VPORT
  5
14
100
AcDbSymbolTableRecord
100
AcDbViewportTableRecord
  2
*ACTIVE
 70
     0
 10
0.0
 20
0.0
 11
1.0
 21
1.0
 12
484.0
 22
297.0
 13
0.0
 23
0.0
 14
1.0
 24
1.0
 15
0.0
 25
0.0
 16
0.0
 26
0.0
 36
1.0
 17
0.0
 27
0.0
 37
0.0
 40
594.0
 41
2.0
 42
50.0
 43
0.0
 44
0.0
 50
0.0
 51
0.0
 71
     0
 72
   100
 73
     1
 74
     1
 75
     0
 76
     0
 77
     0
 78
     0
  0
ENDTAB
  0
TABLE
  2
LTYPE
  5
5
100
AcDbSymbolTable
 70
     5
  0
LTYPE
  5
15
100
AcDbSymbolTableRecord
100
AcDbLinetypeTableRecord
  2
BYBLOCK
 70
     0
  3

 72
    65
 73
     0
 40
0.0
  0
LTYPE
  5
16
100
AcDbSymbolTableRecord
100
AcDbLinetypeTableRecord
  2
BYLAYER
 70
     0
  3

 72
    65
 73
     0
 40
0.0
  0
LTYPE
  5
17
100
AcDbSymbolTableRecord
100
AcDbLinetypeTableRecord
  2
CONTINUOUS
 70
    64
  3
Solid line
 72
    65
 73
     0
 40
0.0
  0
LTYPE
  5
18
100
AcDbSymbolTableRecord
100
AcDbLinetypeTableRecord
  2
DASHED
 70
    64
  3
__ __ __ __ __ __ __ __ __ __ __ __ __ __ __ __
 72
    65
 73
     2
 40
0.75
 49
0.5
 74
     0
 49
-0.25
 74
     0
  0
LTYPE
  5
19
100
AcDbSymbolTableRecord
100
AcDbLinetypeTableRecord
  2
DASHDOT
 70
    64
  3
__ . __ . __ . __ . __ . __ . __ . __ . __ . __
 72
    65
 73
     4
 40
1.0
 49
0.5
 74
     0
 49
-0.25
 74
     0
 49
0.0
 74
     0
 49
-0.25
 74
     0
  0
LTYPE
  5
1A
100
AcDbSymbolTableRecord
100
AcDbLinetypeTableRecord
  2
DIVIDE
 70
    64
  3
____ . . ____ . . ____ . . ____ . . ____ . . __
 72
    65
 73
     6
 40
1.25
 49
0.5
 74
     0
 49
-0.25
 74
     0
 49
0.0
 74
     0
 49
-0.25
 74
     0
 49
0.0
 74
     0
 49
-0.25
 74
     0
  0
LTYPE
  5
1B
100
AcDbSymbolTableRecord
100
AcDbLinetypeTableRecord
  2
DOT
 70
    64
  3
. . . . . . . . . . . . . . . . . . . . . . . .
 72
    65
 73
     2
 40
0.25
 49
0.0
 74
     0
 49
-0.25
 74
     0
  0
ENDTAB
  0
TABLE
  2
LAYER
  5
2
100
AcDbSymbolTable
 70
   102
  0
LAYER
  5
F
100
AcDbSymbolTableRecord
100
AcDbLayerTableRecord
  2
0
 70
     0
 62
     7
  6
CONTINUOUS
  0
LAYER
  5
1C
100
AcDbSymbolTableRecord
100
AcDbLayerTableRecord
  2
DEFPOINTS
 70
     0
 62
     7
  6
CONTINUOUS
  0
LAYER
  5
1D
100
AcDbSymbolTableRecord
100
AcDbLayerTableRecord
  2
M0
 70
     0
 62
     3
  6
CONTINUOUS
  0
LAYER
  5
1E
100
AcDbSymbolTableRecord
100
AcDbLayerTableRecord
  2
M1
 70
     0
 62
     3
  6
CONTINUOUS
  0
LAYER
  5
1F
100
AcDbSymbolTableRecord
100
AcDbLayerTableRecord
  2
DD0
 70
     0
 62
     4
  6
CONTINUOUS
  0
LAYER
  5
20
100
AcDbSymbolTableRecord
100
AcDbLayerTableRecord
  2
DN0
 70
     0
 62
     2
  6
CONTINUOUS
  0
ENDTAB
  0
TABLE
  2
STYLE
  5
3
100
AcDbSymbolTable
 70
     2
  0
STYLE
  5
10
100
AcDbSymbolTableRecord
100
AcDbTextStyleTableRecord
  2
STANDARD
 70
     0
 40
0.0
 41
1.0
 50
0.0
 71
     0
 42
0.2
  3
txt
  4
BIGFONT
  0
ENDTAB
  0
TABLE
  2
VIEW
  5
6
100
AcDbSymbolTable
 70
     0
  0
ENDTAB
  0
TABLE
  2
UCS
  5
7
100
AcDbSymbolTable
 70
     0
  0
ENDTAB
  0
TABLE
  2
APPID
  5
9
100
AcDbSymbolTable
 70
     1
  0
APPID
  5
11
100
AcDbSymbolTableRecord
100
AcDbRegAppTableRecord
  2
ACAD
 70
     0
  0
ENDTAB
  0
TABLE
  2
DIMSTYLE
  5
A
100
AcDbSymbolTable
 70
     2
  0
DIMSTYLE
105
27
100
AcDbSymbolTableRecord
100
AcDbDimStyleTableRecord
  2
STANDARD
 70
     0
  3

  4

  5

  6
_OPEN
  7
_OPEN
 40
1.0
 41
8.571429
 42
1.0
 43
8.0
 44
1.0
 45
0.0
 46
0.0
 47
0.0
 48
0.0
140
9.0
141
0.09
142
0.0
143
0.03937
144
1.0
145
0.0
146
1.0
147
0.6
 71
     0
 72
     0
 73
     1
 74
     1
 75
     0
 76
     0
 77
     3
 78
     8
170
     0
171
     2
172
     0
173
     1
174
     0
175
     0
176
     0
177
     0
178
     0
270
     2
271
     2
272
     4
273
     2
274
     2
340
10
275
     0
280
     0
281
     0
282
     0
283
     1
284
     0
285
     0
286
     0
287
     3
288
     0
  0
DIMSTYLE
105
28
100
AcDbSymbolTableRecord
100
AcDbDimStyleTableRecord
  2
LEADSTYL
 70
     0
  3

  4

  5

  6
_OPEN
  7
_OPEN
 40
1.0
 41
8.571429
 42
0.0625
 43
0.38
 44
0.18
 45
0.0
 46
0.0
 47
0.0
 48
0.0
140
9.0
141
0.09
142
0.0
143
25.4
144
1.0
145
0.0
146
1.0
147
0.6
 71
     0
 72
     0
 73
     1
 74
     1
 75
     0
 76
     0
 77
     0
 78
     0
170
     0
171
     2
172
     0
173
     1
174
     0
175
     0
176
     0
177
     0
178
     0
270
     2
271
     4
272
     4
273
     2
274
     2
340
10
275
     0
280
     0
281
     0
282
     0
283
     1
284
     0
285
     0
286
     0
287
     3
288
     0
  0
ENDTAB
  0
TABLE
  2
BLOCK_RECORD
  5
1
100
AcDbSymbolTable
 70
    10
  0
BLOCK_RECORD
  5
21
100
AcDbSymbolTableRecord
100
AcDbBlockTableRecord
  2
*MODEL_SPACE
  0
BLOCK_RECORD
  5
24
100
AcDbSymbolTableRecord
100
AcDbBlockTableRecord
  2
*PAPER_SPACE
  0
BLOCK_RECORD
  5
29
100
AcDbSymbolTableRecord
100
AcDbBlockTableRecord
  2
_NONE
  0
BLOCK_RECORD
  5
2D
100
AcDbSymbolTableRecord
100
AcDbBlockTableRecord
  2
_OPEN
  0
BLOCK_RECORD
  5
33
100
AcDbSymbolTableRecord
100
AcDbBlockTableRecord
  2
_CLOSED
  0
BLOCK_RECORD
  5
3A
100
AcDbSymbolTableRecord
100
AcDbBlockTableRecord
  2
_ORIGIN
  0
BLOCK_RECORD
  5
3F
100
AcDbSymbolTableRecord
100
AcDbBlockTableRecord
  2
_DOT
  0
BLOCK_RECORD
  5
47
100
AcDbSymbolTableRecord
100
AcDbBlockTableRecord
  2
_OBLIQUE
  0
BLOCK_RECORD
  5
4B
100
AcDbSymbolTableRecord
100
AcDbBlockTableRecord
  2
DIMS0
  0
BLOCK_RECORD
  5
57
100
AcDbSymbolTableRecord
100
AcDbBlockTableRecord
  2
DIMS1
  0
BLOCK_RECORD
  5
63
100
AcDbSymbolTableRecord
100
AcDbBlockTableRecord
  2
DIMS2
  0
BLOCK_RECORD
  5
6F
100
AcDbSymbolTableRecord
100
AcDbBlockTableRecord
  2
DIMS3
  0
ENDTAB
  0
ENDSEC
  0
SECTION
  2
BLOCKS
  0
BLOCK
  5
22
100
AcDbEntity
  8
0
100
AcDbBlockBegin
  2
*MODEL_SPACE
 70
     0
 10
0.0
 20
0.0
 30
0.0
  3
*MODEL_SPACE
  1

  0
ENDBLK
  5
23
100
AcDbEntity
  8
0
100
AcDbBlockEnd
  0
BLOCK
  5
25
100
AcDbEntity
 67
     1
  8
0
100
AcDbBlockBegin
  2
*PAPER_SPACE
 70
     0
 10
0.0
 20
0.0
 30
0.0
  3
*PAPER_SPACE
  1

  0
ENDBLK
  5
26
100
AcDbEntity
 67
     1
  8
0
100
AcDbBlockEnd
  0
BLOCK
  5
2A
100
AcDbEntity
  8
0
100
AcDbBlockBegin
  2
_NONE
 70
     0
 10
0.0
 20
0.0
  0
CIRCLE
  5
2B
100
AcDbEntity
  8
0
 62
     0
100
AcDbCircle
 10
0.0
 20
0.0
 40
0.25
  0
ENDBLK
  5
2C
100
AcDbEntity
  8
0
100
AcDbBlockEnd
  0
BLOCK
  5
2E
100
AcDbEntity
  8
0
100
AcDbBlockBegin
  2
_OPEN
 70
     0
 10
0.0
 20
0.0
  0
LINE
  5
2F
100
AcDbEntity
  8
0
 62
     0
100
AcDbLine
 10
-0.965926
 20
0.258819
 11
0.0
 21
0.0
  0
LINE
  5
30
100
AcDbEntity
  8
0
 62
     0
100
AcDbLine
 10
0.0
 20
0.0
 11
-0.965926
 21
-0.258819
  0
LINE
  5
31
100
AcDbEntity
  8
0
 62
     0
100
AcDbLine
 10
0.0
 20
0.0
 11
-1.0
 21
0.0
  0
ENDBLK
  5
32
100
AcDbEntity
  8
0
100
AcDbBlockEnd
  0
BLOCK
  5
34
100
AcDbEntity
  8
0
100
AcDbBlockBegin
  2
_CLOSED
 70
     0
 10
0.0
 20
0.0
  0
LINE
  5
35
100
AcDbEntity
  8
0
 62
     0
100
AcDbLine
 10
-0.965926
 20
0.258819
 11
0.0
 21
0.0
  0
LINE
  5
36
100
AcDbEntity
  8
0
 62
     0
100
AcDbLine
 10
0.0
 20
0.0
 11
-0.965926
 21
-0.258819
  0
LINE
  5
37
100
AcDbEntity
  8
0
 62
     0
100
AcDbLine
 10
-0.965926
 20
0.258819
 11
-0.965926
 21
-0.258819
  0
LINE
  5
38
100
AcDbEntity
  8
0
 62
     0
100
AcDbLine
 10
0.0
 20
0.0
 11
-1.0
 21
0.0
  0
ENDBLK
  5
39
100
AcDbEntity
  8
0
100
AcDbBlockEnd
  0
BLOCK
  5
3B
100
AcDbEntity
  8
0
100
AcDbBlockBegin
  2
_ORIGIN
 70
     0
 10
0.0
 20
0.0
  0
CIRCLE
  5
3C
100
AcDbEntity
  8
0
 62
     0
100
AcDbCircle
 10
0.0
 20
0.0
 40
0.5
  0
LINE
  5
3D
100
AcDbEntity
  8
0
 62
     0
100
AcDbLine
 10
0.0
 20
0.0
 11
-1.0
 21
0.0
  0
ENDBLK
  5
3E
100
AcDbEntity
  8
0
100
AcDbBlockEnd
  0
BLOCK
  5
40
100
AcDbEntity
  8
0
100
AcDbBlockBegin
  2
_DOT
 70
     0
 10
0.0
 20
0.0
  0
POLYLINE
  5
41
100
AcDbEntity
  8
0
 62
     0
100
AcDb2dPolyline
 66
     1
 70
     1
 40
0.5
 41
0.5
  0
VERTEX
  5
42
100
AcDbEntity
  8
0
 62
     0
100
AcDbVertex
100
AcDb2dVertex
 10
-0.25
 20
0.0
 42
1.0
  0
VERTEX
  5
43
100
AcDbEntity
  8
0
 62
     0
100
AcDbVertex
100
AcDb2dVertex
 10
0.25
 20
0.0
 42
1.0
  0
SEQEND
  5
44
100
AcDbEntity
  8
0
 62
     0
  0
LINE
  5
45
100
AcDbEntity
  8
0
 62
     0
100
AcDbLine
 10
-0.5
 20
0.0
 11
-1.0
 21
0.0
  0
ENDBLK
  5
46
100
AcDbEntity
  8
0
100
AcDbBlockEnd
  0
BLOCK
  5
48
100
AcDbEntity
  8
0
100
AcDbBlockBegin
  2
_OBLIQUE
 70
     0
 10
0.0
 20
0.0
  0
LINE
  5
49
100
AcDbEntity
  8
0
 62
     0
100
AcDbLine
 10
-0.353553
 20
-0.353553
 11
0.353553
 21
0.353553
  0
ENDBLK
  5
4A
100
AcDbEntity
  8
0
100
AcDbBlockEnd
  0
BLOCK
  5
4C
100
AcDbEntity
  8
DD0
100
AcDbBlockBegin
  2
DIMS0
 70
     0
 10
0.0
 20
0.0
  0
LINE
  5
4D
100
AcDbEntity
  8
DD0
100
AcDbLine
 10
524.933873
 20
703.308423
 11
524.933873
 21
726.165697
  0
LINE
  5
4E
100
AcDbEntity
  8
DD0
100
AcDbLine
 10
527.233896
 20
703.308423
 11
527.233896
 21
726.165697
  0
LINE
  5
4F
100
AcDbEntity
  8
DD0
100
AcDbLine
 10
516.654509
 20
721.090105
 11
524.933873
 21
723.308554
  0
LINE
  5
50
100
AcDbEntity
  8
DD0
100
AcDbLine
 10
524.933873
 20
723.308554
 11
516.654509
 21
725.527003
  0
LINE
  5
51
100
AcDbEntity
  8
DD0
100
AcDbLine
 10
535.51326
 20
725.527003
 11
527.233896
 21
723.308554
  0
LINE
  5
52
100
AcDbEntity
  8
DD0
100
AcDbLine
 10
527.233896
 20
723.308554
 11
535.51326
 21
721.090105
  0
LINE
  5
53
100
AcDbEntity
  8
DD0
100
AcDbLine
 10
476.648159
 20
723.308554
 11
536.662467
 21
723.308554
  0
TEXT
  5
54
100
AcDbEntity
  8
DD0
100
AcDbText
 10
478.955287
 20
725.022857
 40
9.0
  1
ｔ２．３
 41
0.833333
  7
STANDARD
100
AcDbText
  0
ENDBLK
  5
55
100
AcDbEntity
  8
DD0
100
AcDbBlockEnd
  0
BLOCK
  5
58
100
AcDbEntity
  8
DD0
100
AcDbBlockBegin
  2
DIMS1
 70
     0
 10
0.0
 20
0.0
  0
LINE
  5
59
100
AcDbEntity
  8
DD0
100
AcDbLine
 10
534.633885
 20
537.594178
 11
534.633885
 21
477.33639
  0
LINE
  5
5A
100
AcDbEntity
  8
DD0
100
AcDbLine
 10
362.133882
 20
586.094152
 11
362.133882
 21
477.33639
  0
LINE
  5
5B
100
AcDbEntity
  8
DD0
100
AcDbLine
 10
526.354521
 20
477.975084
 11
534.633885
 21
480.193533
  0
LINE
  5
5C
100
AcDbEntity
  8
DD0
100
AcDbLine
 10
534.633885
 20
480.193533
 11
526.354521
 21
482.411982
  0
LINE
  5
5D
100
AcDbEntity
  8
DD0
100
AcDbLine
 10
370.413247
 20
482.411982
 11
362.133882
 21
480.193533
  0
LINE
  5
5E
100
AcDbEntity
  8
DD0
100
AcDbLine
 10
362.133882
 20
480.193533
 11
370.413247
 21
477.975084
  0
LINE
  5
5F
100
AcDbEntity
  8
DD0
100
AcDbLine
 10
534.633885
 20
480.193533
 11
362.133882
 21
480.193533
  0
TEXT
  5
60
100
AcDbEntity
  8
DD0
100
AcDbText
 10
426.619601
 20
481.907836
 40
9.0
  1
１７２．５
 41
0.833333
  7
STANDARD
100
AcDbText
  0
ENDBLK
  5
61
100
AcDbEntity
  8
DD0
100
AcDbBlockEnd
  0
BLOCK
  5
64
100
AcDbEntity
  8
DD0
100
AcDbBlockBegin
  2
DIMS2
 70
     0
 10
0.0
 20
0.0
  0
LINE
  5
65
100
AcDbEntity
  8
DD0
100
AcDbLine
 10
250.671195
 20
700.45128
 11
339.001994
 21
700.45128
  0
LINE
  5
66
100
AcDbEntity
  8
DD0
100
AcDbLine
 10
280.671195
 20
521.451294
 11
339.001994
 21
521.451294
  0
LINE
  5
67
100
AcDbEntity
  8
DD0
100
AcDbLine
 10
338.3633
 20
692.171915
 11
336.144851
 21
700.45128
  0
LINE
  5
68
100
AcDbEntity
  8
DD0
100
AcDbLine
 10
336.144851
 20
700.45128
 11
333.926402
 21
692.171915
  0
LINE
  5
69
100
AcDbEntity
  8
DD0
100
AcDbLine
 10
333.926402
 20
529.730658
 11
336.144851
 21
521.451294
  0
LINE
  5
6A
100
AcDbEntity
  8
DD0
100
AcDbLine
 10
336.144851
 20
521.451294
 11
338.3633
 21
529.730658
  0
LINE
  5
6B
100
AcDbEntity
  8
DD0
100
AcDbLine
 10
336.144851
 20
700.45128
 11
336.144851
 21
521.451294
  0
TEXT
  5
6C
100
AcDbEntity
  8
DD0
100
AcDbText
 10
334.430569
 20
598.186987
 40
9.0
  1
１７９
 50
90.000003
 41
0.833333
  7
STANDARD
100
AcDbText
  0
ENDBLK
  5
6D
100
AcDbEntity
  8
DD0
100
AcDbBlockEnd
  0
BLOCK
  5
70
100
AcDbEntity
  8
DD0
100
AcDbBlockBegin
  2
DIMS3
 70
     0
 10
0.0
 20
0.0
  0
LINE
  5
71
100
AcDbEntity
  8
DD0
100
AcDbLine
 10
72.814054
 20
542.594178
 11
72.814054
 21
477.33639
  0
LINE
  5
72
100
AcDbEntity
  8
DD0
100
AcDbLine
 10
302.814053
 20
542.594178
 11
302.814053
 21
477.33639
  0
LINE
  5
73
100
AcDbEntity
  8
DD0
100
AcDbLine
 10
81.093419
 20
482.411982
 11
72.814054
 21
480.193533
  0
LINE
  5
74
100
AcDbEntity
  8
DD0
100
AcDbLine
 10
72.814054
 20
480.193533
 11
81.093419
 21
477.975084
  0
LINE
  5
75
100
AcDbEntity
  8
DD0
100
AcDbLine
 10
294.534688
 20
477.975084
 11
302.814053
 21
480.193533
  0
LINE
  5
76
100
AcDbEntity
  8
DD0
100
AcDbLine
 10
302.814053
 20
480.193533
 11
294.534688
 21
482.411982
  0
LINE
  5
77
100
AcDbEntity
  8
DD0
100
AcDbLine
 10
72.814054
 20
480.193533
 11
302.814053
 21
480.193533
  0
TEXT
  5
78
100
AcDbEntity
  8
DD0
100
AcDbText
 10
175.049773
 20
481.907836
 40
9.0
  1
２３０
 41
0.833333
  7
STANDARD
100
AcDbText
  0
ENDBLK
  5
79
100
AcDbEntity
  8
DD0
100
AcDbBlockEnd
  0
ENDSEC
  0
SECTION
  2
ENTITIES
  0
INSERT
  5
56
100
AcDbEntity
  8
DD0
100
AcDbBlockReference
  2
DIMS0
 10
0.0
 20
0.0
  0
INSERT
  5
62
100
AcDbEntity
  8
DD0
100
AcDbBlockReference
  2
DIMS1
 10
0.0
 20
0.0
  0
INSERT
  5
6E
100
AcDbEntity
  8
DD0
100
AcDbBlockReference
  2
DIMS2
 10
0.0
 20
0.0
  0
INSERT
  5
7A
100
AcDbEntity
  8
DD0
100
AcDbBlockReference
  2
DIMS3
 10
0.0
 20
0.0
  0
LINE
  5
7B
100
AcDbEntity
  8
M0
 62
   114
100
AcDbLine
 10
457.433926
 20
521.451301
 11
463.933926
 21
521.451301
  0
LINE
  5
7C
100
AcDbEntity
  8
M0
 62
   114
100
AcDbLine
 10
457.433926
 20
627.451301
 11
457.433926
 21
611.451285
  0
LINE
  5
7D
100
AcDbEntity
  8
M0
 62
   114
100
AcDbLine
 10
463.933926
 20
521.451301
 11
463.933926
 21
526.501304
  0
LINE
  5
7E
100
AcDbEntity
  8
M0
  6
DASHDOT
 62
   114
100
AcDbLine
 10
425.101498
 20
537.451301
 11
463.933926
 21
537.451301
  0
LINE
  5
7F
100
AcDbEntity
  8
M0
  6
DASHDOT
 62
   114
100
AcDbLine
 10
448.678876
 20
576.451301
 11
467.12782
 21
576.451301
  0
LINE
  5
80
100
AcDbEntity
  8
M0
 62
   114
100
AcDbLine
 10
463.933926
 20
620.721412
 11
463.933926
 21
627.451301
  0
LINE
  5
81
100
AcDbEntity
  8
M0
 62
   114
100
AcDbLine
 10
463.933926
 20
548.401298
 11
463.933926
 21
571.451301
  0
LINE
  5
82
100
AcDbEntity
  8
M0
 62
   114
100
AcDbLine
 10
457.433926
 20
531.451301
 11
457.433926
 21
521.451301
  0
LINE
  5
83
100
AcDbEntity
  8
M0
 62
   114
100
AcDbLine
 10
457.433926
 20
577.51348
 11
457.433926
 21
543.451301
  0
LINE
  5
84
100
AcDbEntity
  8
M0
 62
   114
100
AcDbLine
 10
463.933926
 20
611.451285
 11
463.933926
 21
612.181968
  0
LINE
  5
85
100
AcDbEntity
  8
M0
 62
   234
100
AcDbLine
 10
472.933926
 20
521.451301
 11
479.433926
 21
521.451301
  0
LINE
  5
86
100
AcDbEntity
  8
M0
 62
   234
100
AcDbLine
 10
472.933926
 20
627.451301
 11
472.933926
 21
611.451285
  0
LINE
  5
87
100
AcDbEntity
  8
M0
 62
   234
100
AcDbLine
 10
397.433926
 20
633.951301
 11
397.433926
 21
667.451301
  0
LINE
  5
88
100
AcDbEntity
  8
M0
 62
   234
100
AcDbLine
 10
397.433926
 20
667.451301
 11
390.933926
 21
667.451301
  0
LINE
  5
89
100
AcDbEntity
  8
M0
 62
   234
100
AcDbLine
 10
479.433926
 20
521.451301
 11
479.433926
 21
581.451301
  0
LINE
  5
8A
100
AcDbEntity
  8
M0
 62
   234
100
AcDbLine
 10
472.933926
 20
633.951301
 11
397.433926
 21
633.951301
  0
ARC
  5
8B
100
AcDbEntity
  8
M0
 62
   234
100
AcDbCircle
 10
472.933926
 20
627.451301
 40
6.5
100
AcDbArc
 50
0.0
 51
90.0
  0
LINE
  5
8C
100
AcDbEntity
  8
M0
 62
   234
100
AcDbLine
 10
390.933926
 20
667.451301
 11
390.933926
 21
633.951301
  0
LINE
  5
8D
100
AcDbEntity
  8
M0
 62
   234
100
AcDbLine
 10
397.433926
 20
627.451301
 11
472.933926
 21
627.451301
  0
ARC
  5
8E
100
AcDbEntity
  8
M0
 62
   234
100
AcDbCircle
 10
397.433926
 20
633.951301
 40
6.5
100
AcDbArc
 50
180.0
 51
270.0
  0
LINE
  5
8F
100
AcDbEntity
  8
M0
  6
DASHDOT
 62
   234
100
AcDbLine
 10
463.933926
 20
537.451301
 11
491.847821
 21
537.451301
  0
LINE
  5
90
100
AcDbEntity
  8
M0
  6
DASHDOT
 62
   234
100
AcDbLine
 10
459.808489
 20
616.451301
 11
483.710345
 21
616.451301
  0
LINE
  5
91
100
AcDbEntity
  8
M0
  6
DASHDOT
 62
   234
100
AcDbLine
 10
384.802197
 20
653.451301
 11
405.254697
 21
653.451301
  0
LINE
  5
92
100
AcDbEntity
  8
M0
 62
   234
100
AcDbLine
 10
472.933926
 20
581.451301
 11
472.933926
 21
521.451301
  0
LINE
  5
93
100
AcDbEntity
  8
M0
 62
   234
100
AcDbLine
 10
479.433926
 20
611.451285
 11
479.433926
 21
627.451301
  0
LINE
  5
94
100
AcDbEntity
  8
M0
 62
     7
100
AcDbLine
 10
532.333878
 20
540.451301
 11
534.633878
 21
540.451301
  0
LINE
  5
95
100
AcDbEntity
  8
M0
 62
     7
100
AcDbLine
 10
527.233878
 20
700.451301
 11
524.933878
 21
700.451301
  0
LINE
  5
96
100
AcDbEntity
  8
M0
 62
     7
100
AcDbLine
 10
532.333878
 20
563.451301
 11
532.333878
 21
540.451301
  0
ARC
  5
97
100
AcDbEntity
  8
M0
 62
     7
100
AcDbCircle
 10
530.333878
 20
563.451301
 40
2.0
100
AcDbArc
 50
0.0
 51
90.0
  0
LINE
  5
98
100
AcDbEntity
  8
M0
 62
     7
100
AcDbLine
 10
527.233878
 20
569.751288
 11
527.233878
 21
700.451301
  0
ARC
  5
99
100
AcDbEntity
  8
M0
 62
     7
100
AcDbCircle
 10
529.233878
 20
569.751288
 40
2.0
100
AcDbArc
 50
180.0
 51
270.0
  0
LINE
  5
9A
100
AcDbEntity
  8
M0
 62
     7
100
AcDbLine
 10
534.633878
 20
540.451301
 11
534.633878
 21
563.451301
  0
LINE
  5
9B
100
AcDbEntity
  8
M0
 62
     7
100
AcDbLine
 10
530.333878
 20
567.751288
 11
529.233878
 21
567.751288
  0
ARC
  5
9C
100
AcDbEntity
  8
M0
 62
     7
100
AcDbCircle
 10
530.333878
 20
563.451301
 40
4.299999
100
AcDbArc
 50
0.0
 51
90.0
  0
LINE
  5
9D
100
AcDbEntity
  8
M0
 62
     7
100
AcDbLine
 10
524.933878
 20
700.451301
 11
524.933878
 21
569.751288
  0
LINE
  5
9E
100
AcDbEntity
  8
M0
 62
     7
100
AcDbLine
 10
529.233878
 20
565.451301
 11
530.333878
 21
565.451301
  0
ARC
  5
9F
100
AcDbEntity
  8
M0
 62
     7
100
AcDbCircle
 10
529.233878
 20
569.751288
 40
4.299999
100
AcDbArc
 50
180.0
 51
270.0
  0
LINE
  5
A0
100
AcDbEntity
  8
M0
  6
DASHDOT
 62
     7
100
AcDbLine
 10
187.814053
 20
508.781852
 11
187.814053
 21
710.451301
  0
LINE
  5
A1
100
AcDbEntity
  8
M0
 62
     7
100
AcDbLine
 10
127.814053
 20
700.451301
 11
127.814053
 21
675.451301
  0
LINE
  5
A2
100
AcDbEntity
  8
M0
 62
     7
100
AcDbLine
 10
247.814053
 20
675.451301
 11
247.814053
 21
700.451301
  0
LINE
  5
A3
100
AcDbEntity
  8
M0
 62
     7
100
AcDbLine
 10
247.814053
 20
700.451301
 11
127.814053
 21
700.451301
  0
LINE
  5
A4
100
AcDbEntity
  8
M0
 62
     7
100
AcDbLine
 10
127.814053
 20
675.451301
 11
119.814053
 21
667.451301
  0
LINE
  5
A5
100
AcDbEntity
  8
M0
 62
     7
100
AcDbLine
 10
247.814053
 20
675.451301
 11
255.814053
 21
667.451301
  0
LINE
  5
A6
100
AcDbEntity
  8
M0
 62
     7
100
AcDbLine
 10
72.814053
 20
620.451301
 11
72.814053
 21
545.451301
  0
ARC
  5
A7
100
AcDbEntity
  8
M0
 62
     7
100
AcDbCircle
 10
77.814053
 20
545.451301
 40
5.0
100
AcDbArc
 50
179.999967
 51
270.0
  0
LINE
  5
A8
100
AcDbEntity
  8
M0
 62
     7
100
AcDbLine
 10
77.814053
 20
540.451301
 11
97.814053
 21
540.451301
  0
LINE
  5
A9
100
AcDbEntity
  8
M0
 62
     7
100
AcDbLine
 10
302.814053
 20
545.451301
 11
302.814053
 21
620.451301
  0
ARC
  5
AA
100
AcDbEntity
  8
M0
 62
     7
100
AcDbCircle
 10
297.814053
 20
545.451301
 40
5.0
100
AcDbArc
 50
269.999825
 51
360.0
  0
LINE
  5
AB
100
AcDbEntity
  8
M0
 62
     7
100
AcDbLine
 10
302.814053
 20
565.451301
 11
277.814053
 21
565.451301
  0
CIRCLE
  5
AC
100
AcDbEntity
  8
M0
 62
     7
100
AcDbCircle
 10
137.814053
 20
689.951285
 40
3.5
  0
LINE
  5
AD
100
AcDbEntity
  8
M0
  6
DASHDOT
 62
     7
100
AcDbLine
 10
124.314053
 20
689.951285
 11
151.314053
 21
689.951285
  0
LINE
  5
AE
100
AcDbEntity
  8
M0
  6
DASHDOT
 62
     7
100
AcDbLine
 10
137.814053
 20
676.451285
 11
137.814053
 21
703.451285
  0
CIRCLE
  5
AF
100
AcDbEntity
  8
M0
 62
     7
100
AcDbCircle
 10
237.814053
 20
689.951285
 40
3.5
  0
LINE
  5
B0
100
AcDbEntity
  8
M0
  6
DASHDOT
 62
     7
100
AcDbLine
 10
224.314053
 20
689.951285
 11
251.314053
 21
689.951285
  0
LINE
  5
B1
100
AcDbEntity
  8
M0
  6
DASHDOT
 62
     7
100
AcDbLine
 10
237.814053
 20
676.451285
 11
237.814053
 21
703.451285
  0
CIRCLE
  5
B2
100
AcDbEntity
  8
M0
 62
     7
100
AcDbCircle
 10
187.814053
 20
689.951285
 40
3.5
  0
LINE
  5
B3
100
AcDbEntity
  8
M0
  6
DASHDOT
 62
     7
100
AcDbLine
 10
174.314053
 20
689.951285
 11
201.314053
 21
689.951285
  0
ARC
  5
B4
100
AcDbEntity
  8
M0
 62
     7
100
AcDbCircle
 10
87.814053
 20
550.451301
 40
5.5
100
AcDbArc
 50
179.99997
 51
360.0
  0
LINE
  5
B5
100
AcDbEntity
  8
M0
  6
DASHDOT
 62
     7
100
AcDbLine
 10
79.255795
 20
550.451301
 11
96.635236
 21
550.451301
  0
LINE
  5
B6
100
AcDbEntity
  8
M0
 62
     7
100
AcDbLine
 10
93.314053
 20
551.451301
 11
93.314053
 21
550.451301
  0
ARC
  5
B7
100
AcDbEntity
  8
M0
 62
     7
100
AcDbCircle
 10
87.814053
 20
551.451301
 40
5.5
100
AcDbArc
 50
0.0
 51
179.99997
  0
LINE
  5
B8
100
AcDbEntity
  8
M0
  6
DASHDOT
 62
     7
100
AcDbLine
 10
87.814053
 20
542.268173
 11
87.814053
 21
559.376044
  0
ARC
  5
B9
100
AcDbEntity
  8
M0
 62
     7
100
AcDbCircle
 10
157.814053
 20
550.451301
 40
3.5
100
AcDbArc
 50
179.999969
 51
360.0
  0
LINE
  5
BA
100
AcDbEntity
  8
M0
  6
DASHDOT
 62
     7
100
AcDbLine
 10
149.316663
 20
550.451301
 11
165.066769
 21
550.451301
  0
LINE
  5
BB
100
AcDbEntity
  8
M0
 62
     7
100
AcDbLine
 10
154.314053
 20
552.451301
 11
154.314053
 21
550.451301
  0
LINE
  5
BC
100
AcDbEntity
  8
M0
 62
     7
100
AcDbLine
 10
161.314053
 20
550.451301
 11
161.314053
 21
552.451301
  0
ARC
  5
BD
100
AcDbEntity
  8
M0
 62
     7
100
AcDbCircle
 10
157.814053
 20
552.451301
 40
3.5
100
AcDbArc
 50
0.0
 51
179.999969
  0
LINE
  5
BE
100
AcDbEntity
  8
M0
  6
DASHDOT
 62
     7
100
AcDbLine
 10
157.814053
 20
542.268173
 11
157.814053
 21
559.376044
  0
ARC
  5
BF
100
AcDbEntity
  8
M0
 62
     7
100
AcDbCircle
 10
287.814038
 20
550.451301
 40
5.5
100
AcDbArc
 50
-180.00003
 51
0.0
  0
LINE
  5
C0
100
AcDbEntity
  8
M0
  6
DASHDOT
 62
     7
100
AcDbLine
 10
296.372311
 20
550.451301
 11
278.992871
 21
550.451301
  0
LINE
  5
C1
100
AcDbEntity
  8
M0
 62
     7
100
AcDbLine
 10
282.314038
 20
551.451301
 11
282.314038
 21
550.451301
  0
ARC
  5
C2
100
AcDbEntity
  8
M0
 62
     7
100
AcDbCircle
 10
287.814038
 20
551.451301
 40
5.5
100
AcDbArc
 50
0.0
 51
179.99997
  0
LINE
  5
C3
100
AcDbEntity
  8
M0
  6
DASHDOT
 62
     7
100
AcDbLine
 10
287.814038
 20
542.268173
 11
287.814038
 21
559.376044
  0
ARC
  5
C4
100
AcDbEntity
  8
M0
 62
     7
100
AcDbCircle
 10
217.814038
 20
550.451301
 40
3.5
100
AcDbArc
 50
-180.000031
 51
0.0
  0
LINE
  5
C5
100
AcDbEntity
  8
M0
  6
DASHDOT
 62
     7
100
AcDbLine
 10
226.311444
 20
550.451301
 11
210.561337
 21
550.451301
  0
LINE
  5
C6
100
AcDbEntity
  8
M0
 62
     7
100
AcDbLine
 10
221.314038
 20
552.451301
 11
221.314038
 21
550.451301
  0
LINE
  5
C7
100
AcDbEntity
  8
M0
 62
     7
100
AcDbLine
 10
214.314038
 20
550.451301
 11
214.314038
 21
552.451301
  0
ARC
  5
C8
100
AcDbEntity
  8
M0
 62
     7
100
AcDbCircle
 10
217.814038
 20
552.451301
 40
3.5
100
AcDbArc
 50
0.0
 51
179.999969
  0
LINE
  5
C9
100
AcDbEntity
  8
M0
  6
DASHDOT
 62
     7
100
AcDbLine
 10
217.814038
 20
542.268173
 11
217.814038
 21
559.376044
  0
LINE
  5
CA
100
AcDbEntity
  8
M0
 62
     7
100
AcDbLine
 10
293.314038
 20
551.4513
 11
293.314038
 21
550.4513
  0
LINE
  5
CB
100
AcDbEntity
  8
M0
 62
     7
100
AcDbLine
 10
82.314053
 20
551.4513
 11
82.314053
 21
550.4513
  0
LINE
  5
CC
100
AcDbEntity
  8
M0
 62
     7
100
AcDbLine
 10
277.814053
 20
645.451285
 11
302.814053
 21
620.451301
  0
LINE
  5
CD
100
AcDbEntity
  8
M0
 62
     7
100
AcDbLine
 10
97.814053
 20
645.451285
 11
72.814053
 21
620.451301
  0
LINE
  5
CE
100
AcDbEntity
  8
M0
 62
     7
100
AcDbLine
 10
277.814053
 20
540.451301
 11
297.814053
 21
540.451301
  0
LINE
  5
CF
100
AcDbEntity
  8
M0
 62
     7
100
AcDbLine
 10
237.814053
 20
565.451301
 11
228.465039
 21
565.451301
  0
LINE
  5
D0
100
AcDbEntity
  8
M0
 62
     7
100
AcDbLine
 10
167.814053
 20
565.451301
 11
137.814053
 21
565.451301
  0
LINE
  5
D1
100
AcDbEntity
  8
M0
 62
     7
100
AcDbLine
 10
207.814053
 20
540.451301
 11
237.814053
 21
540.451301
  0
LINE
  5
D2
100
AcDbEntity
  8
M0
 62
     7
100
AcDbLine
 10
97.814053
 20
565.451301
 11
72.814053
 21
565.451301
  0
LINE
  5
D3
100
AcDbEntity
  8
M0
 62
     7
100
AcDbLine
 10
137.814053
 20
540.451301
 11
167.814053
 21
540.451301
  0
LINE
  5
D4
100
AcDbEntity
  8
M0
 62
     7
100
AcDbLine
 10
215.465039
 20
565.451301
 11
207.814053
 21
565.451301
  0
LINE
  5
D5
100
AcDbEntity
  8
M0
 62
     7
100
AcDbLine
 10
225.465039
 20
565.451301
 11
217.465039
 21
565.451301
  0
LINE
  5
D6
100
AcDbEntity
  8
M0
 62
     4
100
AcDbLine
 10
194.215078
 20
571.251302
 11
187.965078
 21
571.251304
  0
LINE
  5
D7
100
AcDbEntity
  8
M0
 62
     4
100
AcDbLine
 10
167.814046
 20
605.250868
 11
167.814053
 21
627.451307
  0
LINE
  5
D8
100
AcDbEntity
  8
M0
 62
     4
100
AcDbLine
 10
167.814053
 20
627.451307
 11
207.814053
 21
627.451294
  0
LINE
  5
D9
100
AcDbEntity
  8
M0
 62
     4
100
AcDbLine
 10
207.814053
 20
627.451294
 11
207.814047
 21
606.946381
  0
LINE
  5
DA
100
AcDbEntity
  8
M0
 62
     4
100
AcDbLine
 10
207.814052
 20
624.251295
 11
167.814052
 21
624.251307
  0
LINE
  5
DB
100
AcDbEntity
  8
M0
 62
     4
100
AcDbLine
 10
440.333811
 20
571.251304
 11
437.133811
 21
571.251305
  0
LINE
  5
DC
100
AcDbEntity
  8
M0
 62
     4
100
AcDbLine
 10
407.133831
 20
624.251311
 11
407.133832
 21
627.451311
  0
LINE
  5
DD
100
AcDbEntity
  8
M0
 62
     4
100
AcDbLine
 10
435.133828
 20
624.251303
 11
407.133831
 21
624.251311
  0
LINE
  5
DE
100
AcDbEntity
  8
M0
 62
     4
100
AcDbLine
 10
437.133811
 20
571.251305
 11
437.133814
 21
581.451302
  0
ARC
  5
DF
100
AcDbEntity
  8
M0
 62
     4
100
AcDbCircle
 10
435.133827
 20
622.251303
 40
2.0
100
AcDbArc
 50
-4.530685E-005
 51
90.0
  0
LINE
  5
E0
100
AcDbEntity
  8
M0
 62
     4
100
AcDbLine
 10
407.133832
 20
627.451311
 11
435.133829
 21
627.451302
  0
LINE
  5
E1
100
AcDbEntity
  8
M0
 62
     4
100
AcDbLine
 10
440.333827
 20
622.251301
 11
440.333824
 21
611.451301
  0
ARC
  5
E2
100
AcDbEntity
  8
M0
 62
     4
100
AcDbCircle
 10
435.133827
 20
622.251303
 40
5.2
100
AcDbArc
 50
-7.052601E-005
 51
90.0
  0
LINE
  5
E3
100
AcDbEntity
  8
M0
  6
DASHDOT
 62
     4
100
AcDbLine
 10
414.133827
 20
613.481977
 11
414.133834
 21
635.139329
  0
LINE
  5
E4
100
AcDbEntity
  8
M0
  6
DASHDOT
 62
     4
100
AcDbLine
 10
429.133831
 20
635.139324
 11
429.133824
 21
613.481972
  0
LINE
  5
E5
100
AcDbEntity
  8
M0
 62
     4
100
AcDbLine
 10
437.133824
 20
611.451302
 11
437.133827
 21
622.251302
  0
LINE
  5
E6
100
AcDbEntity
  8
M0
 62
     4
100
AcDbLine
 10
440.333814
 20
581.451301
 11
440.333811
 21
571.251304
  0
LINE
  5
E7
100
AcDbEntity
  8
M0
 62
   234
100
AcDbLine
 10
213.814053
 20
606.451301
 11
213.814053
 21
604.951072
  0
LINE
  5
E8
100
AcDbEntity
  8
M0
 62
   234
100
AcDbLine
 10
228.465085
 20
581.451301
 11
298.814053
 21
581.451301
  0
LINE
  5
E9
100
AcDbEntity
  8
M0
 62
   234
100
AcDbLine
 10
301.814053
 20
584.451301
 11
301.814053
 21
606.451301
  0
ARC
  5
EA
100
AcDbEntity
  8
M0
 62
   234
100
AcDbCircle
 10
298.814053
 20
584.451301
 40
3.0
100
AcDbArc
 50
269.999709
 51
360.0
  0
LINE
  5
EB
100
AcDbEntity
  8
M0
 62
   234
100
AcDbLine
 10
237.314053
 20
606.451301
 11
237.314053
 21
584.451301
  0
ARC
  5
EC
100
AcDbEntity
  8
M0
 62
   234
100
AcDbCircle
 10
240.314053
 20
584.451301
 40
3.0
100
AcDbArc
 50
179.999982
 51
270.0
  0
LINE
  5
ED
100
AcDbEntity
  8
M0
 62
   234
100
AcDbLine
 10
278.314053
 20
606.451301
 11
278.314053
 21
584.451301
  0
ARC
  5
EE
100
AcDbEntity
  8
M0
 62
   234
100
AcDbCircle
 10
275.314053
 20
584.451301
 40
3.0
100
AcDbArc
 50
269.999709
 51
360.0
  0
LINE
  5
EF
100
AcDbEntity
  8
M0
 62
   234
100
AcDbLine
 10
268.314053
 20
572.451301
 11
268.314053
 21
571.451301
  0
LINE
  5
F0
100
AcDbEntity
  8
M0
 62
   234
100
AcDbLine
 10
262.314053
 20
572.451301
 11
262.314053
 21
571.451301
  0
LINE
  5
F1
100
AcDbEntity
  8
M0
 62
   234
100
AcDbLine
 10
253.314054
 20
572.451301
 11
253.314054
 21
571.451301
  0
LINE
  5
F2
100
AcDbEntity
  8
M0
 62
   234
100
AcDbLine
 10
247.314054
 20
572.451301
 11
247.314054
 21
571.451301
  0
LINE
  5
F3
100
AcDbEntity
  8
M0
 62
   234
100
AcDbLine
 10
262.314053
 20
571.451301
 11
253.314054
 21
571.451301
  0
LINE
  5
F4
100
AcDbEntity
  8
M0
 62
   234
100
AcDbLine
 10
276.814053
 20
571.451301
 11
276.814053
 21
576.451301
  0
ARC
  5
F5
100
AcDbEntity
  8
M0
 62
   234
100
AcDbCircle
 10
281.814053
 20
576.451301
 40
5.0
100
AcDbArc
 50
90.0
 51
179.999967
  0
ARC
  5
F6
100
AcDbEntity
  8
M0
 62
   234
100
AcDbCircle
 10
283.814053
 20
576.451301
 40
5.0
100
AcDbArc
 50
0.0
 51
90.0
  0
LINE
  5
F7
100
AcDbEntity
  8
M0
 62
   234
100
AcDbLine
 10
294.814053
 20
581.451301
 11
294.814053
 21
570.451301
  0
LINE
  5
F8
100
AcDbEntity
  8
M0
 62
   234
100
AcDbLine
 10
288.814053
 20
570.451301
 11
288.814053
 21
576.451301
  0
LINE
  5
F9
100
AcDbEntity
  8
M0
 62
   234
100
AcDbLine
 10
279.814053
 20
572.451301
 11
279.814053
 21
570.451301
  0
LINE
  5
FA
100
AcDbEntity
  8
M0
 62
   234
100
AcDbLine
 10
285.814053
 20
572.451301
 11
285.814053
 21
570.451301
  0
LINE
  5
FB
100
AcDbEntity
  8
M0
 62
   234
100
AcDbLine
 10
294.814053
 20
570.451301
 11
285.814053
 21
570.451301
  0
LINE
  5
FC
100
AcDbEntity
  8
M0
 62
   234
100
AcDbLine
 10
276.814053
 20
571.451301
 11
268.314053
 21
571.451301
  0
ARC
  5
FD
100
AcDbEntity
  8
M0
 62
   234
100
AcDbCircle
 10
266.314053
 20
576.451301
 40
5.0
100
AcDbArc
 50
0.0
 51
90.0
  0
LINE
  5
FE
100
AcDbEntity
  8
M0
 62
   234
100
AcDbLine
 10
271.314053
 20
571.451301
 11
271.314053
 21
576.451301
  0
LINE
  5
FF
100
AcDbEntity
  8
M0
 62
   234
100
AcDbLine
 10
270.814053
 20
571.451301
 11
270.814053
 21
570.451301
  0
LINE
  5
100
100
AcDbEntity
  8
M0
 62
   234
100
AcDbLine
 10
279.814053
 20
570.451301
 11
270.814053
 21
570.451301
  0
LINE
  5
101
100
AcDbEntity
  8
M0
 62
   234
100
AcDbLine
 10
238.814069
 20
571.451301
 11
238.814069
 21
576.451301
  0
ARC
  5
102
100
AcDbEntity
  8
M0
 62
   234
100
AcDbCircle
 10
233.814069
 20
576.451301
 40
5.0
100
AcDbArc
 50
0.0
 51
89.999825
  0
ARC
  5
103
100
AcDbEntity
  8
M0
 62
   234
100
AcDbCircle
 10
231.814069
 20
576.451301
 40
5.0
100
AcDbArc
 50
89.999825
 51
132.05148
  0
LINE
  5
104
100
AcDbEntity
  8
M0
 62
   234
100
AcDbLine
 10
235.814069
 20
572.451301
 11
235.814069
 21
570.451301
  0
LINE
  5
105
100
AcDbEntity
  8
M0
 62
   234
100
AcDbLine
 10
229.814069
 20
572.451301
 11
229.814069
 21
570.451301
  0
LINE
  5
106
100
AcDbEntity
  8
M0
 62
   234
100
AcDbLine
 10
228.465054
 20
570.451301
 11
229.814069
 21
570.451301
  0
LINE
  5
107
100
AcDbEntity
  8
M0
 62
   234
100
AcDbLine
 10
238.814069
 20
571.451301
 11
247.314054
 21
571.451301
  0
ARC
  5
108
100
AcDbEntity
  8
M0
 62
   234
100
AcDbCircle
 10
249.314054
 20
576.451301
 40
5.0
100
AcDbArc
 50
90.0
 51
179.999967
  0
LINE
  5
109
100
AcDbEntity
  8
M0
 62
   234
100
AcDbLine
 10
244.314054
 20
571.451301
 11
244.314054
 21
576.451301
  0
LINE
  5
10A
100
AcDbEntity
  8
M0
 62
   234
100
AcDbLine
 10
244.814054
 20
571.451301
 11
244.814054
 21
570.451301
  0
LINE
  5
10B
100
AcDbEntity
  8
M0
 62
   234
100
AcDbLine
 10
235.814069
 20
570.451301
 11
244.814054
 21
570.451301
  0
LINE
  5
10C
100
AcDbEntity
  8
M0
 62
   234
100
AcDbLine
 10
254.814053
 20
621.451301
 11
254.814053
 21
620.451301
  0
LINE
  5
10D
100
AcDbEntity
  8
M0
 62
   234
100
AcDbLine
 10
260.814053
 20
621.451301
 11
260.814053
 21
620.451301
  0
LINE
  5
10E
100
AcDbEntity
  8
M0
 62
   234
100
AcDbLine
 10
267.814053
 20
621.451301
 11
260.814053
 21
621.451301
  0
LINE
  5
10F
100
AcDbEntity
  8
M0
 62
   234
100
AcDbLine
 10
254.814053
 20
621.451301
 11
247.814053
 21
621.451301
  0
LINE
  5
110
100
AcDbEntity
  8
M0
 62
   234
100
AcDbLine
 10
245.314053
 20
606.451301
 11
228.465115
 21
606.451301
  0
LINE
  5
111
100
AcDbEntity
  8
M0
 62
   234
100
AcDbLine
 10
247.814053
 20
621.451301
 11
247.814053
 21
611.45127
  0
LINE
  5
112
100
AcDbEntity
  8
M0
 62
   234
100
AcDbLine
 10
267.814053
 20
621.451301
 11
267.814053
 21
611.45127
  0
LINE
  5
113
100
AcDbEntity
  8
M0
 62
   234
100
AcDbLine
 10
301.814053
 20
606.451301
 11
270.314053
 21
606.451301
  0
LINE
  5
114
100
AcDbEntity
  8
M0
 62
   234
100
AcDbLine
 10
274.314053
 20
606.451301
 11
274.314053
 21
603.951301
  0
LINE
  5
115
100
AcDbEntity
  8
M0
 62
   234
100
AcDbLine
 10
274.314053
 20
603.951301
 11
272.564053
 21
603.951301
  0
LINE
  5
116
100
AcDbEntity
  8
M0
 62
   234
100
AcDbLine
 10
272.564053
 20
602.356025
 11
272.564053
 21
603.951301
  0
LINE
  5
117
100
AcDbEntity
  8
M0
 62
   234
100
AcDbLine
 10
267.064053
 20
602.356025
 11
267.064053
 21
603.951301
  0
LINE
  5
118
100
AcDbEntity
  8
M0
 62
   234
100
AcDbLine
 10
267.064053
 20
603.951301
 11
265.314053
 21
603.951301
  0
LINE
  5
119
100
AcDbEntity
  8
M0
 62
   234
100
AcDbLine
 10
265.314053
 20
606.451301
 11
265.314053
 21
603.951301
  0
LINE
  5
11A
100
AcDbEntity
  8
M0
 62
   234
100
AcDbLine
 10
241.314069
 20
606.451301
 11
241.314069
 21
603.951301
  0
LINE
  5
11B
100
AcDbEntity
  8
M0
 62
   234
100
AcDbLine
 10
241.314069
 20
603.951301
 11
243.064054
 21
603.951301
  0
LINE
  5
11C
100
AcDbEntity
  8
M0
 62
   234
100
AcDbLine
 10
243.064054
 20
602.356025
 11
243.064054
 21
603.951301
  0
LINE
  5
11D
100
AcDbEntity
  8
M0
 62
   234
100
AcDbLine
 10
248.564054
 20
602.356025
 11
248.564054
 21
603.951301
  0
LINE
  5
11E
100
AcDbEntity
  8
M0
 62
   234
100
AcDbLine
 10
248.564054
 20
603.951301
 11
250.314054
 21
603.951301
  0
LINE
  5
11F
100
AcDbEntity
  8
M0
 62
   234
100
AcDbLine
 10
250.314054
 20
606.451301
 11
250.314054
 21
603.951301
  0
LINE
  5
120
100
AcDbEntity
  8
M0
 62
   234
100
AcDbLine
 10
250.314054
 20
606.451285
 11
265.314053
 21
606.451285
  0
LINE
  5
121
100
AcDbEntity
  8
M0
 62
   234
100
AcDbLine
 10
219.09924
 20
606.451301
 11
213.814053
 21
606.451301
  0
LINE
  5
122
100
AcDbEntity
  8
M0
 62
   234
100
AcDbLine
 10
427.933938
 20
606.451331
 11
427.93393
 21
581.451331
  0
LINE
  5
123
100
AcDbEntity
  8
M0
 62
   234
100
AcDbLine
 10
524.933938
 20
606.451301
 11
472.933938
 21
606.451317
  0
LINE
  5
124
100
AcDbEntity
  8
M0
 62
   234
100
AcDbLine
 10
467.933942
 20
621.451319
 11
467.933939
 21
611.451303
  0
LINE
  5
125
100
AcDbEntity
  8
M0
 62
   234
100
AcDbLine
 10
467.933938
 20
606.451319
 11
427.933938
 21
606.451331
  0
LINE
  5
126
100
AcDbEntity
  8
M0
 62
   234
100
AcDbLine
 10
460.933927
 20
571.451321
 11
472.933927
 21
571.451317
  0
LINE
  5
127
100
AcDbEntity
  8
M0
 62
   234
100
AcDbLine
 10
472.933927
 20
571.451317
 11
472.93393
 21
581.451317
  0
LINE
  5
128
100
AcDbEntity
  8
M0
 62
   234
100
AcDbLine
 10
524.933926
 20
570.451301
 11
524.933938
 21
606.451301
  0
LINE
  5
129
100
AcDbEntity
  8
M0
 62
   234
100
AcDbLine
 10
512.933926
 20
570.451304
 11
524.933926
 21
570.451301
  0
LINE
  5
12A
100
AcDbEntity
  8
M0
 62
   234
100
AcDbLine
 10
507.449112
 20
579.951306
 11
512.933926
 21
570.451304
  0
LINE
  5
12B
100
AcDbEntity
  8
M0
 62
   234
100
AcDbLine
 10
472.93393
 20
581.451317
 11
504.851029
 21
581.451307
  0
ARC
  5
12C
100
AcDbEntity
  8
M0
 62
   234
100
AcDbCircle
 10
504.851028
 20
578.451307
 40
3.0
100
AcDbArc
 50
29.999818
 51
90.0
  0
LINE
  5
12D
100
AcDbEntity
  8
M0
 62
   234
100
AcDbLine
 10
456.026459
 20
579.951322
 11
460.933927
 21
571.451321
  0
LINE
  5
12E
100
AcDbEntity
  8
M0
 62
   234
100
AcDbLine
 10
427.93393
 20
581.451331
 11
453.428391
 21
581.451323
  0
ARC
  5
12F
100
AcDbEntity
  8
M0
 62
   234
100
AcDbCircle
 10
453.42839
 20
578.451323
 40
3.0
100
AcDbArc
 50
29.999944
 51
90.0
  0
LINE
  5
130
100
AcDbEntity
  8
M0
 62
   234
100
AcDbLine
 10
472.933939
 20
611.451302
 11
472.933941
 21
618.451317
  0
LINE
  5
131
100
AcDbEntity
  8
M0
 62
   234
100
AcDbLine
 10
469.933942
 20
621.451318
 11
467.933942
 21
621.451319
  0
ARC
  5
132
100
AcDbEntity
  8
M0
 62
   234
100
AcDbCircle
 10
469.933941
 20
618.451318
 40
3.0
100
AcDbArc
 50
359.999691
 51
450.0
  0
LINE
  5
133
100
AcDbEntity
  8
M0
 62
   234
100
AcDbLine
 10
503.745949
 20
606.451307
 11
503.745942
 21
581.451307
  0
LINE
  5
134
100
AcDbEntity
  8
M0
 62
   194
100
AcDbLine
 10
213.814053
 20
606.451273
 11
219.099225
 21
606.451276
  0
LINE
  5
135
100
AcDbEntity
  8
M0
 62
   194
100
AcDbLine
 10
301.814053
 20
606.451328
 11
301.814052
 21
608.451327
  0
ARC
  5
136
100
AcDbEntity
  8
M0
 62
   194
100
AcDbCircle
 10
298.814052
 20
608.451325
 40
3.0
100
AcDbArc
 50
0.0
 51
90.0
  0
LINE
  5
137
100
AcDbEntity
  8
M0
 62
   194
100
AcDbLine
 10
298.81405
 20
611.451325
 11
216.81405
 21
611.451274
  0
LINE
  5
138
100
AcDbEntity
  8
M0
 62
   194
100
AcDbLine
 10
213.814052
 20
608.451272
 11
213.814053
 21
606.451273
  0
ARC
  5
139
100
AcDbEntity
  8
M0
 62
   194
100
AcDbCircle
 10
216.814052
 20
608.451274
 40
3.0
100
AcDbArc
 50
89.999745
 51
180.000036
  0
LINE
  5
13A
100
AcDbEntity
  8
M0
 62
   194
100
AcDbLine
 10
229.814045
 20
620.451282
 11
229.814043
 21
622.451282
  0
LINE
  5
13B
100
AcDbEntity
  8
M0
 62
   194
100
AcDbLine
 10
226.814047
 20
616.45128
 11
226.814043
 21
622.45128
  0
ARC
  5
13C
100
AcDbEntity
  8
M0
 62
   194
100
AcDbCircle
 10
231.814047
 20
616.451283
 40
5.0
100
AcDbArc
 50
180.000036
 51
270.0
  0
ARC
  5
13D
100
AcDbEntity
  8
M0
 62
   194
100
AcDbCircle
 10
233.814047
 20
616.451285
 40
5.0
100
AcDbArc
 50
270.0
 51
323.130103
  0
LINE
  5
13E
100
AcDbEntity
  8
M0
 62
   194
100
AcDbLine
 10
235.814045
 20
620.451286
 11
235.814043
 21
622.451286
  0
LINE
  5
13F
100
AcDbEntity
  8
M0
 62
   194
100
AcDbLine
 10
237.814043
 20
622.451287
 11
235.814043
 21
622.451286
  0
LINE
  5
140
100
AcDbEntity
  8
M0
 62
   194
100
AcDbLine
 10
229.814043
 20
622.451282
 11
220.814043
 21
622.451277
  0
LINE
  5
141
100
AcDbEntity
  8
M0
 62
   194
100
AcDbLine
 10
220.81405
 20
611.451277
 11
220.814043
 21
622.451277
  0
LINE
  5
142
100
AcDbEntity
  8
M0
 62
   194
100
AcDbLine
 10
228.465115
 20
606.451282
 11
301.814053
 21
606.451328
  0
LINE
  5
143
100
AcDbEntity
  8
M0
 62
   194
100
AcDbLine
 10
524.933926
 20
606.451301
 11
427.933926
 21
606.451331
  0
LINE
  5
144
100
AcDbEntity
  8
M0
 62
   194
100
AcDbLine
 10
427.933926
 20
606.451331
 11
427.933928
 21
611.451331
  0
LINE
  5
145
100
AcDbEntity
  8
M0
 62
   194
100
AcDbLine
 10
524.933931
 20
622.451301
 11
524.933926
 21
606.451301
  0
LINE
  5
146
100
AcDbEntity
  8
M0
 62
   194
100
AcDbLine
 10
512.933932
 20
622.451304
 11
524.933931
 21
622.451301
  0
LINE
  5
147
100
AcDbEntity
  8
M0
 62
   194
100
AcDbLine
 10
427.933928
 20
611.451331
 11
524.933928
 21
611.451301
  0
LINE
  5
148
100
AcDbEntity
  8
M0
 62
   194
100
AcDbLine
 10
507.449111
 20
612.951306
 11
512.933931
 21
622.451304
  0
ARC
  5
149
100
AcDbEntity
  8
M0
 62
   194
100
AcDbCircle
 10
504.851028
 20
614.451307
 40
3.0
100
AcDbArc
 50
270.0
 51
330.000083
  0
LINE
  5
14A
100
AcDbEntity
  8
M0
 62
   253
100
AcDbLine
 10
165.965131
 20
600.451308
 11
163.814053
 21
600.451308
  0
LINE
  5
14B
100
AcDbEntity
  8
M0
 62
   253
100
AcDbLine
 10
163.814053
 20
600.451308
 11
163.814046
 21
578.451308
  0
LINE
  5
14C
100
AcDbEntity
  8
M0
 62
   253
100
AcDbLine
 10
164.814046
 20
577.451308
 11
165.965093
 21
577.451308
  0
ARC
  5
14D
100
AcDbEntity
  8
M0
 62
   253
100
AcDbCircle
 10
164.814046
 20
578.451308
 40
1.0
100
AcDbArc
 50
179.999108
 51
270.0
  0
LINE
  5
14E
100
AcDbEntity
  8
M0
 62
   253
100
AcDbLine
 10
463.933925
 20
565.45132
 11
472.933925
 21
565.451317
  0
LINE
  5
14F
100
AcDbEntity
  8
M0
 62
   253
100
AcDbLine
 10
479.433926
 20
570.451315
 11
512.933927
 21
570.451304
  0
LINE
  5
150
100
AcDbEntity
  8
M0
 62
   253
100
AcDbLine
 10
503.933926
 20
570.451307
 11
503.933928
 21
576.451307
  0
ARC
  5
151
100
AcDbEntity
  8
M0
 62
   253
100
AcDbCircle
 10
504.933928
 20
576.451307
 40
1.0
100
AcDbArc
 50
90.0
 51
179.999982
  0
LINE
  5
152
100
AcDbEntity
  8
M0
 62
   253
100
AcDbLine
 10
508.892486
 20
577.451306
 11
489.933929
 21
577.451312
  0
LINE
  5
153
100
AcDbEntity
  8
M0
 62
   253
100
AcDbLine
 10
488.933926
 20
570.451312
 11
488.933928
 21
576.451312
  0
ARC
  5
154
100
AcDbEntity
  8
M0
 62
   253
100
AcDbCircle
 10
489.933928
 20
576.451312
 40
1.0
100
AcDbArc
 50
90.0
 51
179.999982
  0
ARC
  5
155
100
AcDbEntity
  8
M0
 62
     1
100
AcDbCircle
 10
216.464864
 20
563.451087
 40
1.0
100
AcDbArc
 50
179.999126
 51
270.0
  0
ARC
  5
156
100
AcDbEntity
  8
M0
 62
     1
100
AcDbCircle
 10
216.464864
 20
563.451087
 40
1.0
100
AcDbArc
 50
270.0
 51
360.0
  0
LINE
  5
157
100
AcDbEntity
  8
M0
 62
     1
100
AcDbLine
 10
207.464902
 20
563.451102
 11
204.464902
 21
563.451102
  0
LINE
  5
158
100
AcDbEntity
  8
M0
 62
     1
100
AcDbLine
 10
185.714947
 20
604.950831
 11
185.714947
 21
605.751124
  0
ARC
  5
159
100
AcDbEntity
  8
M0
 62
     1
100
AcDbCircle
 10
184.714947
 20
605.751126
 40
1.0
100
AcDbArc
 50
0.0
 51
89.999126
  0
LINE
  5
15A
100
AcDbEntity
  8
M0
 62
     1
100
AcDbLine
 10
228.464912
 20
603.951058
 11
196.464963
 21
603.950864
  0
LINE
  5
15B
100
AcDbEntity
  8
M0
 62
     1
100
AcDbLine
 10
165.964947
 20
605.250862
 11
165.964902
 21
569.951072
  0
LINE
  5
15C
100
AcDbEntity
  8
M0
 62
     1
100
AcDbLine
 10
207.464886
 20
567.451102
 11
208.522183
 21
567.451102
  0
LINE
  5
15D
100
AcDbEntity
  8
M0
 62
     1
100
AcDbLine
 10
228.464866
 20
564.951072
 11
228.464932
 21
606.951057
  0
LINE
  5
15E
100
AcDbEntity
  8
M0
 62
     1
100
AcDbLine
 10
224.609925
 20
599.451063
 11
212.814927
 21
599.451081
  0
LINE
  5
15F
100
AcDbEntity
  8
M0
 62
     1
100
AcDbLine
 10
191.464917
 20
572.451118
 11
191.464963
 21
605.951115
  0
LINE
  5
160
100
AcDbEntity
  8
M0
 62
     1
100
AcDbLine
 10
193.964917
 20
572.451118
 11
193.964963
 21
605.951111
  0
LINE
  5
161
100
AcDbEntity
  8
M0
 62
     1
100
AcDbLine
 10
181.464917
 20
572.451133
 11
181.464963
 21
605.951131
  0
LINE
  5
162
100
AcDbEntity
  8
M0
 62
     1
100
AcDbLine
 10
178.964917
 20
572.451148
 11
178.964963
 21
605.951135
  0
LINE
  5
163
100
AcDbEntity
  8
M0
 62
     1
100
AcDbLine
 10
192.964978
 20
606.951113
 11
192.464978
 21
606.951113
  0
ARC
  5
164
100
AcDbEntity
  8
M0
 62
     1
100
AcDbCircle
 10
192.964963
 20
605.951113
 40
1.0
100
AcDbArc
 50
0.0
 51
89.999126
  0
LINE
  5
165
100
AcDbEntity
  8
M0
 62
     1
100
AcDbLine
 10
184.714947
 20
606.751126
 11
181.064893
 21
606.751105
  0
ARC
  5
166
100
AcDbEntity
  8
M0
 62
     1
100
AcDbCircle
 10
192.464963
 20
605.951114
 40
1.0
100
AcDbArc
 50
89.999126
 51
179.999962
  0
LINE
  5
167
100
AcDbEntity
  8
M0
 62
     1
100
AcDbLine
 10
202.464932
 20
586.451102
 11
195.464932
 21
586.451118
  0
LINE
  5
168
100
AcDbEntity
  8
M0
 62
     1
100
AcDbLine
 10
202.464947
 20
590.951099
 11
195.464947
 21
590.951109
  0
LINE
  5
169
100
AcDbEntity
  8
M0
 62
     1
100
AcDbLine
 10
202.464947
 20
588.951102
 11
195.464947
 21
588.951118
  0
LINE
  5
16A
100
AcDbEntity
  8
M0
 62
     1
100
AcDbLine
 10
195.964947
 20
590.951108
 11
195.964947
 21
591.151059
  0
LINE
  5
16B
100
AcDbEntity
  8
M0
 62
     1
100
AcDbLine
 10
201.964947
 20
590.951099
 11
201.964947
 21
591.15105
  0
LINE
  5
16C
100
AcDbEntity
  8
M0
 62
     1
100
AcDbLine
 10
201.464963
 20
600.750904
 11
201.464963
 21
603.951099
  0
LINE
  5
16D
100
AcDbEntity
  8
M0
 62
     1
100
AcDbLine
 10
196.464963
 20
600.750913
 11
196.464963
 21
603.951108
  0
LINE
  5
16E
100
AcDbEntity
  8
M0
 62
     1
100
AcDbLine
 10
188.964963
 20
600.751168
 11
188.964963
 21
603.95112
  0
LINE
  5
16F
100
AcDbEntity
  8
M0
 62
     1
100
AcDbLine
 10
183.964963
 20
600.751176
 11
183.964963
 21
603.951127
  0
LINE
  5
170
100
AcDbEntity
  8
M0
 62
     1
100
AcDbLine
 10
171.464963
 20
600.751196
 11
171.464963
 21
603.951147
  0
LINE
  5
171
100
AcDbEntity
  8
M0
 62
     1
100
AcDbLine
 10
176.464963
 20
600.751188
 11
176.464963
 21
603.95114
  0
LINE
  5
172
100
AcDbEntity
  8
M0
 62
     1
100
AcDbLine
 10
183.464947
 20
590.951128
 11
183.464947
 21
591.151323
  0
LINE
  5
173
100
AcDbEntity
  8
M0
 62
     1
100
AcDbLine
 10
189.464947
 20
590.951119
 11
189.464947
 21
591.151314
  0
LINE
  5
174
100
AcDbEntity
  8
M0
 62
     1
100
AcDbLine
 10
170.964947
 20
590.951148
 11
170.964947
 21
591.151343
  0
LINE
  5
175
100
AcDbEntity
  8
M0
 62
     1
100
AcDbLine
 10
176.964947
 20
590.951139
 11
176.964947
 21
591.151334
  0
LINE
  5
176
100
AcDbEntity
  8
M0
 62
     1
100
AcDbLine
 10
196.464963
 20
603.951108
 11
193.964963
 21
603.951112
  0
LINE
  5
177
100
AcDbEntity
  8
M0
 62
     1
100
AcDbLine
 10
183.964963
 20
603.951127
 11
181.464963
 21
603.951131
  0
LINE
  5
178
100
AcDbEntity
  8
M0
 62
     1
100
AcDbLine
 10
171.464963
 20
603.951147
 11
168.964963
 21
603.951151
  0
LINE
  5
179
100
AcDbEntity
  8
M0
 62
     1
100
AcDbLine
 10
189.964947
 20
590.951118
 11
182.964947
 21
590.951129
  0
LINE
  5
17A
100
AcDbEntity
  8
M0
 62
     1
100
AcDbLine
 10
177.464947
 20
590.951138
 11
170.464947
 21
590.951149
  0
LINE
  5
17B
100
AcDbEntity
  8
M0
 62
     1
100
AcDbLine
 10
203.464947
 20
591.951097
 11
203.464963
 21
602.951097
  0
LINE
  5
17C
100
AcDbEntity
  8
M0
 62
     1
100
AcDbLine
 10
194.464947
 20
591.951111
 11
194.464963
 21
602.951111
  0
LINE
  5
17D
100
AcDbEntity
  8
M0
 62
     1
100
AcDbLine
 10
190.964947
 20
591.951117
 11
190.964963
 21
602.951117
  0
LINE
  5
17E
100
AcDbEntity
  8
M0
 62
     1
100
AcDbLine
 10
181.964947
 20
591.951131
 11
181.964963
 21
602.951131
  0
LINE
  5
17F
100
AcDbEntity
  8
M0
 62
     1
100
AcDbLine
 10
178.464947
 20
591.951136
 11
178.464963
 21
602.951136
  0
LINE
  5
180
100
AcDbEntity
  8
M0
 62
     1
100
AcDbLine
 10
169.464947
 20
591.95115
 11
169.464963
 21
602.95115
  0
LINE
  5
181
100
AcDbEntity
  8
M0
 62
     1
100
AcDbLine
 10
191.464963
 20
603.951116
 11
183.964963
 21
603.950883
  0
LINE
  5
182
100
AcDbEntity
  8
M0
 62
     1
100
AcDbLine
 10
178.964963
 20
603.951136
 11
171.464963
 21
603.950903
  0
LINE
  5
183
100
AcDbEntity
  8
M0
 62
     1
100
AcDbLine
 10
203.964917
 20
568.951102
 11
203.964932
 21
587.451102
  0
ARC
  5
184
100
AcDbEntity
  8
M0
 62
     1
100
AcDbCircle
 10
204.464963
 20
602.951095
 40
1.0
100
AcDbArc
 50
119.999201
 51
179.999945
  0
ARC
  5
185
100
AcDbEntity
  8
M0
 62
     1
100
AcDbCircle
 10
191.964963
 20
602.951115
 40
1.0
100
AcDbArc
 50
119.999201
 51
179.999945
  0
ARC
  5
186
100
AcDbEntity
  8
M0
 62
     1
100
AcDbCircle
 10
179.464963
 20
602.951135
 40
1.0
100
AcDbArc
 50
119.999201
 51
179.999945
  0
ARC
  5
187
100
AcDbEntity
  8
M0
 62
     1
100
AcDbCircle
 10
193.464963
 20
602.951113
 40
1.0
100
AcDbArc
 50
0.0
 51
59.999258
  0
ARC
  5
188
100
AcDbEntity
  8
M0
 62
     1
100
AcDbCircle
 10
180.964963
 20
602.951132
 40
1.0
100
AcDbArc
 50
0.0
 51
59.999258
  0
LINE
  5
189
100
AcDbEntity
  8
M0
 62
     1
100
AcDbLine
 10
168.964947
 20
591.951151
 11
168.964963
 21
603.951151
  0
ARC
  5
18A
100
AcDbEntity
  8
M0
 62
     1
100
AcDbCircle
 10
168.464963
 20
602.951152
 40
1.0
100
AcDbArc
 50
0.0
 51
59.999258
  0
LINE
  5
18B
100
AcDbEntity
  8
M0
 62
     1
100
AcDbLine
 10
176.214978
 20
605.269694
 11
176.214978
 21
605.75114
  0
ARC
  5
18C
100
AcDbEntity
  8
M0
 62
     1
100
AcDbCircle
 10
177.214978
 20
605.751138
 40
1.0
100
AcDbArc
 50
89.999126
 51
179.999945
  0
ARC
  5
18D
100
AcDbEntity
  8
M0
 62
     1
100
AcDbCircle
 10
180.464963
 20
605.951132
 40
1.0
100
AcDbArc
 50
0.0
 51
89.999126
  0
ARC
  5
18E
100
AcDbEntity
  8
M0
 62
     1
100
AcDbCircle
 10
179.964963
 20
605.951133
 40
1.0
100
AcDbArc
 50
89.999126
 51
179.999962
  0
LINE
  5
18F
100
AcDbEntity
  8
M0
 62
     1
100
AcDbLine
 10
178.964978
 20
605.250862
 11
165.964947
 21
605.250862
  0
LINE
  5
190
100
AcDbEntity
  8
M0
 62
     1
100
AcDbLine
 10
177.464947
 20
588.951148
 11
165.964917
 21
588.951163
  0
LINE
  5
191
100
AcDbEntity
  8
M0
 62
     1
100
AcDbLine
 10
189.964947
 20
588.951118
 11
182.964947
 21
588.951133
  0
ARC
  5
192
100
AcDbEntity
  8
M0
 62
     1
100
AcDbCircle
 10
189.964947
 20
592.451118
 40
1.499996
100
AcDbArc
 50
270.0
 51
360.0
  0
ARC
  5
193
100
AcDbEntity
  8
M0
 62
     1
100
AcDbCircle
 10
177.464947
 20
592.451138
 40
1.499996
100
AcDbArc
 50
270.0
 51
360.0
  0
ARC
  5
194
100
AcDbEntity
  8
M0
 62
     1
100
AcDbCircle
 10
177.464947
 20
591.951138
 40
1.0
100
AcDbArc
 50
270.0
 51
360.0
  0
ARC
  5
195
100
AcDbEntity
  8
M0
 62
     1
100
AcDbCircle
 10
189.964947
 20
591.951118
 40
1.0
100
AcDbArc
 50
270.0
 51
360.0
  0
ARC
  5
196
100
AcDbEntity
  8
M0
 62
     1
100
AcDbCircle
 10
202.464947
 20
592.451099
 40
1.499996
100
AcDbArc
 50
270.0
 51
360.0
  0
ARC
  5
197
100
AcDbEntity
  8
M0
 62
     1
100
AcDbCircle
 10
202.464947
 20
591.951099
 40
1.0
100
AcDbArc
 50
270.0
 51
360.0
  0
ARC
  5
198
100
AcDbEntity
  8
M0
 62
     1
100
AcDbCircle
 10
195.464947
 20
592.451109
 40
1.499996
100
AcDbArc
 50
179.999964
 51
270.0
  0
ARC
  5
199
100
AcDbEntity
  8
M0
 62
     1
100
AcDbCircle
 10
182.964947
 20
592.451129
 40
1.499996
100
AcDbArc
 50
179.999964
 51
270.0
  0
ARC
  5
19A
100
AcDbEntity
  8
M0
 62
     1
100
AcDbCircle
 10
195.464947
 20
591.951109
 40
1.0
100
AcDbArc
 50
179.999945
 51
270.0
  0
ARC
  5
19B
100
AcDbEntity
  8
M0
 62
     1
100
AcDbCircle
 10
182.964947
 20
591.951129
 40
1.0
100
AcDbArc
 50
179.999945
 51
270.0
  0
ARC
  5
19C
100
AcDbEntity
  8
M0
 62
     1
100
AcDbCircle
 10
170.464947
 20
591.951149
 40
1.0
100
AcDbArc
 50
179.999945
 51
270.0
  0
ARC
  5
19D
100
AcDbEntity
  8
M0
 62
     1
100
AcDbCircle
 10
170.464947
 20
592.451149
 40
1.499996
100
AcDbArc
 50
179.999964
 51
270.0
  0
ARC
  5
19E
100
AcDbEntity
  8
M0
 62
     1
100
AcDbCircle
 10
167.964947
 20
591.951153
 40
1.0
100
AcDbArc
 50
270.0
 51
360.0
  0
LINE
  5
19F
100
AcDbEntity
  8
M0
 62
     1
100
AcDbLine
 10
167.964947
 20
590.951153
 11
165.964917
 21
590.951156
  0
LINE
  5
1A0
100
AcDbEntity
  8
M0
 62
     1
100
AcDbLine
 10
203.964917
 20
576.451102
 11
193.964917
 21
576.451118
  0
LINE
  5
1A1
100
AcDbEntity
  8
M0
 62
     1
100
AcDbLine
 10
203.964947
 20
592.451096
 11
203.964963
 21
603.951096
  0
ARC
  5
1A2
100
AcDbEntity
  8
M0
 62
     1
100
AcDbCircle
 10
195.464932
 20
587.451118
 40
1.499996
100
AcDbArc
 50
89.999417
 51
179.999417
  0
ARC
  5
1A3
100
AcDbEntity
  8
M0
 62
     1
100
AcDbCircle
 10
202.464932
 20
587.451102
 40
1.499996
100
AcDbArc
 50
0.0
 51
89.999417
  0
ARC
  5
1A4
100
AcDbEntity
  8
M0
 62
     1
100
AcDbCircle
 10
189.964932
 20
587.451118
 40
1.499996
100
AcDbArc
 50
0.0
 51
89.999417
  0
ARC
  5
1A5
100
AcDbEntity
  8
M0
 62
     1
100
AcDbCircle
 10
182.964932
 20
587.451133
 40
1.499996
100
AcDbArc
 50
89.999417
 51
179.999417
  0
ARC
  5
1A6
100
AcDbEntity
  8
M0
 62
     1
100
AcDbCircle
 10
177.464932
 20
587.451148
 40
1.499996
100
AcDbArc
 50
0.0
 51
89.999417
  0
LINE
  5
1A7
100
AcDbEntity
  8
M0
 62
     1
100
AcDbLine
 10
168.964917
 20
575.951163
 11
168.964947
 21
587.951163
  0
ARC
  5
1A8
100
AcDbEntity
  8
M0
 62
     1
100
AcDbCircle
 10
170.464932
 20
587.451163
 40
1.499996
100
AcDbArc
 50
89.999417
 51
179.999417
  0
ARC
  5
1A9
100
AcDbEntity
  8
M0
 62
     1
100
AcDbCircle
 10
167.964947
 20
587.951163
 40
1.0
100
AcDbArc
 50
0.0
 51
89.999126
  0
LINE
  5
1AA
100
AcDbEntity
  8
M0
 62
     1
100
AcDbLine
 10
191.464917
 20
576.451118
 11
181.464917
 21
576.451133
  0
LINE
  5
1AB
100
AcDbEntity
  8
M0
 62
     1
100
AcDbLine
 10
178.964917
 20
576.451148
 11
168.964917
 21
576.451163
  0
ARC
  5
1AC
100
AcDbEntity
  8
M0
 62
     1
100
AcDbCircle
 10
202.464932
 20
584.951102
 40
1.499996
100
AcDbArc
 50
0.0
 51
89.999417
  0
LINE
  5
1AD
100
AcDbEntity
  8
M0
 62
     1
100
AcDbLine
 10
189.964932
 20
586.451118
 11
182.964932
 21
586.451133
  0
LINE
  5
1AE
100
AcDbEntity
  8
M0
 62
     1
100
AcDbLine
 10
177.464932
 20
586.451148
 11
170.464932
 21
586.451163
  0
ARC
  5
1AF
100
AcDbEntity
  8
M0
 62
     1
100
AcDbCircle
 10
195.464932
 20
584.951118
 40
1.499996
100
AcDbArc
 50
89.999417
 51
179.999417
  0
ARC
  5
1B0
100
AcDbEntity
  8
M0
 62
     1
100
AcDbCircle
 10
182.964932
 20
584.951133
 40
1.499996
100
AcDbArc
 50
89.999417
 51
179.999417
  0
ARC
  5
1B1
100
AcDbEntity
  8
M0
 62
     1
100
AcDbCircle
 10
170.464932
 20
584.951163
 40
1.499996
100
AcDbArc
 50
89.999417
 51
179.999417
  0
ARC
  5
1B2
100
AcDbEntity
  8
M0
 62
     1
100
AcDbCircle
 10
189.964932
 20
584.951118
 40
1.499996
100
AcDbArc
 50
0.0
 51
89.999417
  0
ARC
  5
1B3
100
AcDbEntity
  8
M0
 62
     1
100
AcDbCircle
 10
177.464932
 20
584.951148
 40
1.499996
100
AcDbArc
 50
0.0
 51
89.999417
  0
LINE
  5
1B4
100
AcDbEntity
  8
M0
 62
     1
100
AcDbLine
 10
203.464917
 20
577.451102
 11
203.464932
 21
585.451102
  0
LINE
  5
1B5
100
AcDbEntity
  8
M0
 62
     1
100
AcDbLine
 10
194.464917
 20
577.451118
 11
194.464932
 21
585.451118
  0
LINE
  5
1B6
100
AcDbEntity
  8
M0
 62
     1
100
AcDbLine
 10
190.964917
 20
577.451118
 11
190.964932
 21
585.451118
  0
LINE
  5
1B7
100
AcDbEntity
  8
M0
 62
     1
100
AcDbLine
 10
181.964917
 20
577.451133
 11
181.964932
 21
585.451133
  0
LINE
  5
1B8
100
AcDbEntity
  8
M0
 62
     1
100
AcDbLine
 10
178.464917
 20
577.451148
 11
178.464932
 21
585.451148
  0
LINE
  5
1B9
100
AcDbEntity
  8
M0
 62
     1
100
AcDbLine
 10
169.464917
 20
577.451163
 11
169.464932
 21
585.451163
  0
ARC
  5
1BA
100
AcDbEntity
  8
M0
 62
     1
100
AcDbCircle
 10
202.464932
 20
585.451102
 40
1.0
100
AcDbArc
 50
0.0
 51
89.999126
  0
ARC
  5
1BB
100
AcDbEntity
  8
M0
 62
     1
100
AcDbCircle
 10
189.964932
 20
585.451118
 40
1.0
100
AcDbArc
 50
0.0
 51
89.999126
  0
ARC
  5
1BC
100
AcDbEntity
  8
M0
 62
     1
100
AcDbCircle
 10
177.464932
 20
585.451148
 40
1.0
100
AcDbArc
 50
0.0
 51
89.999126
  0
ARC
  5
1BD
100
AcDbEntity
  8
M0
 62
     1
100
AcDbCircle
 10
195.464932
 20
585.451118
 40
1.0
100
AcDbArc
 50
89.999126
 51
179.999126
  0
ARC
  5
1BE
100
AcDbEntity
  8
M0
 62
     1
100
AcDbCircle
 10
182.964932
 20
585.451133
 40
1.0
100
AcDbArc
 50
89.999126
 51
179.999126
  0
ARC
  5
1BF
100
AcDbEntity
  8
M0
 62
     1
100
AcDbCircle
 10
170.464932
 20
585.451163
 40
1.0
100
AcDbArc
 50
89.999126
 51
179.999126
  0
ARC
  5
1C0
100
AcDbEntity
  8
M0
 62
     1
100
AcDbCircle
 10
204.464917
 20
577.451102
 40
1.0
100
AcDbArc
 50
179.999126
 51
239.999632
  0
ARC
  5
1C1
100
AcDbEntity
  8
M0
 62
     1
100
AcDbCircle
 10
191.964917
 20
577.451118
 40
1.0
100
AcDbArc
 50
179.999126
 51
239.999632
  0
ARC
  5
1C2
100
AcDbEntity
  8
M0
 62
     1
100
AcDbCircle
 10
179.464917
 20
577.451148
 40
1.0
100
AcDbArc
 50
179.999126
 51
239.999632
  0
ARC
  5
1C3
100
AcDbEntity
  8
M0
 62
     1
100
AcDbCircle
 10
168.464917
 20
577.451163
 40
1.0
100
AcDbArc
 50
300.001125
 51
360.0
  0
ARC
  5
1C4
100
AcDbEntity
  8
M0
 62
     1
100
AcDbCircle
 10
180.964917
 20
577.451133
 40
1.0
100
AcDbArc
 50
300.001125
 51
360.0
  0
ARC
  5
1C5
100
AcDbEntity
  8
M0
 62
     1
100
AcDbCircle
 10
193.464917
 20
577.451118
 40
1.0
100
AcDbArc
 50
300.001125
 51
360.0
  0
LINE
  5
1C6
100
AcDbEntity
  8
M0
 62
     1
100
AcDbLine
 10
192.964917
 20
571.451118
 11
192.464917
 21
571.451118
  0
LINE
  5
1C7
100
AcDbEntity
  8
M0
 62
     1
100
AcDbLine
 10
180.464917
 20
571.451133
 11
179.964917
 21
571.451148
  0
ARC
  5
1C8
100
AcDbEntity
  8
M0
 62
     1
100
AcDbCircle
 10
179.964917
 20
572.451148
 40
1.0
100
AcDbArc
 50
179.999126
 51
270.0
  0
ARC
  5
1C9
100
AcDbEntity
  8
M0
 62
     1
100
AcDbCircle
 10
180.464917
 20
572.451133
 40
1.0
100
AcDbArc
 50
270.0
 51
360.0
  0
ARC
  5
1CA
100
AcDbEntity
  8
M0
 62
     1
100
AcDbCircle
 10
192.464917
 20
572.451118
 40
1.0
100
AcDbArc
 50
179.999126
 51
270.0
  0
ARC
  5
1CB
100
AcDbEntity
  8
M0
 62
     1
100
AcDbCircle
 10
192.964917
 20
572.451118
 40
1.0
100
AcDbArc
 50
270.0
 51
360.0
  0
LINE
  5
1CC
100
AcDbEntity
  8
M0
 62
     1
100
AcDbLine
 10
203.964917
 20
569.951102
 11
194.214917
 21
569.951118
  0
LINE
  5
1CD
100
AcDbEntity
  8
M0
 62
     1
100
AcDbLine
 10
173.214917
 20
569.951148
 11
173.214917
 21
571.143973
  0
LINE
  5
1CE
100
AcDbEntity
  8
M0
 62
     1
100
AcDbLine
 10
177.714917
 20
569.951148
 11
177.714917
 21
571.143973
  0
LINE
  5
1CF
100
AcDbEntity
  8
M0
 62
     1
100
AcDbLine
 10
198.214917
 20
569.951118
 11
198.214917
 21
571.143928
  0
LINE
  5
1D0
100
AcDbEntity
  8
M0
 62
     1
100
AcDbLine
 10
202.714917
 20
569.951102
 11
202.714917
 21
571.143928
  0
LINE
  5
1D1
100
AcDbEntity
  8
M0
 62
     1
100
AcDbLine
 10
167.964917
 20
574.951163
 11
165.964886
 21
574.951163
  0
ARC
  5
1D2
100
AcDbEntity
  8
M0
 62
     1
100
AcDbCircle
 10
167.964917
 20
575.951163
 40
1.0
100
AcDbArc
 50
270.0
 51
360.0
  0
LINE
  5
1D3
100
AcDbEntity
  8
M0
 62
     1
100
AcDbLine
 10
225.464867
 20
565.451072
 11
225.464892
 21
581.551108
  0
LINE
  5
1D4
100
AcDbEntity
  8
M0
 62
     1
100
AcDbLine
 10
227.964864
 20
573.451072
 11
226.464864
 21
573.451072
  0
ARC
  5
1D5
100
AcDbEntity
  8
M0
 62
     1
100
AcDbCircle
 10
227.964865
 20
573.951072
 40
0.5
100
AcDbArc
 50
270.0
 51
360.0
  0
ARC
  5
1D6
100
AcDbEntity
  8
M0
 62
     1
100
AcDbCircle
 10
226.464866
 20
574.451072
 40
1.0
100
AcDbArc
 50
179.999126
 51
270.0
  0
LINE
  5
1D7
100
AcDbEntity
  8
M0
 62
     1
100
AcDbLine
 10
227.964868
 20
566.451072
 11
226.464868
 21
566.451072
  0
LINE
  5
1D8
100
AcDbEntity
  8
M0
 62
     1
100
AcDbLine
 10
227.964865
 20
564.451072
 11
226.464865
 21
564.451072
  0
ARC
  5
1D9
100
AcDbEntity
  8
M0
 62
     1
100
AcDbCircle
 10
227.964866
 20
564.951072
 40
0.5
100
AcDbArc
 50
270.0
 51
360.0
  0
ARC
  5
1DA
100
AcDbEntity
  8
M0
 62
     1
100
AcDbCircle
 10
226.464867
 20
565.451072
 40
1.0
100
AcDbArc
 50
179.999126
 51
270.0
  0
ARC
  5
1DB
100
AcDbEntity
  8
M0
 62
     1
100
AcDbCircle
 10
227.964869
 20
566.951072
 40
0.5
100
AcDbArc
 50
270.0
 51
360.0
  0
ARC
  5
1DC
100
AcDbEntity
  8
M0
 62
     1
100
AcDbCircle
 10
226.46487
 20
567.451072
 40
1.0
100
AcDbArc
 50
179.999126
 51
270.0
  0
LINE
  5
1DD
100
AcDbEntity
  8
M0
 62
     1
100
AcDbLine
 10
227.964876
 20
571.451072
 11
226.464877
 21
571.451072
  0
ARC
  5
1DE
100
AcDbEntity
  8
M0
 62
     1
100
AcDbCircle
 10
226.464878
 20
572.451072
 40
1.0
100
AcDbArc
 50
179.999126
 51
270.0
  0
ARC
  5
1DF
100
AcDbEntity
  8
M0
 62
     1
100
AcDbCircle
 10
227.964877
 20
571.951072
 40
0.5
100
AcDbArc
 50
270.0
 51
360.0
  0
LINE
  5
1E0
100
AcDbEntity
  8
M0
 62
     1
100
AcDbLine
 10
217.464864
 20
563.451087
 11
217.46489
 21
580.251105
  0
LINE
  5
1E1
100
AcDbEntity
  8
M0
 62
     1
100
AcDbLine
 10
224.407131
 20
567.451072
 11
225.46484
 21
567.451072
  0
LINE
  5
1E2
100
AcDbEntity
  8
M0
 62
     1
100
AcDbLine
 10
225.464851
 20
574.451072
 11
224.715538
 21
574.450828
  0
LINE
  5
1E3
100
AcDbEntity
  8
M0
 62
     1
100
AcDbLine
 10
218.21392
 20
574.450843
 11
217.464851
 21
574.451087
  0
LINE
  5
1E4
100
AcDbEntity
  8
M0
 62
     1
100
AcDbLine
 10
214.464844
 20
570.451087
 11
214.464874
 21
580.251105
  0
LINE
  5
1E5
100
AcDbEntity
  8
M0
 62
     1
100
AcDbLine
 10
216.464873
 20
569.451087
 11
215.464873
 21
569.451087
  0
ARC
  5
1E6
100
AcDbEntity
  8
M0
 62
     1
100
AcDbCircle
 10
216.464875
 20
570.451087
 40
1.0
100
AcDbArc
 50
270.0
 51
360.0
  0
ARC
  5
1E7
100
AcDbEntity
  8
M0
 62
     1
100
AcDbCircle
 10
215.464875
 20
570.451087
 40
1.0
100
AcDbArc
 50
179.999126
 51
270.0
  0
LINE
  5
1E8
100
AcDbEntity
  8
M0
 62
     1
100
AcDbLine
 10
206.464917
 20
571.951118
 11
206.464932
 21
582.951102
  0
LINE
  5
1E9
100
AcDbEntity
  8
M0
 62
     1
100
AcDbLine
 10
213.405937
 20
574.451087
 11
214.464882
 21
574.451087
  0
LINE
  5
1EA
100
AcDbEntity
  8
M0
 62
     1
100
AcDbLine
 10
208.464886
 20
567.451102
 11
208.464886
 21
567.636893
  0
LINE
  5
1EB
100
AcDbEntity
  8
M0
 62
     1
100
AcDbLine
 10
207.464902
 20
563.451102
 11
207.464902
 21
574.632987
  0
LINE
  5
1EC
100
AcDbEntity
  8
M0
 62
     1
100
AcDbLine
 10
215.464864
 20
563.451087
 11
215.464873
 21
569.451087
  0
LINE
  5
1ED
100
AcDbEntity
  8
M0
 62
     1
100
AcDbLine
 10
217.46484
 20
567.451087
 11
218.522167
 21
567.451087
  0
LINE
  5
1EE
100
AcDbEntity
  8
M0
 62
     1
100
AcDbLine
 10
207.464917
 20
568.951102
 11
203.964917
 21
568.951102
  0
LINE
  5
1EF
100
AcDbEntity
  8
M0
 62
     1
100
AcDbLine
 10
207.464917
 20
570.951102
 11
203.964917
 21
570.951102
  0
LINE
  5
1F0
100
AcDbEntity
  8
M0
 62
     1
100
AcDbLine
 10
206.464917
 20
572.451102
 11
206.464932
 21
582.951102
  0
ARC
  5
1F1
100
AcDbEntity
  8
M0
 62
     1
100
AcDbCircle
 10
204.964917
 20
571.951102
 40
1.0
100
AcDbArc
 50
179.999126
 51
270.0
  0
ARC
  5
1F2
100
AcDbEntity
  8
M0
 62
     1
100
AcDbCircle
 10
205.464917
 20
571.951102
 40
1.0
100
AcDbArc
 50
270.0
 51
360.0
  0
LINE
  5
1F3
100
AcDbEntity
  8
M0
 62
     1
100
AcDbLine
 10
204.464902
 20
563.451102
 11
204.464917
 21
568.951102
  0
ARC
  5
1F4
100
AcDbEntity
  8
M0
 62
     1
100
AcDbCircle
 10
207.964932
 20
581.451102
 40
1.499996
100
AcDbArc
 50
89.999417
 51
119.925542
  0
LINE
  5
1F5
100
AcDbEntity
  8
M0
 62
     1
100
AcDbLine
 10
206.314923
 20
590.451102
 11
204.814923
 21
588.951118
  0
LINE
  5
1F6
100
AcDbEntity
  8
M0
 62
     1
100
AcDbLine
 10
206.314923
 20
590.451102
 11
204.814923
 21
591.951095
  0
LINE
  5
1F7
100
AcDbEntity
  8
M0
 62
     1
100
AcDbLine
 10
203.964947
 20
588.951102
 11
203.964947
 21
592.451096
  0
LINE
  5
1F8
100
AcDbEntity
  8
M0
 62
     1
100
AcDbLine
 10
212.814927
 20
599.451081
 11
212.814934
 21
603.951081
  0
LINE
  5
1F9
100
AcDbEntity
  8
M0
 62
     1
100
AcDbLine
 10
224.609925
 20
599.451063
 11
224.609933
 21
603.951063
  0
LINE
  5
1FA
100
AcDbEntity
  8
M0
 62
     1
100
AcDbLine
 10
206.314954
 20
603.951058
 11
206.314954
 21
588.950828
  0
LINE
  5
1FB
100
AcDbEntity
  8
M0
 62
     1
100
AcDbLine
 10
204.814923
 20
588.950828
 11
203.964963
 21
588.951072
  0
LINE
  5
1FC
100
AcDbEntity
  8
M0
 62
     1
100
AcDbLine
 10
204.814938
 20
591.950813
 11
203.964963
 21
591.951058
  0
LINE
  5
1FD
100
AcDbEntity
  8
M0
 62
     1
100
AcDbLine
 10
206.314908
 20
587.201102
 11
203.964932
 21
587.201102
  0
LINE
  5
1FE
100
AcDbEntity
  8
M0
 62
     1
100
AcDbLine
 10
206.314923
 20
593.701092
 11
203.964947
 21
593.701096
  0
LINE
  5
1FF
100
AcDbEntity
  8
M0
 62
     1
100
AcDbLine
 10
190.464947
 20
588.865333
 11
190.464947
 21
591.036918
  0
LINE
  5
200
100
AcDbEntity
  8
M0
 62
     1
100
AcDbLine
 10
194.964947
 20
588.865333
 11
194.964947
 21
591.03691
  0
LINE
  5
201
100
AcDbEntity
  8
M0
 62
     1
100
AcDbLine
 10
200.964947
 20
588.951102
 11
200.964947
 21
590.9511
  0
LINE
  5
202
100
AcDbEntity
  8
M0
 62
     1
100
AcDbLine
 10
187.964917
 20
570.951133
 11
187.964917
 21
573.451133
  0
LINE
  5
203
100
AcDbEntity
  8
M0
 62
     1
100
AcDbLine
 10
190.964932
 20
584.951118
 11
190.563733
 21
584.950873
  0
LINE
  5
204
100
AcDbEntity
  8
M0
 62
     1
100
AcDbLine
 10
178.464932
 20
584.951148
 11
178.063733
 21
584.950904
  0
ARC
  5
205
100
AcDbEntity
  8
M0
 62
     1
100
AcDbCircle
 10
168.914944
 20
583.451163
 40
1.499996
100
AcDbArc
 50
50.758901
 51
68.48984
  0
ARC
  5
206
100
AcDbEntity
  8
M0
 62
     1
100
AcDbCircle
 10
179.01492
 20
583.451148
 40
1.499996
100
AcDbArc
 50
111.509618
 51
129.359081
  0
ARC
  5
207
100
AcDbEntity
  8
M0
 62
     1
100
AcDbCircle
 10
181.414975
 20
583.451133
 40
1.499996
100
AcDbArc
 50
50.759721
 51
68.48984
  0
ARC
  5
208
100
AcDbEntity
  8
M0
 62
     1
100
AcDbCircle
 10
204.01492
 20
583.451102
 40
1.499996
100
AcDbArc
 50
111.509618
 51
129.359901
  0
ARC
  5
209
100
AcDbEntity
  8
M0
 62
     1
100
AcDbCircle
 10
193.914944
 20
583.451118
 40
1.499996
100
AcDbArc
 50
50.759721
 51
68.48984
  0
LINE
  5
20A
100
AcDbEntity
  8
M0
 62
     1
100
AcDbLine
 10
203.464932
 20
584.951102
 11
203.063702
 21
584.950858
  0
LINE
  5
20B
100
AcDbEntity
  8
M0
 62
     1
100
AcDbLine
 10
214.407146
 20
567.451087
 11
215.46484
 21
567.451087
  0
LINE
  5
20C
100
AcDbEntity
  8
M0
 62
     1
100
AcDbLine
 10
194.214917
 20
569.951118
 11
194.214917
 21
574.451118
  0
LINE
  5
20D
100
AcDbEntity
  8
M0
 62
     1
100
AcDbLine
 10
186.964917
 20
569.951133
 11
165.964886
 21
569.951163
  0
LINE
  5
20E
100
AcDbEntity
  8
M0
 62
     1
100
AcDbLine
 10
191.464917
 20
575.451118
 11
189.964917
 21
575.451118
  0
ARC
  5
20F
100
AcDbEntity
  8
M0
 62
     1
100
AcDbCircle
 10
189.964917
 20
573.451118
 40
1.999995
100
AcDbArc
 50
89.999563
 51
179.999563
  0
ARC
  5
210
100
AcDbEntity
  8
M0
 62
     1
100
AcDbCircle
 10
186.964917
 20
570.951133
 40
1.0
100
AcDbArc
 50
270.0
 51
360.0
  0
ARC
  5
211
100
AcDbEntity
  8
M0
 62
     1
100
AcDbCircle
 10
193.214917
 20
574.451118
 40
1.0
100
AcDbArc
 50
0.0
 51
41.409629
  0
LINE
  5
212
100
AcDbEntity
  8
M0
 62
     1
100
AcDbLine
 10
167.964963
 20
604.951153
 11
165.964932
 21
604.951156
  0
ARC
  5
213
100
AcDbEntity
  8
M0
 62
     1
100
AcDbCircle
 10
167.964963
 20
603.951153
 40
1.0
100
AcDbArc
 50
0.0
 51
89.999126
  0
LINE
  5
214
100
AcDbEntity
  8
M0
 62
     1
100
AcDbLine
 10
228.464932
 20
606.951057
 11
219.964933
 21
606.95107
  0
LINE
  5
215
100
AcDbEntity
  8
M0
 62
     1
100
AcDbLine
 10
218.96493
 20
605.151084
 11
218.964931
 21
605.951072
  0
LINE
  5
216
100
AcDbEntity
  8
M0
 62
     1
100
AcDbLine
 10
218.96493
 20
604.951084
 11
193.964978
 21
604.951124
  0
ARC
  5
217
100
AcDbEntity
  8
M0
 62
     1
100
AcDbCircle
 10
219.964931
 20
605.95107
 40
1.0
100
AcDbArc
 50
90.0
 51
179.999962
  0
LINE
  5
218
100
AcDbEntity
  8
M0
 62
     1
100
AcDbLine
 10
191.464978
 20
604.951067
 11
181.464963
 21
604.950838
  0
LINE
  5
219
100
AcDbEntity
  8
M0
 62
     1
100
AcDbLine
 10
219.614927
 20
597.901129
 11
219.614928
 21
598.401129
  0
LINE
  5
21A
100
AcDbEntity
  8
M0
 62
     1
100
AcDbLine
 10
221.114927
 20
597.901127
 11
219.614927
 21
597.901129
  0
LINE
  5
21B
100
AcDbEntity
  8
M0
 62
     1
100
AcDbLine
 10
221.114928
 20
598.401127
 11
219.614928
 21
598.401129
  0
LINE
  5
21C
100
AcDbEntity
  8
M0
 62
     1
100
AcDbLine
 10
205.464902
 20
566.451102
 11
205.464917
 21
568.951102
  0
LINE
  5
21D
100
AcDbEntity
  8
M0
 62
     1
100
AcDbLine
 10
207.464917
 20
565.451102
 11
204.464902
 21
565.451102
  0
ARC
  5
21E
100
AcDbEntity
  8
M0
 62
     1
100
AcDbCircle
 10
206.464902
 20
566.451102
 40
1.0
100
AcDbArc
 50
179.999126
 51
270.0
  0
ARC
  5
21F
100
AcDbEntity
  8
M0
 62
     1
100
AcDbCircle
 10
206.464902
 20
566.451102
 40
1.0
100
AcDbArc
 50
270.0
 51
360.0
  0
LINE
  5
220
100
AcDbEntity
  8
M0
 62
     1
100
AcDbLine
 10
221.114926
 20
596.996418
 11
221.114927
 21
597.901127
  0
LINE
  5
221
100
AcDbEntity
  8
M0
 62
     1
100
AcDbLine
 10
221.114928
 20
598.401127
 11
221.11493
 21
599.305851
  0
TEXT
  5
222
100
AcDbEntity
  8
M0
 62
     1
100
AcDbText
 10
173.31516
 20
586.30152
 40
2.800003
  1
２
 50
359.999928
 41
0.535719
  7
STANDARD
100
AcDbText
  0
TEXT
  5
223
100
AcDbEntity
  8
M0
 62
     1
100
AcDbText
 10
185.81516
 20
586.301505
 40
2.800003
  1
４
 50
359.999928
 41
0.535719
  7
STANDARD
100
AcDbText
  0
TEXT
  5
224
100
AcDbEntity
  8
M0
 62
     1
100
AcDbText
 10
198.314992
 20
586.30149
 40
2.800003
  1
６
 50
359.999928
 41
0.535719
  7
STANDARD
100
AcDbText
  0
TEXT
  5
225
100
AcDbEntity
  8
M0
 62
     1
100
AcDbText
 10
227.764943
 20
583.565809
 40
1.800003
  1
ＡＵＴＯ
 50
450.000566
 41
0.63658
  7
STANDARD
100
AcDbText
  0
CIRCLE
  5
226
100
AcDbEntity
  8
M0
 62
     1
100
AcDbCircle
 10
226.76491
 20
590.451072
 40
0.749999
  0
LINE
  5
227
100
AcDbEntity
  8
M0
 62
     1
100
AcDbLine
 10
223.114959
 20
598.151138
 11
221.114926
 21
596.996418
  0
LINE
  5
228
100
AcDbEntity
  8
M0
 62
     1
100
AcDbLine
 10
223.114959
 20
598.151138
 11
221.11493
 21
599.305851
  0
LINE
  5
229
100
AcDbEntity
  8
M0
 62
     1
100
AcDbLine
 10
169.863736
 20
584.950919
 11
169.464932
 21
584.951163
  0
LINE
  5
22A
100
AcDbEntity
  8
M0
 62
     1
100
AcDbLine
 10
182.363736
 20
584.950889
 11
181.964932
 21
584.951133
  0
LINE
  5
22B
100
AcDbEntity
  8
M0
 62
     1
100
AcDbLine
 10
194.863705
 20
584.950873
 11
194.464932
 21
584.951118
  0
ARC
  5
22C
100
AcDbEntity
  8
M0
 62
     1
100
AcDbCircle
 10
191.512448
 20
583.450873
 40
1.499994
100
AcDbArc
 50
111.509618
 51
129.239827
  0
LINE
  5
22D
100
AcDbEntity
  8
M0
 62
     1
100
AcDbLine
 10
208.965298
 20
606.9464
 11
204.965298
 21
606.946406
  0
ARC
  5
22E
100
AcDbEntity
  8
M0
 62
     1
100
AcDbCircle
 10
204.965298
 20
605.946406
 40
1.0
100
AcDbArc
 50
89.999126
 51
179.999945
  0
ARC
  5
22F
100
AcDbEntity
  8
M0
 62
     1
100
AcDbCircle
 10
208.965298
 20
605.946401
 40
1.0
100
AcDbArc
 50
0.0
 51
89.999126
  0
LINE
  5
230
100
AcDbEntity
  8
M0
 62
     1
100
AcDbLine
 10
203.965298
 20
605.946408
 11
203.965298
 21
604.946408
  0
LINE
  5
231
100
AcDbEntity
  8
M0
 62
     1
100
AcDbLine
 10
209.965298
 20
605.946399
 11
209.965298
 21
604.946399
  0
LINE
  5
232
100
AcDbEntity
  8
M0
 62
     1
100
AcDbLine
 10
179.964978
 20
606.951057
 11
180.464978
 21
606.951057
  0
LINE
  5
233
100
AcDbEntity
  8
M0
 62
     1
100
AcDbLine
 10
179.365018
 20
606.751105
 11
177.214978
 21
606.751138
  0
LINE
  5
234
100
AcDbEntity
  8
M0
 62
     1
100
AcDbLine
 10
206.314954
 20
588.950828
 11
206.314908
 21
582.951102
  0
LINE
  5
235
100
AcDbEntity
  8
M0
 62
     1
100
AcDbLine
 10
208.964947
 20
582.951102
 11
203.964932
 21
582.951102
  0
TEXT
  5
236
100
AcDbEntity
  8
M0
 62
     1
100
AcDbText
 10
212.314983
 20
598.16578
 40
1.800003
  1
ＴＲＩＰ
 50
450.000566
 41
0.63658
  7
STANDARD
100
AcDbText
  0
CIRCLE
  5
237
100
AcDbEntity
  8
M0
 62
     1
100
AcDbCircle
 10
216.313875
 20
590.451316
 40
8.299999
  0
LINE
  5
238
100
AcDbEntity
  8
M0
 62
     1
100
AcDbLine
 10
206.764951
 20
585.451072
 11
206.764951
 21
601.051045
  0
LINE
  5
239
100
AcDbEntity
  8
M0
 62
     1
100
AcDbLine
 10
203.464947
 20
604.951041
 11
203.464947
 21
603.751041
  0
LINE
  5
23A
100
AcDbEntity
  8
M0
 62
     1
100
AcDbLine
 10
203.464947
 20
582.751044
 11
203.464947
 21
581.551047
  0
LINE
  5
23B
100
AcDbEntity
  8
M0
 62
     1
100
AcDbLine
 10
203.464947
 20
582.751044
 11
208.964947
 21
582.75106
  0
LINE
  5
23C
100
AcDbEntity
  8
M0
 62
     1
100
AcDbLine
 10
203.464947
 20
603.751041
 11
208.964947
 21
603.751045
  0
LINE
  5
23D
100
AcDbEntity
  8
M0
 62
     1
100
AcDbLine
 10
214.264949
 20
580.25106
 11
218.264949
 21
580.25106
  0
LINE
  5
23E
100
AcDbEntity
  8
M0
 62
     1
100
AcDbLine
 10
220.464947
 20
581.551063
 11
218.264949
 21
580.25106
  0
LINE
  5
23F
100
AcDbEntity
  8
M0
 62
     1
100
AcDbLine
 10
214.264949
 20
580.25106
 11
211.464947
 21
581.551063
  0
LINE
  5
240
100
AcDbEntity
  8
M0
 62
     1
100
AcDbLine
 10
211.464947
 20
581.551063
 11
203.464947
 21
581.551047
  0
LINE
  5
241
100
AcDbEntity
  8
M0
 62
     1
100
AcDbLine
 10
227.964947
 20
581.551078
 11
220.464947
 21
581.551063
  0
ARC
  5
242
100
AcDbEntity
  8
M0
 62
     1
100
AcDbCircle
 10
227.964947
 20
582.051078
 40
0.5
100
AcDbArc
 50
270.0
 51
360.0
  0
LINE
  5
243
100
AcDbEntity
  8
M0
 62
     1
100
AcDbLine
 10
213.692354
 20
602.563838
 11
215.692354
 21
602.563838
  0
LINE
  5
244
100
AcDbEntity
  8
M0
 62
     1
100
AcDbLine
 10
216.813844
 20
600.301305
 11
220.813844
 21
600.301305
  0
LINE
  5
245
100
AcDbEntity
  8
M0
 62
     1
100
AcDbLine
 10
220.813844
 20
600.301305
 11
220.813844
 21
603.101304
  0
LINE
  5
246
100
AcDbEntity
  8
M0
 62
     1
100
AcDbLine
 10
220.813844
 20
603.101304
 11
216.813844
 21
603.101304
  0
LINE
  5
247
100
AcDbEntity
  8
M0
 62
     1
100
AcDbLine
 10
216.813844
 20
603.101304
 11
216.813844
 21
600.301305
  0
LINE
  5
248
100
AcDbEntity
  8
M0
 62
     1
100
AcDbLine
 10
228.464947
 20
582.051078
 11
228.464933
 21
604.451058
  0
LINE
  5
249
100
AcDbEntity
  8
M0
 62
     1
100
AcDbLine
 10
227.964932
 20
604.951058
 11
203.464947
 21
604.951041
  0
ARC
  5
24A
100
AcDbEntity
  8
M0
 62
     1
100
AcDbCircle
 10
227.964933
 20
604.451058
 40
0.5
100
AcDbArc
 50
0.0
 51
90.0
  0
LINE
  5
24B
100
AcDbEntity
  8
M0
 62
     1
100
AcDbLine
 10
208.964947
 20
582.75106
 11
208.964947
 21
584.451072
  0
LINE
  5
24C
100
AcDbEntity
  8
M0
 62
     1
100
AcDbLine
 10
206.764951
 20
585.451072
 11
207.964947
 21
585.451072
  0
ARC
  5
24D
100
AcDbEntity
  8
M0
 62
     1
100
AcDbCircle
 10
207.964947
 20
584.451072
 40
1.0
100
AcDbArc
 50
0.0
 51
89.999126
  0
LINE
  5
24E
100
AcDbEntity
  8
M0
 62
     1
100
AcDbLine
 10
206.764951
 20
601.051045
 11
207.964947
 21
601.051045
  0
LINE
  5
24F
100
AcDbEntity
  8
M0
 62
     1
100
AcDbLine
 10
208.964947
 20
602.051045
 11
208.964947
 21
603.751045
  0
ARC
  5
250
100
AcDbEntity
  8
M0
 62
     1
100
AcDbCircle
 10
207.964947
 20
602.051045
 40
1.0
100
AcDbArc
 50
270.0
 51
360.0
  0
CIRCLE
  5
251
100
AcDbEntity
  8
M0
 62
     1
100
AcDbCircle
 10
216.264942
 20
590.25106
 40
4.25
  0
CIRCLE
  5
252
100
AcDbEntity
  8
M0
 62
     1
100
AcDbCircle
 10
221.463762
 20
578.451072
 40
2.999997
  0
LINE
  5
253
100
AcDbEntity
  8
M0
 62
     1
100
AcDbLine
 10
218.504778
 20
574.503821
 11
217.688616
 21
577.151145
  0
LINE
  5
254
100
AcDbEntity
  8
M0
 62
     1
100
AcDbLine
 10
224.683567
 20
581.551093
 11
225.238664
 21
579.751121
  0
LINE
  5
255
100
AcDbEntity
  8
M0
 62
     1
100
AcDbLine
 10
224.422258
 20
574.503806
 11
225.238664
 21
577.151145
  0
LINE
  5
256
100
AcDbEntity
  8
M0
 62
     1
100
AcDbLine
 10
218.982805
 20
574.151145
 11
223.944475
 21
574.151145
  0
LINE
  5
257
100
AcDbEntity
  8
M0
 62
     1
100
AcDbLine
 10
225.238664
 20
577.151145
 11
225.238664
 21
579.751121
  0
LINE
  5
258
100
AcDbEntity
  8
M0
 62
     1
100
AcDbLine
 10
217.688616
 20
580.25109
 11
217.688616
 21
577.151145
  0
LINE
  5
259
100
AcDbEntity
  8
M0
 62
     1
100
AcDbLine
 10
223.054338
 20
576.860252
 11
219.872698
 21
580.042014
  0
LINE
  5
25A
100
AcDbEntity
  8
M0
 62
     1
100
AcDbLine
 10
221.817034
 20
579.865256
 11
220.049455
 21
578.097556
  0
LINE
  5
25B
100
AcDbEntity
  8
M0
 62
     1
100
AcDbLine
 10
222.87758
 20
578.804587
 11
221.110002
 21
577.037009
  0
ARC
  5
25C
100
AcDbEntity
  8
M0
 62
     1
100
AcDbCircle
 10
218.982805
 20
574.651145
 40
0.5
100
AcDbArc
 50
197.127379
 51
270.0
  0
ARC
  5
25D
100
AcDbEntity
  8
M0
 62
     1
100
AcDbCircle
 10
223.944475
 20
574.651145
 40
0.5
100
AcDbArc
 50
270.0
 51
342.861758
  0
ARC
  5
25E
100
AcDbEntity
  8
M0
 62
     1
100
AcDbCircle
 10
221.464967
 20
571.451072
 40
2.999997
100
AcDbArc
 50
115.844027
 51
424.15628
  0
LINE
  5
25F
100
AcDbEntity
  8
M0
 62
     1
100
AcDbLine
 10
218.367479
 20
574.948875
 11
217.689821
 21
572.751121
  0
LINE
  5
260
100
AcDbEntity
  8
M0
 62
     1
100
AcDbLine
 10
218.505983
 20
567.503821
 11
217.689821
 21
570.151145
  0
LINE
  5
261
100
AcDbEntity
  8
M0
 62
     1
100
AcDbLine
 10
224.560793
 20
574.953025
 11
225.23987
 21
572.751121
  0
LINE
  5
262
100
AcDbEntity
  8
M0
 62
     1
100
AcDbLine
 10
224.423464
 20
567.503806
 11
225.23987
 21
570.151145
  0
LINE
  5
263
100
AcDbEntity
  8
M0
 62
     1
100
AcDbLine
 10
218.98401
 20
567.151145
 11
223.94568
 21
567.151145
  0
LINE
  5
264
100
AcDbEntity
  8
M0
 62
     1
100
AcDbLine
 10
225.23987
 20
570.151145
 11
225.23987
 21
572.751121
  0
LINE
  5
265
100
AcDbEntity
  8
M0
 62
     1
100
AcDbLine
 10
217.689821
 20
572.751121
 11
217.689821
 21
570.151145
  0
LINE
  5
266
100
AcDbEntity
  8
M0
 62
     1
100
AcDbLine
 10
223.055544
 20
569.860252
 11
219.873903
 21
573.042014
  0
LINE
  5
267
100
AcDbEntity
  8
M0
 62
     1
100
AcDbLine
 10
221.818239
 20
572.865256
 11
220.050661
 21
571.097556
  0
LINE
  5
268
100
AcDbEntity
  8
M0
 62
     1
100
AcDbLine
 10
222.878786
 20
571.804587
 11
221.111208
 21
570.037009
  0
ARC
  5
269
100
AcDbEntity
  8
M0
 62
     1
100
AcDbCircle
 10
218.98401
 20
567.651145
 40
0.5
100
AcDbArc
 50
197.127379
 51
270.0
  0
ARC
  5
26A
100
AcDbEntity
  8
M0
 62
     1
100
AcDbCircle
 10
223.94568
 20
567.651145
 40
0.5
100
AcDbArc
 50
270.0
 51
342.861758
  0
ARC
  5
26B
100
AcDbEntity
  8
M0
 62
     1
100
AcDbCircle
 10
211.464993
 20
571.451072
 40
2.999997
100
AcDbArc
 50
115.843797
 51
424.156412
  0
LINE
  5
26C
100
AcDbEntity
  8
M0
 62
     1
100
AcDbLine
 10
208.121472
 20
574.151023
 11
207.689847
 21
572.751121
  0
LINE
  5
26D
100
AcDbEntity
  8
M0
 62
     1
100
AcDbLine
 10
208.506009
 20
567.503821
 11
207.689847
 21
570.151145
  0
LINE
  5
26E
100
AcDbEntity
  8
M0
 62
     1
100
AcDbLine
 10
214.423479
 20
567.503806
 11
215.051653
 21
569.540671
  0
LINE
  5
26F
100
AcDbEntity
  8
M0
 62
     1
100
AcDbLine
 10
208.984036
 20
567.151145
 11
213.945696
 21
567.151145
  0
LINE
  5
270
100
AcDbEntity
  8
M0
 62
     1
100
AcDbLine
 10
207.689847
 20
572.751121
 11
207.689847
 21
570.151145
  0
LINE
  5
271
100
AcDbEntity
  8
M0
 62
     1
100
AcDbLine
 10
213.055559
 20
569.860252
 11
209.873929
 21
573.042014
  0
LINE
  5
272
100
AcDbEntity
  8
M0
 62
     1
100
AcDbLine
 10
211.818265
 20
572.865256
 11
210.050687
 21
571.097556
  0
LINE
  5
273
100
AcDbEntity
  8
M0
 62
     1
100
AcDbLine
 10
212.878801
 20
571.804587
 11
211.111233
 21
570.037009
  0
ARC
  5
274
100
AcDbEntity
  8
M0
 62
     1
100
AcDbCircle
 10
208.984036
 20
567.651145
 40
0.5
100
AcDbArc
 50
197.127669
 51
270.0
  0
ARC
  5
275
100
AcDbEntity
  8
M0
 62
     1
100
AcDbCircle
 10
213.945696
 20
567.651145
 40
0.5
100
AcDbArc
 50
270.0
 51
342.861758
  0
CIRCLE
  5
276
100
AcDbEntity
  8
M0
 62
     1
100
AcDbCircle
 10
210.463773
 20
578.451072
 40
2.999997
  0
LINE
  5
277
100
AcDbEntity
  8
M0
 62
     1
100
AcDbLine
 10
207.243558
 20
581.551093
 11
206.688626
 21
579.751121
  0
LINE
  5
278
100
AcDbEntity
  8
M0
 62
     1
100
AcDbLine
 10
207.504788
 20
574.503821
 11
206.688626
 21
577.151145
  0
LINE
  5
279
100
AcDbEntity
  8
M0
 62
     1
100
AcDbLine
 10
213.422258
 20
574.503806
 11
214.238664
 21
577.151145
  0
LINE
  5
27A
100
AcDbEntity
  8
M0
 62
     1
100
AcDbLine
 10
207.982815
 20
574.151145
 11
212.944475
 21
574.151145
  0
LINE
  5
27B
100
AcDbEntity
  8
M0
 62
     1
100
AcDbLine
 10
214.238664
 20
577.151145
 11
214.238664
 21
580.25109
  0
LINE
  5
27C
100
AcDbEntity
  8
M0
 62
     1
100
AcDbLine
 10
206.688626
 20
579.751121
 11
206.688626
 21
577.151145
  0
LINE
  5
27D
100
AcDbEntity
  8
M0
 62
     1
100
AcDbLine
 10
212.054349
 20
576.860252
 11
208.872708
 21
580.042014
  0
LINE
  5
27E
100
AcDbEntity
  8
M0
 62
     1
100
AcDbLine
 10
210.817044
 20
579.865256
 11
209.049466
 21
578.097556
  0
LINE
  5
27F
100
AcDbEntity
  8
M0
 62
     1
100
AcDbLine
 10
211.877591
 20
578.804587
 11
210.110013
 21
577.037009
  0
ARC
  5
280
100
AcDbEntity
  8
M0
 62
     1
100
AcDbCircle
 10
207.982815
 20
574.651145
 40
0.5
100
AcDbArc
 50
197.127669
 51
270.0
  0
ARC
  5
281
100
AcDbEntity
  8
M0
 62
     1
100
AcDbCircle
 10
212.944475
 20
574.651145
 40
0.5
100
AcDbArc
 50
270.0
 51
342.861758
  0
LINE
  5
282
100
AcDbEntity
  8
M0
 62
     1
100
AcDbLine
 10
198.002881
 20
582.412162
 11
199.847729
 21
580.567329
  0
LINE
  5
283
100
AcDbEntity
  8
M0
 62
     1
100
AcDbLine
 10
199.974606
 20
583.169273
 11
197.399533
 21
580.594199
  0
LINE
  5
284
100
AcDbEntity
  8
M0
 62
     1
100
AcDbLine
 10
200.681714
 20
582.462165
 11
198.106641
 21
579.887092
  0
LINE
  5
285
100
AcDbEntity
  8
M0
 62
     1
100
AcDbLine
 10
195.863751
 20
576.651313
 11
202.063748
 21
576.651313
  0
LINE
  5
286
100
AcDbEntity
  8
M0
 62
     1
100
AcDbLine
 10
203.063748
 20
577.651298
 11
203.063748
 21
585.251273
  0
LINE
  5
287
100
AcDbEntity
  8
M0
 62
     1
100
AcDbLine
 10
194.863751
 20
585.251288
 11
194.863751
 21
577.651313
  0
CIRCLE
  5
288
100
AcDbEntity
  8
M0
 62
     1
100
AcDbCircle
 10
198.963757
 20
581.451316
 40
3.499993
  0
ARC
  5
289
100
AcDbEntity
  8
M0
 62
     1
100
AcDbCircle
 10
202.063748
 20
577.651313
 40
1.0
100
AcDbArc
 50
270.0
 51
360.0
  0
ARC
  5
28A
100
AcDbEntity
  8
M0
 62
     1
100
AcDbCircle
 10
202.063748
 20
585.251121
 40
1.0
100
AcDbArc
 50
0.0
 51
89.999126
  0
ARC
  5
28B
100
AcDbEntity
  8
M0
 62
     1
100
AcDbCircle
 10
195.863751
 20
585.251121
 40
1.0
100
AcDbArc
 50
89.999126
 51
179.999126
  0
ARC
  5
28C
100
AcDbEntity
  8
M0
 62
     1
100
AcDbCircle
 10
195.863751
 20
577.651313
 40
1.0
100
AcDbArc
 50
179.999126
 51
270.0
  0
LINE
  5
28D
100
AcDbEntity
  8
M0
 62
     1
100
AcDbLine
 10
195.863751
 20
586.251304
 11
202.063748
 21
586.251304
  0
LINE
  5
28E
100
AcDbEntity
  8
M0
 62
     1
100
AcDbLine
 10
185.502911
 20
582.412162
 11
187.34776
 21
580.567329
  0
LINE
  5
28F
100
AcDbEntity
  8
M0
 62
     1
100
AcDbLine
 10
187.474637
 20
583.169273
 11
184.899564
 21
580.594199
  0
LINE
  5
290
100
AcDbEntity
  8
M0
 62
     1
100
AcDbLine
 10
188.181744
 20
582.462165
 11
185.606671
 21
579.887092
  0
LINE
  5
291
100
AcDbEntity
  8
M0
 62
     1
100
AcDbLine
 10
183.363782
 20
576.651313
 11
189.563779
 21
576.651313
  0
LINE
  5
292
100
AcDbEntity
  8
M0
 62
     1
100
AcDbLine
 10
190.563779
 20
577.651298
 11
190.563779
 21
585.251273
  0
LINE
  5
293
100
AcDbEntity
  8
M0
 62
     1
100
AcDbLine
 10
182.363782
 20
585.251288
 11
182.363782
 21
577.651313
  0
CIRCLE
  5
294
100
AcDbEntity
  8
M0
 62
     1
100
AcDbCircle
 10
186.463788
 20
581.451316
 40
3.499993
  0
ARC
  5
295
100
AcDbEntity
  8
M0
 62
     1
100
AcDbCircle
 10
189.563779
 20
577.651313
 40
1.0
100
AcDbArc
 50
270.0
 51
360.0
  0
ARC
  5
296
100
AcDbEntity
  8
M0
 62
     1
100
AcDbCircle
 10
189.563779
 20
585.251121
 40
1.0
100
AcDbArc
 50
0.0
 51
89.999126
  0
ARC
  5
297
100
AcDbEntity
  8
M0
 62
     1
100
AcDbCircle
 10
183.363782
 20
585.251121
 40
1.0
100
AcDbArc
 50
89.999126
 51
179.999126
  0
ARC
  5
298
100
AcDbEntity
  8
M0
 62
     1
100
AcDbCircle
 10
183.363782
 20
577.651313
 40
1.0
100
AcDbArc
 50
179.999126
 51
270.0
  0
LINE
  5
299
100
AcDbEntity
  8
M0
 62
     1
100
AcDbLine
 10
183.363782
 20
586.251304
 11
189.563779
 21
586.251304
  0
ARC
  5
29A
100
AcDbEntity
  8
M0
 62
     1
100
AcDbCircle
 10
183.363782
 20
592.151454
 40
1.0
100
AcDbArc
 50
179.999945
 51
270.0
  0
LINE
  5
29B
100
AcDbEntity
  8
M0
 62
     1
100
AcDbLine
 10
182.363782
 20
592.151286
 11
182.363782
 21
599.751262
  0
ARC
  5
29C
100
AcDbEntity
  8
M0
 62
     1
100
AcDbCircle
 10
183.363782
 20
599.751262
 40
1.0
100
AcDbArc
 50
89.999126
 51
179.999945
  0
LINE
  5
29D
100
AcDbEntity
  8
M0
 62
     1
100
AcDbLine
 10
183.363782
 20
600.751262
 11
189.563779
 21
600.751262
  0
ARC
  5
29E
100
AcDbEntity
  8
M0
 62
     1
100
AcDbCircle
 10
189.563779
 20
599.751262
 40
1.0
100
AcDbArc
 50
0.0
 51
89.999126
  0
LINE
  5
29F
100
AcDbEntity
  8
M0
 62
     1
100
AcDbLine
 10
190.563779
 20
599.751277
 11
190.563779
 21
592.151301
  0
ARC
  5
2A0
100
AcDbEntity
  8
M0
 62
     1
100
AcDbCircle
 10
189.563779
 20
592.151454
 40
1.0
100
AcDbArc
 50
-90.0
 51
0.0
  0
LINE
  5
2A1
100
AcDbEntity
  8
M0
 62
     1
100
AcDbLine
 10
183.363782
 20
591.151271
 11
189.563779
 21
591.151271
  0
LINE
  5
2A2
100
AcDbEntity
  8
M0
 62
     1
100
AcDbLine
 10
173.002911
 20
582.412162
 11
174.84776
 21
580.567329
  0
LINE
  5
2A3
100
AcDbEntity
  8
M0
 62
     1
100
AcDbLine
 10
174.974637
 20
583.169273
 11
172.399564
 21
580.594199
  0
LINE
  5
2A4
100
AcDbEntity
  8
M0
 62
     1
100
AcDbLine
 10
175.681744
 20
582.462165
 11
173.106671
 21
579.887092
  0
LINE
  5
2A5
100
AcDbEntity
  8
M0
 62
     1
100
AcDbLine
 10
178.063779
 20
577.651298
 11
178.063779
 21
585.251273
  0
LINE
  5
2A6
100
AcDbEntity
  8
M0
 62
     1
100
AcDbLine
 10
169.863782
 20
585.251288
 11
169.863782
 21
577.651313
  0
CIRCLE
  5
2A7
100
AcDbEntity
  8
M0
 62
     1
100
AcDbCircle
 10
173.963788
 20
581.451316
 40
3.499993
  0
ARC
  5
2A8
100
AcDbEntity
  8
M0
 62
     1
100
AcDbCircle
 10
177.063779
 20
577.651313
 40
1.0
100
AcDbArc
 50
270.0
 51
360.0
  0
ARC
  5
2A9
100
AcDbEntity
  8
M0
 62
     1
100
AcDbCircle
 10
177.063779
 20
585.251121
 40
1.0
100
AcDbArc
 50
0.0
 51
89.999126
  0
ARC
  5
2AA
100
AcDbEntity
  8
M0
 62
     1
100
AcDbCircle
 10
170.863782
 20
585.251121
 40
1.0
100
AcDbArc
 50
89.999126
 51
179.999126
  0
ARC
  5
2AB
100
AcDbEntity
  8
M0
 62
     1
100
AcDbCircle
 10
170.863782
 20
577.651313
 40
1.0
100
AcDbArc
 50
179.999126
 51
270.0
  0
LINE
  5
2AC
100
AcDbEntity
  8
M0
 62
     1
100
AcDbLine
 10
170.863782
 20
586.251304
 11
177.063779
 21
586.251304
  0
ARC
  5
2AD
100
AcDbEntity
  8
M0
 62
     1
100
AcDbCircle
 10
170.863782
 20
592.151454
 40
1.0
100
AcDbArc
 50
179.999945
 51
270.0
  0
LINE
  5
2AE
100
AcDbEntity
  8
M0
 62
     1
100
AcDbLine
 10
169.863782
 20
592.151286
 11
169.863782
 21
599.751262
  0
ARC
  5
2AF
100
AcDbEntity
  8
M0
 62
     1
100
AcDbCircle
 10
170.863782
 20
599.751262
 40
1.0
100
AcDbArc
 50
89.999126
 51
179.999945
  0
LINE
  5
2B0
100
AcDbEntity
  8
M0
 62
     1
100
AcDbLine
 10
170.863782
 20
600.751262
 11
177.063779
 21
600.751262
  0
ARC
  5
2B1
100
AcDbEntity
  8
M0
 62
     1
100
AcDbCircle
 10
177.063779
 20
599.751262
 40
1.0
100
AcDbArc
 50
0.0
 51
89.999126
  0
LINE
  5
2B2
100
AcDbEntity
  8
M0
 62
     1
100
AcDbLine
 10
178.063779
 20
599.751277
 11
178.063779
 21
592.151301
  0
ARC
  5
2B3
100
AcDbEntity
  8
M0
 62
     1
100
AcDbCircle
 10
177.063779
 20
592.151454
 40
1.0
100
AcDbArc
 50
-90.0
 51
0.0
  0
LINE
  5
2B4
100
AcDbEntity
  8
M0
 62
     1
100
AcDbLine
 10
170.863782
 20
591.151271
 11
177.063779
 21
591.151271
  0
ARC
  5
2B5
100
AcDbEntity
  8
M0
 62
     1
100
AcDbCircle
 10
202.063702
 20
599.751247
 40
1.0
100
AcDbArc
 50
0.0
 51
89.999126
  0
LINE
  5
2B6
100
AcDbEntity
  8
M0
 62
     1
100
AcDbLine
 10
203.063702
 20
592.151256
 11
203.063702
 21
599.751231
  0
ARC
  5
2B7
100
AcDbEntity
  8
M0
 62
     1
100
AcDbCircle
 10
202.063702
 20
592.151439
 40
1.0
100
AcDbArc
 50
270.0
 51
360.0
  0
LINE
  5
2B8
100
AcDbEntity
  8
M0
 62
     1
100
AcDbLine
 10
202.063702
 20
591.151256
 11
195.863705
 21
591.151256
  0
ARC
  5
2B9
100
AcDbEntity
  8
M0
 62
     1
100
AcDbCircle
 10
195.863705
 20
592.151439
 40
1.0
100
AcDbArc
 50
179.999945
 51
270.0
  0
LINE
  5
2BA
100
AcDbEntity
  8
M0
 62
     1
100
AcDbLine
 10
194.863705
 20
599.751262
 11
194.863705
 21
592.151286
  0
ARC
  5
2BB
100
AcDbEntity
  8
M0
 62
     1
100
AcDbCircle
 10
195.863705
 20
599.751247
 40
1.0
100
AcDbArc
 50
89.999126
 51
179.999945
  0
LINE
  5
2BC
100
AcDbEntity
  8
M0
 62
     1
100
AcDbLine
 10
202.063702
 20
600.751247
 11
195.863705
 21
600.751247
  0
LINE
  5
2BD
100
AcDbEntity
  8
M0
 62
     1
100
AcDbLine
 10
173.002911
 20
596.91215
 11
174.84776
 21
595.067317
  0
LINE
  5
2BE
100
AcDbEntity
  8
M0
 62
     1
100
AcDbLine
 10
174.974637
 20
597.669261
 11
172.399564
 21
595.094188
  0
LINE
  5
2BF
100
AcDbEntity
  8
M0
 62
     1
100
AcDbLine
 10
175.681744
 20
596.962154
 11
173.106671
 21
594.38708
  0
CIRCLE
  5
2C0
100
AcDbEntity
  8
M0
 62
     1
100
AcDbCircle
 10
173.963788
 20
595.951305
 40
3.499993
  0
LINE
  5
2C1
100
AcDbEntity
  8
M0
 62
     1
100
AcDbLine
 10
185.502896
 20
596.91215
 11
187.347745
 21
595.067317
  0
LINE
  5
2C2
100
AcDbEntity
  8
M0
 62
     1
100
AcDbLine
 10
187.474622
 20
597.669261
 11
184.899548
 21
595.094188
  0
LINE
  5
2C3
100
AcDbEntity
  8
M0
 62
     1
100
AcDbLine
 10
188.181729
 20
596.962154
 11
185.606656
 21
594.38708
  0
CIRCLE
  5
2C4
100
AcDbEntity
  8
M0
 62
     1
100
AcDbCircle
 10
186.463773
 20
595.951305
 40
3.499993
  0
LINE
  5
2C5
100
AcDbEntity
  8
M0
 62
     1
100
AcDbLine
 10
198.002866
 20
596.91215
 11
199.847714
 21
595.067317
  0
LINE
  5
2C6
100
AcDbEntity
  8
M0
 62
     1
100
AcDbLine
 10
199.974591
 20
597.669261
 11
197.399518
 21
595.094188
  0
LINE
  5
2C7
100
AcDbEntity
  8
M0
 62
     1
100
AcDbLine
 10
200.681699
 20
596.962154
 11
198.106625
 21
594.38708
  0
CIRCLE
  5
2C8
100
AcDbEntity
  8
M0
 62
     1
100
AcDbCircle
 10
198.963742
 20
595.951305
 40
3.499993
  0
LINE
  5
2C9
100
AcDbEntity
  8
M0
 62
     1
100
AcDbLine
 10
217.222743
 20
590.366843
 11
217.222743
 21
592.755991
  0
LINE
  5
2CA
100
AcDbEntity
  8
M0
 62
     1
100
AcDbLine
 10
217.222758
 20
592.756235
 11
215.520015
 21
592.756235
  0
LINE
  5
2CB
100
AcDbEntity
  8
M0
 62
     1
100
AcDbLine
 10
215.520015
 20
592.755991
 11
215.520015
 21
590.367332
  0
LINE
  5
2CC
100
AcDbEntity
  8
M0
 62
     1
100
AcDbLine
 10
216.371379
 20
587.977683
 11
214.717128
 21
590.36782
  0
LINE
  5
2CD
100
AcDbEntity
  8
M0
 62
     1
100
AcDbLine
 10
216.371379
 20
587.977683
 11
218.025645
 21
590.367087
  0
LINE
  5
2CE
100
AcDbEntity
  8
M0
 62
     1
100
AcDbLine
 10
214.717128
 20
590.36782
 11
215.519999
 21
590.367576
  0
LINE
  5
2CF
100
AcDbEntity
  8
M0
 62
     1
100
AcDbLine
 10
218.025645
 20
590.367087
 11
217.222743
 21
590.367087
  0
LINE
  5
2D0
100
AcDbEntity
  8
M0
  6
DASHDOT
 62
     1
100
AcDbLine
 10
207.039654
 20
590.451316
 11
225.588105
 21
590.451316
  0
LINE
  5
2D1
100
AcDbEntity
  8
M0
  6
DASHDOT
 62
     1
100
AcDbLine
 10
216.313875
 20
581.177085
 11
216.313875
 21
599.725535
  0
LINE
  5
2D2
100
AcDbEntity
  8
M0
 62
     1
100
AcDbLine
 10
170.863782
 20
576.651313
 11
177.063779
 21
576.651313
  0
LINE
  5
2D3
100
AcDbEntity
  8
M0
 62
   114
100
AcDbLine
 10
207.814053
 20
521.451301
 11
207.814053
 21
567.451087
  0
LINE
  5
2D4
100
AcDbEntity
  8
M0
 62
   114
100
AcDbLine
 10
207.814053
 20
667.451301
 11
167.814053
 21
667.451301
  0
LINE
  5
2D5
100
AcDbEntity
  8
M0
 62
   114
100
AcDbLine
 10
167.814053
 20
667.451301
 11
167.814053
 21
605.250846
  0
LINE
  5
2D6
100
AcDbEntity
  8
M0
 62
   114
100
AcDbLine
 10
167.814053
 20
521.451301
 11
207.814053
 21
521.451301
  0
LINE
  5
2D7
100
AcDbEntity
  8
M0
 62
   114
100
AcDbLine
 10
207.814053
 20
627.451301
 11
167.814053
 21
627.451301
  0
LINE
  5
2D8
100
AcDbEntity
  8
M0
  6
DASHDOT
 62
   114
100
AcDbLine
 10
171.653378
 20
537.451301
 11
203.621871
 21
537.451301
  0
CIRCLE
  5
2D9
100
AcDbEntity
  8
M0
 62
   114
100
AcDbCircle
 10
187.814053
 20
653.451301
 40
6.5
  0
LINE
  5
2DA
100
AcDbEntity
  8
M0
  6
DASHDOT
 62
   114
100
AcDbLine
 10
177.314053
 20
653.451301
 11
198.314053
 21
653.451301
  0
LINE
  5
2DB
100
AcDbEntity
  8
M0
  6
DASHED
 62
   114
100
AcDbLine
 10
207.814053
 20
633.951301
 11
167.814053
 21
633.951301
  0
LINE
  5
2DC
100
AcDbEntity
  8
M0
 62
   114
100
AcDbLine
 10
167.814053
 20
569.951133
 11
167.814053
 21
521.451301
  0
LINE
  5
2DD
100
AcDbEntity
  8
M0
 62
   114
100
AcDbLine
 10
207.814053
 20
606.946372
 11
207.814053
 21
667.451301
  0
LINE
  5
2DE
100
AcDbEntity
  8
M0
 62
   234
100
AcDbLine
 10
277.814053
 20
521.451301
 11
277.814053
 21
570.451301
  0
LINE
  5
2DF
100
AcDbEntity
  8
M0
 62
   234
100
AcDbLine
 10
277.814053
 20
667.451301
 11
237.814053
 21
667.451301
  0
LINE
  5
2E0
100
AcDbEntity
  8
M0
 62
   234
100
AcDbLine
 10
237.814053
 20
667.451301
 11
237.814053
 21
611.45127
  0
LINE
  5
2E1
100
AcDbEntity
  8
M0
 62
   234
100
AcDbLine
 10
237.814053
 20
521.451301
 11
277.814053
 21
521.451301
  0
LINE
  5
2E2
100
AcDbEntity
  8
M0
  6
DASHDOT
 62
   234
100
AcDbLine
 10
257.814053
 20
511.451301
 11
257.814053
 21
677.451301
  0
LINE
  5
2E3
100
AcDbEntity
  8
M0
 62
   234
100
AcDbLine
 10
277.814053
 20
627.451301
 11
237.814053
 21
627.451301
  0
LINE
  5
2E4
100
AcDbEntity
  8
M0
  6
DASHDOT
 62
   234
100
AcDbLine
 10
243.11696
 20
537.451301
 11
272.640059
 21
537.451301
  0
CIRCLE
  5
2E5
100
AcDbEntity
  8
M0
 62
   234
100
AcDbCircle
 10
257.814053
 20
653.451301
 40
6.5
  0
LINE
  5
2E6
100
AcDbEntity
  8
M0
  6
DASHDOT
 62
   234
100
AcDbLine
 10
247.314053
 20
653.451301
 11
268.314053
 21
653.451301
  0
LINE
  5
2E7
100
AcDbEntity
  8
M0
  6
DASHDOT
 62
   234
100
AcDbLine
 10
250.314053
 20
616.451301
 11
265.314053
 21
616.451301
  0
LINE
  5
2E8
100
AcDbEntity
  8
M0
  6
DASHED
 62
   234
100
AcDbLine
 10
277.814053
 20
633.951301
 11
237.814053
 21
633.951301
  0
LINE
  5
2E9
100
AcDbEntity
  8
M0
 62
   234
100
AcDbLine
 10
277.814053
 20
611.45127
 11
277.814053
 21
667.451301
  0
LINE
  5
2EA
100
AcDbEntity
  8
M0
 62
   234
100
AcDbLine
 10
237.814053
 20
570.451301
 11
237.814053
 21
521.451301
  0
LINE
  5
2EB
100
AcDbEntity
  8
M0
 62
   234
100
AcDbLine
 10
97.814053
 20
521.451301
 11
97.814053
 21
570.451301
  0
LINE
  5
2EC
100
AcDbEntity
  8
M0
 62
   234
100
AcDbLine
 10
97.814053
 20
667.451301
 11
137.814053
 21
667.451301
  0
LINE
  5
2ED
100
AcDbEntity
  8
M0
 62
   234
100
AcDbLine
 10
137.814053
 20
667.451301
 11
137.814053
 21
611.45127
  0
LINE
  5
2EE
100
AcDbEntity
  8
M0
 62
   234
100
AcDbLine
 10
137.814053
 20
521.451301
 11
97.814053
 21
521.451301
  0
LINE
  5
2EF
100
AcDbEntity
  8
M0
  6
DASHDOT
 62
   234
100
AcDbLine
 10
117.814053
 20
511.451301
 11
117.814053
 21
677.451301
  0
LINE
  5
2F0
100
AcDbEntity
  8
M0
 62
   234
100
AcDbLine
 10
97.814053
 20
627.451301
 11
137.814053
 21
627.451301
  0
LINE
  5
2F1
100
AcDbEntity
  8
M0
  6
DASHDOT
 62
   234
100
AcDbLine
 10
133.438143
 20
537.451301
 11
101.837095
 21
537.451301
  0
CIRCLE
  5
2F2
100
AcDbEntity
  8
M0
 62
   234
100
AcDbCircle
 10
117.814053
 20
653.451301
 40
6.5
  0
LINE
  5
2F3
100
AcDbEntity
  8
M0
  6
DASHDOT
 62
   234
100
AcDbLine
 10
128.314053
 20
653.451301
 11
107.314053
 21
653.451301
  0
LINE
  5
2F4
100
AcDbEntity
  8
M0
  6
DASHDOT
 62
   234
100
AcDbLine
 10
125.314053
 20
616.451301
 11
110.314053
 21
616.451301
  0
LINE
  5
2F5
100
AcDbEntity
  8
M0
  6
DASHED
 62
   234
100
AcDbLine
 10
97.814053
 20
633.951301
 11
137.814053
 21
633.951301
  0
LINE
  5
2F6
100
AcDbEntity
  8
M0
 62
   234
100
AcDbLine
 10
137.814053
 20
570.451301
 11
137.814053
 21
521.451301
  0
LINE
  5
2F7
100
AcDbEntity
  8
M0
 62
   234
100
AcDbLine
 10
97.814053
 20
611.45127
 11
97.814053
 21
667.451301
  0
LINE
  5
2F8
100
AcDbEntity
  8
M0
 62
     1
100
AcDbLine
 10
246.52116
 20
599.451301
 11
248.617092
 21
601.547233
  0
LINE
  5
2F9
100
AcDbEntity
  8
M0
 62
     1
100
AcDbLine
 10
243.718111
 20
596.648252
 11
245.814053
 21
598.744194
  0
LINE
  5
2FA
100
AcDbEntity
  8
M0
 62
     1
100
AcDbLine
 10
245.106947
 20
599.451301
 11
243.011003
 21
597.355358
  0
LINE
  5
2FB
100
AcDbEntity
  8
M0
 62
     1
100
AcDbLine
 10
247.909985
 20
602.254339
 11
245.814053
 21
600.158407
  0
LINE
  5
2FC
100
AcDbEntity
  8
M0
 62
     1
100
AcDbLine
 10
245.814053
 20
600.158407
 11
244.718004
 21
601.254458
  0
LINE
  5
2FD
100
AcDbEntity
  8
M0
 62
     1
100
AcDbLine
 10
247.617209
 20
598.355251
 11
246.52116
 21
599.451301
  0
LINE
  5
2FE
100
AcDbEntity
  8
M0
 62
     1
100
AcDbLine
 10
245.814053
 20
598.744194
 11
246.910103
 21
597.648144
  0
LINE
  5
2FF
100
AcDbEntity
  8
M0
 62
     1
100
AcDbLine
 10
244.010897
 20
600.54735
 11
245.106947
 21
599.451301
  0
CIRCLE
  5
300
100
AcDbEntity
  8
M0
 62
     1
100
AcDbCircle
 10
245.814053
 20
599.451301
 40
3.5
  0
LINE
  5
301
100
AcDbEntity
  8
M0
 62
     1
100
AcDbLine
 10
246.910103
 20
597.648144
 11
247.617209
 21
598.355251
  0
LINE
  5
302
100
AcDbEntity
  8
M0
 62
     1
100
AcDbLine
 10
244.718004
 20
601.254458
 11
244.010897
 21
600.54735
  0
CIRCLE
  5
303
100
AcDbEntity
  8
M0
 62
     1
100
AcDbCircle
 10
245.814053
 20
599.451301
 40
3.799995
  0
CIRCLE
  5
304
100
AcDbEntity
  8
M0
 62
     1
100
AcDbCircle
 10
245.814053
 20
599.451301
 40
4.0
  0
LINE
  5
305
100
AcDbEntity
  8
M0
  6
DASHDOT
 62
     1
100
AcDbLine
 10
240.187603
 20
599.451301
 11
251.440504
 21
599.451301
  0
LINE
  5
306
100
AcDbEntity
  8
M0
  6
DASHDOT
 62
     1
100
AcDbLine
 10
245.814053
 20
593.82485
 11
245.814053
 21
605.077751
  0
LINE
  5
307
100
AcDbEntity
  8
M0
 62
     1
100
AcDbLine
 10
270.52116
 20
599.451301
 11
272.617092
 21
601.547233
  0
LINE
  5
308
100
AcDbEntity
  8
M0
 62
     1
100
AcDbLine
 10
267.718111
 20
596.648252
 11
269.814053
 21
598.744194
  0
LINE
  5
309
100
AcDbEntity
  8
M0
 62
     1
100
AcDbLine
 10
269.106947
 20
599.451301
 11
267.011003
 21
597.355358
  0
LINE
  5
30A
100
AcDbEntity
  8
M0
 62
     1
100
AcDbLine
 10
271.909985
 20
602.254339
 11
269.814053
 21
600.158407
  0
LINE
  5
30B
100
AcDbEntity
  8
M0
 62
     1
100
AcDbLine
 10
269.814053
 20
600.158407
 11
268.718004
 21
601.254458
  0
LINE
  5
30C
100
AcDbEntity
  8
M0
 62
     1
100
AcDbLine
 10
271.617209
 20
598.355251
 11
270.52116
 21
599.451301
  0
LINE
  5
30D
100
AcDbEntity
  8
M0
 62
     1
100
AcDbLine
 10
269.814053
 20
598.744194
 11
270.910103
 21
597.648144
  0
LINE
  5
30E
100
AcDbEntity
  8
M0
 62
     1
100
AcDbLine
 10
268.010897
 20
600.54735
 11
269.106947
 21
599.451301
  0
CIRCLE
  5
30F
100
AcDbEntity
  8
M0
 62
     1
100
AcDbCircle
 10
269.814053
 20
599.451301
 40
3.5
  0
LINE
  5
310
100
AcDbEntity
  8
M0
 62
     1
100
AcDbLine
 10
270.910103
 20
597.648144
 11
271.617209
 21
598.355251
  0
LINE
  5
311
100
AcDbEntity
  8
M0
 62
     1
100
AcDbLine
 10
268.718004
 20
601.254458
 11
268.010897
 21
600.54735
  0
CIRCLE
  5
312
100
AcDbEntity
  8
M0
 62
     1
100
AcDbCircle
 10
269.814053
 20
599.451301
 40
3.799995
  0
CIRCLE
  5
313
100
AcDbEntity
  8
M0
 62
     1
100
AcDbCircle
 10
269.814053
 20
599.451301
 40
4.0
  0
LINE
  5
314
100
AcDbEntity
  8
M0
  6
DASHDOT
 62
     1
100
AcDbLine
 10
264.187603
 20
599.451301
 11
275.440504
 21
599.451301
  0
LINE
  5
315
100
AcDbEntity
  8
M0
  6
DASHDOT
 62
     1
100
AcDbLine
 10
269.814053
 20
593.82485
 11
269.814053
 21
605.077751
  0
LINE
  5
316
100
AcDbEntity
  8
M0
 62
     1
100
AcDbLine
 10
363.634137
 20
581.750053
 11
363.634137
 21
582.950049
  0
LINE
  5
317
100
AcDbEntity
  8
M0
 62
     1
100
AcDbLine
 10
363.634137
 20
603.950028
 11
363.634137
 21
605.150025
  0
LINE
  5
318
100
AcDbEntity
  8
M0
 62
     1
100
AcDbLine
 10
379.134122
 20
581.750053
 11
363.634137
 21
581.750053
  0
LINE
  5
319
100
AcDbEntity
  8
M0
 62
     1
100
AcDbLine
 10
379.134122
 20
605.150025
 11
363.634137
 21
605.150025
  0
LINE
  5
31A
100
AcDbEntity
  8
M0
 62
     1
100
AcDbLine
 10
379.134122
 20
582.950049
 11
375.334119
 21
582.950049
  0
LINE
  5
31B
100
AcDbEntity
  8
M0
 62
     1
100
AcDbLine
 10
379.134122
 20
582.950049
 11
379.134122
 21
581.750053
  0
LINE
  5
31C
100
AcDbEntity
  8
M0
 62
     1
100
AcDbLine
 10
366.634122
 20
583.650046
 11
370.784116
 21
583.650046
  0
LINE
  5
31D
100
AcDbEntity
  8
M0
 62
     1
100
AcDbLine
 10
366.634122
 20
603.250032
 11
370.784116
 21
603.250032
  0
LINE
  5
31E
100
AcDbEntity
  8
M0
 62
     1
100
AcDbLine
 10
366.634122
 20
603.250032
 11
366.634122
 21
583.650046
  0
LINE
  5
31F
100
AcDbEntity
  8
M0
 62
     1
100
AcDbLine
 10
375.334119
 20
605.950028
 11
375.334119
 21
581.750053
  0
LINE
  5
320
100
AcDbEntity
  8
M0
 62
     1
100
AcDbLine
 10
379.134122
 20
605.150025
 11
379.134122
 21
603.950028
  0
LINE
  5
321
100
AcDbEntity
  8
M0
 62
     1
100
AcDbLine
 10
366.334119
 20
605.150025
 11
366.334119
 21
606.450028
  0
LINE
  5
322
100
AcDbEntity
  8
M0
 62
     1
100
AcDbLine
 10
366.334119
 20
606.450028
 11
374.834119
 21
606.450028
  0
LINE
  5
323
100
AcDbEntity
  8
M0
 62
     1
100
AcDbLine
 10
379.134122
 20
603.950028
 11
375.334119
 21
603.950028
  0
LINE
  5
324
100
AcDbEntity
  8
M0
 62
     1
100
AcDbLine
 10
370.784116
 20
582.950049
 11
363.634137
 21
582.950049
  0
LINE
  5
325
100
AcDbEntity
  8
M0
 62
     1
100
AcDbLine
 10
370.784116
 20
603.950028
 11
363.634137
 21
603.950028
  0
ARC
  5
326
100
AcDbEntity
  8
M0
 62
     1
100
AcDbCircle
 10
370.784116
 20
603.600038
 40
0.35
100
AcDbArc
 50
270.0
 51
360.0
  0
ARC
  5
327
100
AcDbEntity
  8
M0
 62
     1
100
AcDbCircle
 10
370.784116
 20
603.600038
 40
0.35
100
AcDbArc
 50
0.0
 51
89.997502
  0
ARC
  5
328
100
AcDbEntity
  8
M0
 62
     1
100
AcDbCircle
 10
370.784116
 20
583.30004
 40
0.35
100
AcDbArc
 50
270.0
 51
360.0
  0
ARC
  5
329
100
AcDbEntity
  8
M0
 62
     1
100
AcDbCircle
 10
370.784116
 20
583.30004
 40
0.35
100
AcDbArc
 50
0.0
 51
89.997502
  0
ARC
  5
32A
100
AcDbEntity
  8
M0
 62
     1
100
AcDbCircle
 10
374.834119
 20
605.950028
 40
0.5
100
AcDbArc
 50
0.0
 51
89.998251
  0
LINE
  5
32B
100
AcDbEntity
  8
M0
 62
     1
100
AcDbLine
 10
365.137479
 20
587.200584
 11
366.634122
 21
587.200584
  0
LINE
  5
32C
100
AcDbEntity
  8
M0
 62
     1
100
AcDbLine
 10
366.634
 20
593.700578
 11
365.137479
 21
593.700578
  0
LINE
  5
32D
100
AcDbEntity
  8
M0
 62
     1
100
AcDbLine
 10
364.637479
 20
593.200333
 11
364.637479
 21
587.700584
  0
ARC
  5
32E
100
AcDbEntity
  8
M0
 62
     1
100
AcDbCircle
 10
365.137494
 20
593.200333
 40
0.5
100
AcDbArc
 50
89.998251
 51
179.999891
  0
ARC
  5
32F
100
AcDbEntity
  8
M0
 62
     1
100
AcDbCircle
 10
365.137494
 20
587.700584
 40
0.5
100
AcDbArc
 50
179.998251
 51
270.0
  0
LINE
  5
330
100
AcDbEntity
  8
M0
 62
     1
100
AcDbLine
 10
437.133414
 20
568.950461
 11
437.133572
 21
581.451331
  0
LINE
  5
331
100
AcDbEntity
  8
M0
 62
     1
100
AcDbLine
 10
362.134061
 20
604.951385
 11
362.133878
 21
588.951316
  0
LINE
  5
332
100
AcDbEntity
  8
M0
 62
     1
100
AcDbLine
 10
381.552884
 20
569.451163
 11
405.169507
 21
569.450858
  0
ARC
  5
333
100
AcDbEntity
  8
M0
 62
     1
100
AcDbCircle
 10
364.134076
 20
604.95136
 40
2.0
100
AcDbArc
 50
89.999563
 51
179.999962
  0
LINE
  5
334
100
AcDbEntity
  8
M0
 62
     1
100
AcDbLine
 10
366.633847
 20
582.951362
 11
366.633878
 21
586.201362
  0
LINE
  5
335
100
AcDbEntity
  8
M0
 62
     1
100
AcDbLine
 10
388.434094
 20
606.95107
 11
364.076489
 21
606.951379
  0
LINE
  5
336
100
AcDbEntity
  8
M0
 62
     1
100
AcDbLine
 10
378.954831
 20
570.951194
 11
373.651074
 21
570.95127
  0
LINE
  5
337
100
AcDbEntity
  8
M0
 62
     1
100
AcDbLine
 10
368.455716
 20
581.750083
 11
370.753323
 21
573.174842
  0
ARC
  5
338
100
AcDbEntity
  8
M0
 62
     1
100
AcDbCircle
 10
373.651105
 20
573.95127
 40
3.0
100
AcDbArc
 50
194.999447
 51
270.0
  0
LINE
  5
339
100
AcDbEntity
  8
M0
 62
     1
100
AcDbLine
 10
375.955624
 20
581.750083
 11
378.655118
 21
571.67475
  0
ARC
  5
33A
100
AcDbEntity
  8
M0
 62
     1
100
AcDbCircle
 10
381.552914
 20
572.451163
 40
3.0
100
AcDbArc
 50
194.998884
 51
270.0
  0
LINE
  5
33B
100
AcDbEntity
  8
M0
 62
     1
100
AcDbLine
 10
366.634
 20
594.701347
 11
366.634091
 21
602.951347
  0
ARC
  5
33C
100
AcDbEntity
  8
M0
 62
     1
100
AcDbCircle
 10
367.634091
 20
602.951335
 40
1.0
100
AcDbArc
 50
89.999126
 51
179.999945
  0
LINE
  5
33D
100
AcDbEntity
  8
M0
 62
     1
100
AcDbLine
 10
362.133908
 20
590.951115
 11
364.63754
 21
590.951083
  0
LINE
  5
33E
100
AcDbEntity
  8
M0
 62
     1
100
AcDbLine
 10
362.133878
 20
588.951133
 11
364.63754
 21
588.951087
  0
LINE
  5
33F
100
AcDbEntity
  8
M0
 62
     1
100
AcDbLine
 10
380.481152
 20
573.451179
 11
390.133664
 21
573.451057
  0
ARC
  5
340
100
AcDbEntity
  8
M0
 62
     1
100
AcDbCircle
 10
380.481183
 20
576.451179
 40
3.0
100
AcDbArc
 50
194.999447
 51
270.0
  0
LINE
  5
341
100
AcDbEntity
  8
M0
 62
     1
100
AcDbLine
 10
393.133649
 20
571.451011
 11
404.633618
 21
571.450873
  0
LINE
  5
342
100
AcDbEntity
  8
M0
 62
     1
100
AcDbLine
 10
407.507962
 20
566.450843
 11
411.333554
 21
566.450782
  0
LINE
  5
343
100
AcDbEntity
  8
M0
 62
     1
100
AcDbLine
 10
408.409863
 20
562.450828
 11
424.727371
 21
562.450614
  0
ARC
  5
344
100
AcDbEntity
  8
M0
 62
     1
100
AcDbCircle
 10
388.434064
 20
604.950994
 40
2.0
100
AcDbArc
 50
14.333164
 51
89.999563
  0
LINE
  5
345
100
AcDbEntity
  8
M0
 62
     1
100
AcDbLine
 10
426.459416
 20
563.450599
 11
429.634931
 21
568.950553
  0
ARC
  5
346
100
AcDbEntity
  8
M0
 62
     1
100
AcDbCircle
 10
424.727388
 20
564.450614
 40
2.0
100
AcDbArc
 50
270.0
 51
329.999445
  0
ARC
  5
347
100
AcDbEntity
  8
M0
 62
     1
100
AcDbCircle
 10
407.507993
 20
568.450843
 40
2.0
100
AcDbArc
 50
194.999701
 51
270.0
  0
LINE
  5
348
100
AcDbEntity
  8
M0
 62
     1
100
AcDbLine
 10
414.333524
 20
564.450751
 11
425.882106
 21
564.450599
  0
ARC
  5
349
100
AcDbEntity
  8
M0
 62
     1
100
AcDbCircle
 10
425.882123
 20
566.450599
 40
2.0
100
AcDbArc
 50
270.0
 51
329.999445
  0
LINE
  5
34A
100
AcDbEntity
  8
M0
 62
     1
100
AcDbLine
 10
405.133633
 20
568.950858
 11
393.133603
 21
568.951011
  0
LINE
  5
34B
100
AcDbEntity
  8
M0
 62
     1
100
AcDbLine
 10
392.383618
 20
569.451026
 11
393.133603
 21
568.951011
  0
LINE
  5
34C
100
AcDbEntity
  8
M0
 62
     1
100
AcDbLine
 10
390.133664
 20
573.451057
 11
393.133649
 21
571.451011
  0
LINE
  5
34D
100
AcDbEntity
  8
M0
 62
     1
100
AcDbLine
 10
429.63494
 20
568.950553
 11
437.133581
 21
568.950461
  0
LINE
  5
34E
100
AcDbEntity
  8
M0
 62
     1
100
AcDbLine
 10
426.45944
 20
563.450599
 11
432.133512
 21
563.450523
  0
LINE
  5
34F
100
AcDbEntity
  8
M0
 62
     1
100
AcDbLine
 10
434.133537
 20
565.450492
 11
434.133582
 21
568.950492
  0
ARC
  5
350
100
AcDbEntity
  8
M0
 62
     1
100
AcDbCircle
 10
432.133537
 20
565.450523
 40
2.0
100
AcDbArc
 50
270.0
 51
360.0
  0
LINE
  5
351
100
AcDbEntity
  8
M0
 62
     1
100
AcDbLine
 10
411.333554
 20
566.450782
 11
414.333524
 21
564.450751
  0
LINE
  5
352
100
AcDbEntity
  8
M0
 62
     1
100
AcDbLine
 10
371.992764
 20
571.451285
 11
369.114682
 21
571.451331
  0
LINE
  5
353
100
AcDbEntity
  8
M0
 62
     1
100
AcDbLine
 10
362.133862
 20
588.951331
 11
363.741803
 21
582.95008
  0
ARC
  5
354
100
AcDbEntity
  8
M0
 62
     1
100
AcDbCircle
 10
369.124722
 20
574.451301
 40
3.0
100
AcDbArc
 50
194.998884
 51
270.0
  0
LINE
  5
355
100
AcDbEntity
  8
M0
 62
     1
100
AcDbLine
 10
405.133603
 20
568.950919
 11
406.478024
 21
563.933204
  0
LINE
  5
356
100
AcDbEntity
  8
M0
 62
     1
100
AcDbLine
 10
404.633633
 20
571.450873
 11
405.576138
 21
567.933219
  0
ARC
  5
357
100
AcDbEntity
  8
M0
 62
     1
100
AcDbCircle
 10
408.409878
 20
564.450828
 40
2.0
100
AcDbArc
 50
194.999166
 51
270.0
  0
LINE
  5
358
100
AcDbEntity
  8
M0
 62
     1
100
AcDbLine
 10
427.93386
 20
605.45004
 11
380.133008
 21
605.449833
  0
LINE
  5
359
100
AcDbEntity
  8
M0
 62
     1
100
AcDbLine
 10
380.133008
 20
605.450077
 11
379.633023
 21
603.949596
  0
LINE
  5
35A
100
AcDbEntity
  8
M0
 62
     1
100
AcDbLine
 10
379.633359
 20
603.950084
 11
367.634106
 21
603.951335
  0
LINE
  5
35B
100
AcDbEntity
  8
M0
 62
     1
100
AcDbLine
 10
364.063336
 20
581.750083
 11
366.226941
 21
573.674888
  0
LINE
  5
35C
100
AcDbEntity
  8
M0
 62
     6
100
AcDbLine
 10
457.633923
 20
526.501288
 11
467.633923
 21
526.501288
  0
LINE
  5
35D
100
AcDbEntity
  8
M0
 62
     6
100
AcDbLine
 10
467.634167
 20
526.501304
 11
467.634167
 21
548.401298
  0
LINE
  5
35E
100
AcDbEntity
  8
M0
 62
     6
100
AcDbLine
 10
457.634167
 20
548.401252
 11
457.634167
 21
526.501273
  0
LINE
  5
35F
100
AcDbEntity
  8
M0
 62
     6
100
AcDbLine
 10
467.633923
 20
531.976264
 11
457.633923
 21
531.976264
  0
LINE
  5
360
100
AcDbEntity
  8
M0
 62
     6
100
AcDbLine
 10
457.633679
 20
548.401282
 11
467.633923
 21
548.401282
  0
LINE
  5
361
100
AcDbEntity
  8
M0
 62
     6
100
AcDbLine
 10
467.633923
 20
542.926276
 11
457.633679
 21
542.926276
  0
LINE
  5
362
100
AcDbEntity
  8
M0
 62
     6
100
AcDbLine
 10
470.633923
 20
524.451285
 11
472.933926
 21
524.451285
  0
LINE
  5
363
100
AcDbEntity
  8
M0
 62
     6
100
AcDbLine
 10
472.933926
 20
524.451285
 11
472.933926
 21
550.451285
  0
LINE
  5
364
100
AcDbEntity
  8
M0
 62
     6
100
AcDbLine
 10
472.933926
 20
550.451285
 11
470.633923
 21
550.451285
  0
LINE
  5
365
100
AcDbEntity
  8
M0
 62
     6
100
AcDbLine
 10
470.633923
 20
550.451285
 11
470.633923
 21
524.451285
  0
LINE
  5
366
100
AcDbEntity
  8
M0
 62
     6
100
AcDbLine
 10
467.633923
 20
526.701285
 11
470.633923
 21
526.701285
  0
LINE
  5
367
100
AcDbEntity
  8
M0
 62
     6
100
AcDbLine
 10
470.633923
 20
548.201285
 11
467.633923
 21
548.201285
  0
LINE
  5
368
100
AcDbEntity
  8
M0
 62
     6
100
AcDbLine
 10
467.633923
 20
537.451301
 11
470.633923
 21
535.71926
  0
LINE
  5
369
100
AcDbEntity
  8
M0
 62
     6
100
AcDbLine
 10
467.633923
 20
539.183326
 11
470.633923
 21
537.451285
  0
LINE
  5
36A
100
AcDbEntity
  8
M0
 62
     6
100
AcDbLine
 10
444.433926
 20
543.451285
 11
457.634167
 21
543.451285
  0
LINE
  5
36B
100
AcDbEntity
  8
M0
 62
     6
100
AcDbLine
 10
487.433926
 20
531.451285
 11
479.433926
 21
531.451285
  0
LINE
  5
36C
100
AcDbEntity
  8
M0
 62
     6
100
AcDbLine
 10
479.433926
 20
526.488273
 11
479.433926
 21
548.414283
  0
LINE
  5
36D
100
AcDbEntity
  8
M0
 62
     6
100
AcDbLine
 10
479.433926
 20
548.414283
 11
487.433926
 21
548.414283
  0
LINE
  5
36E
100
AcDbEntity
  8
M0
 62
     6
100
AcDbLine
 10
487.433926
 20
548.414283
 11
487.433926
 21
526.488273
  0
LINE
  5
36F
100
AcDbEntity
  8
M0
 62
     6
100
AcDbLine
 10
487.433926
 20
526.488273
 11
479.433926
 21
526.488273
  0
LINE
  5
370
100
AcDbEntity
  8
M0
 62
     6
100
AcDbLine
 10
444.433926
 20
543.451285
 11
444.433926
 21
531.451285
  0
LINE
  5
371
100
AcDbEntity
  8
M0
 62
     6
100
AcDbLine
 10
479.433926
 20
543.451285
 11
487.433926
 21
543.451285
  0
LINE
  5
372
100
AcDbEntity
  8
M0
 62
     6
100
AcDbLine
 10
457.634167
 20
531.451285
 11
444.433926
 21
531.451285
  0
LINE
  5
373
100
AcDbEntity
  8
M0
 62
     6
100
AcDbLine
 10
444.433926
 20
532.451285
 11
457.634167
 21
532.451285
  0
LINE
  5
374
100
AcDbEntity
  8
M0
 62
     6
100
AcDbLine
 10
457.634167
 20
542.451285
 11
444.433926
 21
542.451285
  0
LINE
  5
375
100
AcDbEntity
  8
M0
 62
     6
100
AcDbLine
 10
257.813809
 20
526.501227
 11
248.330899
 21
531.976234
  0
LINE
  5
376
100
AcDbEntity
  8
M0
 62
     6
100
AcDbLine
 10
248.330899
 20
531.976234
 11
248.330899
 21
542.926215
  0
LINE
  5
377
100
AcDbEntity
  8
M0
 62
     6
100
AcDbLine
 10
248.330899
 20
542.926215
 11
257.813809
 21
548.401221
  0
LINE
  5
378
100
AcDbEntity
  8
M0
 62
     6
100
AcDbLine
 10
257.813809
 20
548.401221
 11
267.296963
 21
542.926215
  0
LINE
  5
379
100
AcDbEntity
  8
M0
 62
     6
100
AcDbLine
 10
267.296963
 20
542.926215
 11
267.296963
 21
531.976203
  0
LINE
  5
37A
100
AcDbEntity
  8
M0
 62
     6
100
AcDbLine
 10
267.296963
 20
531.976203
 11
257.813809
 21
526.501227
  0
CIRCLE
  5
37B
100
AcDbEntity
  8
M0
 62
     6
100
AcDbCircle
 10
257.813809
 20
537.451209
 40
6.0
  0
CIRCLE
  5
37C
100
AcDbEntity
  8
M0
 62
     6
100
AcDbCircle
 10
257.814053
 20
537.451301
 40
13.0
  0
CIRCLE
  5
37D
100
AcDbEntity
  8
M0
 62
     6
100
AcDbCircle
 10
257.814053
 20
537.451301
 40
5.0
  0
ARC
  5
37E
100
AcDbEntity
  8
M0
 62
     6
100
AcDbCircle
 10
257.814053
 20
537.451301
 40
10.75
100
AcDbArc
 50
31.90003
 51
88.100807
  0
ARC
  5
37F
100
AcDbEntity
  8
M0
 62
     6
100
AcDbCircle
 10
257.814053
 20
537.451301
 40
10.75
100
AcDbArc
 50
331.900478
 51
388.09947
  0
ARC
  5
380
100
AcDbEntity
  8
M0
 62
     6
100
AcDbCircle
 10
257.814053
 20
537.451301
 40
10.75
100
AcDbArc
 50
271.900651
 51
328.098139
  0
ARC
  5
381
100
AcDbEntity
  8
M0
 62
     6
100
AcDbCircle
 10
257.814053
 20
537.451301
 40
10.75
100
AcDbArc
 50
211.902957
 51
268.096618
  0
ARC
  5
382
100
AcDbEntity
  8
M0
 62
     6
100
AcDbCircle
 10
257.814053
 20
537.451301
 40
10.75
100
AcDbArc
 50
91.901835
 51
148.098501
  0
ARC
  5
383
100
AcDbEntity
  8
M0
 62
     6
100
AcDbCircle
 10
257.814053
 20
537.451301
 40
10.75
100
AcDbArc
 50
151.903243
 51
208.096686
  0
CIRCLE
  5
384
100
AcDbEntity
  8
M0
 62
     7
100
AcDbCircle
 10
257.814053
 20
616.451301
 40
4.5
  0
LINE
  5
385
100
AcDbEntity
  8
M0
 62
     7
100
AcDbLine
 10
258.662655
 20
616.451236
 11
261.391936
 21
619.180517
  0
LINE
  5
386
100
AcDbEntity
  8
M0
 62
     7
100
AcDbLine
 10
255.084826
 20
612.873407
 11
257.814118
 21
615.602699
  0
LINE
  5
387
100
AcDbEntity
  8
M0
 62
     7
100
AcDbLine
 10
256.965635
 20
616.451182
 11
254.23631
 21
613.721857
  0
LINE
  5
388
100
AcDbEntity
  8
M0
 62
     7
100
AcDbLine
 10
260.543475
 20
620.029043
 11
257.814172
 21
617.299719
  0
LINE
  5
389
100
AcDbEntity
  8
M0
 62
     7
100
AcDbLine
 10
257.814118
 20
615.602699
 11
259.086945
 21
614.329872
  0
LINE
  5
38A
100
AcDbEntity
  8
M0
 62
     7
100
AcDbLine
 10
255.692798
 20
617.72402
 11
256.965624
 21
616.451193
  0
LINE
  5
38B
100
AcDbEntity
  8
M0
 62
     7
100
AcDbLine
 10
257.814161
 20
617.29973
 11
256.541335
 21
618.572556
  0
LINE
  5
38C
100
AcDbEntity
  8
M0
 62
     7
100
AcDbLine
 10
259.935481
 20
615.178409
 11
258.662655
 21
616.451236
  0
LINE
  5
38D
100
AcDbEntity
  8
M0
 62
     7
100
AcDbLine
 10
259.086945
 20
614.329872
 11
259.935481
 21
615.178409
  0
LINE
  5
38E
100
AcDbEntity
  8
M0
 62
     7
100
AcDbLine
 10
256.541335
 20
618.572556
 11
255.692798
 21
617.72402
  0
CIRCLE
  5
38F
100
AcDbEntity
  8
M0
 62
     7
100
AcDbCircle
 10
257.814053
 20
616.451301
 40
5.0
  0
LINE
  5
390
100
AcDbEntity
  8
M0
 62
     6
100
AcDbLine
 10
187.813809
 20
526.501227
 11
178.330899
 21
531.976234
  0
LINE
  5
391
100
AcDbEntity
  8
M0
 62
     6
100
AcDbLine
 10
178.330899
 20
531.976234
 11
178.330899
 21
542.926215
  0
LINE
  5
392
100
AcDbEntity
  8
M0
 62
     6
100
AcDbLine
 10
178.330899
 20
542.926215
 11
187.813809
 21
548.401221
  0
LINE
  5
393
100
AcDbEntity
  8
M0
 62
     6
100
AcDbLine
 10
187.813809
 20
548.401221
 11
197.296963
 21
542.926215
  0
LINE
  5
394
100
AcDbEntity
  8
M0
 62
     6
100
AcDbLine
 10
197.296963
 20
542.926215
 11
197.296963
 21
531.976203
  0
LINE
  5
395
100
AcDbEntity
  8
M0
 62
     6
100
AcDbLine
 10
197.296963
 20
531.976203
 11
187.813809
 21
526.501227
  0
CIRCLE
  5
396
100
AcDbEntity
  8
M0
 62
     6
100
AcDbCircle
 10
187.813809
 20
537.451209
 40
6.0
  0
CIRCLE
  5
397
100
AcDbEntity
  8
M0
 62
     6
100
AcDbCircle
 10
187.814053
 20
537.451301
 40
13.0
  0
CIRCLE
  5
398
100
AcDbEntity
  8
M0
 62
     6
100
AcDbCircle
 10
187.814053
 20
537.451301
 40
5.0
  0
ARC
  5
399
100
AcDbEntity
  8
M0
 62
     6
100
AcDbCircle
 10
187.814053
 20
537.451301
 40
10.75
100
AcDbArc
 50
31.90003
 51
88.100807
  0
ARC
  5
39A
100
AcDbEntity
  8
M0
 62
     6
100
AcDbCircle
 10
187.814053
 20
537.451301
 40
10.75
100
AcDbArc
 50
331.900478
 51
388.09947
  0
ARC
  5
39B
100
AcDbEntity
  8
M0
 62
     6
100
AcDbCircle
 10
187.814053
 20
537.451301
 40
10.75
100
AcDbArc
 50
271.900651
 51
328.098139
  0
ARC
  5
39C
100
AcDbEntity
  8
M0
 62
     6
100
AcDbCircle
 10
187.814053
 20
537.451301
 40
10.75
100
AcDbArc
 50
211.902957
 51
268.096618
  0
ARC
  5
39D
100
AcDbEntity
  8
M0
 62
     6
100
AcDbCircle
 10
187.814053
 20
537.451301
 40
10.75
100
AcDbArc
 50
91.901835
 51
148.098501
  0
ARC
  5
39E
100
AcDbEntity
  8
M0
 62
     6
100
AcDbCircle
 10
187.814053
 20
537.451301
 40
10.75
100
AcDbArc
 50
151.903243
 51
208.096686
  0
LINE
  5
39F
100
AcDbEntity
  8
M0
 62
     6
100
AcDbLine
 10
117.813809
 20
526.501227
 11
108.330899
 21
531.976234
  0
LINE
  5
3A0
100
AcDbEntity
  8
M0
 62
     6
100
AcDbLine
 10
108.330899
 20
531.976234
 11
108.330899
 21
542.926215
  0
LINE
  5
3A1
100
AcDbEntity
  8
M0
 62
     6
100
AcDbLine
 10
108.330899
 20
542.926215
 11
117.813809
 21
548.401221
  0
LINE
  5
3A2
100
AcDbEntity
  8
M0
 62
     6
100
AcDbLine
 10
117.813809
 20
548.401221
 11
127.296963
 21
542.926215
  0
LINE
  5
3A3
100
AcDbEntity
  8
M0
 62
     6
100
AcDbLine
 10
127.296963
 20
542.926215
 11
127.296963
 21
531.976203
  0
LINE
  5
3A4
100
AcDbEntity
  8
M0
 62
     6
100
AcDbLine
 10
127.296963
 20
531.976203
 11
117.813809
 21
526.501227
  0
CIRCLE
  5
3A5
100
AcDbEntity
  8
M0
 62
     6
100
AcDbCircle
 10
117.813809
 20
537.451209
 40
6.0
  0
CIRCLE
  5
3A6
100
AcDbEntity
  8
M0
 62
     6
100
AcDbCircle
 10
117.814053
 20
537.451301
 40
13.0
  0
CIRCLE
  5
3A7
100
AcDbEntity
  8
M0
 62
     6
100
AcDbCircle
 10
117.814053
 20
537.451301
 40
5.0
  0
ARC
  5
3A8
100
AcDbEntity
  8
M0
 62
     6
100
AcDbCircle
 10
117.814053
 20
537.451301
 40
10.75
100
AcDbArc
 50
31.90003
 51
88.100807
  0
ARC
  5
3A9
100
AcDbEntity
  8
M0
 62
     6
100
AcDbCircle
 10
117.814053
 20
537.451301
 40
10.75
100
AcDbArc
 50
331.900478
 51
388.09947
  0
ARC
  5
3AA
100
AcDbEntity
  8
M0
 62
     6
100
AcDbCircle
 10
117.814053
 20
537.451301
 40
10.75
100
AcDbArc
 50
271.900651
 51
328.098139
  0
ARC
  5
3AB
100
AcDbEntity
  8
M0
 62
     6
100
AcDbCircle
 10
117.814053
 20
537.451301
 40
10.75
100
AcDbArc
 50
211.902957
 51
268.096618
  0
ARC
  5
3AC
100
AcDbEntity
  8
M0
 62
     6
100
AcDbCircle
 10
117.814053
 20
537.451301
 40
10.75
100
AcDbArc
 50
91.901835
 51
148.098501
  0
ARC
  5
3AD
100
AcDbEntity
  8
M0
 62
     6
100
AcDbCircle
 10
117.814053
 20
537.451301
 40
10.75
100
AcDbArc
 50
151.903243
 51
208.096686
  0
LINE
  5
3AE
100
AcDbEntity
  8
M0
 62
     7
100
AcDbLine
 10
465.834317
 20
621.451331
 11
465.834317
 21
611.451331
  0
ARC
  5
3AF
100
AcDbEntity
  8
M0
 62
     7
100
AcDbCircle
 10
474.534268
 20
616.451301
 40
11.999989
100
AcDbArc
 50
164.506528
 51
195.489247
  0
LINE
  5
3B0
100
AcDbEntity
  8
M0
 62
     7
100
AcDbLine
 10
465.834317
 20
620.952033
 11
464.37283
 21
620.823859
  0
LINE
  5
3B1
100
AcDbEntity
  8
M0
 62
     7
100
AcDbLine
 10
465.834012
 20
611.951789
 11
464.372189
 21
612.080019
  0
ARC
  5
3B2
100
AcDbEntity
  8
M0
 62
     7
100
AcDbCircle
 10
464.512295
 20
619.229621
 40
1.599998
100
AcDbArc
 50
94.999491
 51
164.513915
  0
LINE
  5
3B3
100
AcDbEntity
  8
M0
 62
     7
100
AcDbLine
 10
467.134061
 20
621.451301
 11
467.134061
 21
611.451301
  0
LINE
  5
3B4
100
AcDbEntity
  8
M0
 62
     7
100
AcDbLine
 10
467.933926
 20
621.451301
 11
467.933926
 21
611.451301
  0
LINE
  5
3B5
100
AcDbEntity
  8
M0
 62
     7
100
AcDbLine
 10
467.134061
 20
621.451301
 11
467.933926
 21
621.451301
  0
LINE
  5
3B6
100
AcDbEntity
  8
M0
 62
     7
100
AcDbLine
 10
467.134061
 20
611.451301
 11
467.933926
 21
611.451301
  0
LINE
  5
3B7
100
AcDbEntity
  8
M0
 62
     7
100
AcDbLine
 10
465.834317
 20
616.451301
 11
467.134061
 21
617.402033
  0
LINE
  5
3B8
100
AcDbEntity
  8
M0
 62
     7
100
AcDbLine
 10
465.834317
 20
615.501789
 11
467.134061
 21
616.451301
  0
LINE
  5
3B9
100
AcDbEntity
  8
M0
 62
     7
100
AcDbLine
 10
465.834073
 20
611.451331
 11
467.134061
 21
611.451331
  0
LINE
  5
3BA
100
AcDbEntity
  8
M0
 62
     7
100
AcDbLine
 10
465.834073
 20
621.451331
 11
467.134061
 21
621.451331
  0
ARC
  5
3BB
100
AcDbEntity
  8
M0
 62
     7
100
AcDbCircle
 10
464.512004
 20
613.673899
 40
1.599999
100
AcDbArc
 50
195.489248
 51
264.98687
  0
ARC
  5
3BC
100
AcDbEntity
  8
M0
 62
     1
100
AcDbCircle
 10
465.033917
 20
576.451301
 40
14.0
100
AcDbArc
 50
163.927108
 51
196.072599
  0
ARC
  5
3BD
100
AcDbEntity
  8
M0
 62
     1
100
AcDbCircle
 10
453.406903
 20
573.101447
 40
1.9
100
AcDbArc
 50
196.075421
 51
270.0
  0
LINE
  5
3BE
100
AcDbEntity
  8
M0
 62
     1
100
AcDbLine
 10
453.406903
 20
571.201301
 11
454.933926
 21
571.201301
  0
LINE
  5
3BF
100
AcDbEntity
  8
M0
 62
     1
100
AcDbLine
 10
454.933926
 20
570.35131
 11
456.433926
 21
570.35131
  0
LINE
  5
3C0
100
AcDbEntity
  8
M0
 62
     1
100
AcDbLine
 10
456.433926
 20
569.951301
 11
456.433926
 21
579.24554
  0
LINE
  5
3C1
100
AcDbEntity
  8
M0
 62
     1
100
AcDbLine
 10
454.933926
 20
581.04617
 11
454.933926
 21
570.35131
  0
LINE
  5
3C2
100
AcDbEntity
  8
M0
 62
     1
100
AcDbLine
 10
454.933926
 20
576.451285
 11
456.433926
 21
575.585273
  0
LINE
  5
3C3
100
AcDbEntity
  8
M0
 62
     1
100
AcDbLine
 10
454.933926
 20
577.317313
 11
456.433926
 21
576.451301
  0
LINE
  5
3C4
100
AcDbEntity
  8
M0
 62
     1
100
AcDbLine
 10
456.433926
 20
569.951301
 11
457.433926
 21
569.951301
  0
LINE
  5
3C5
100
AcDbEntity
  8
M0
 62
     1
100
AcDbLine
 10
457.433926
 20
569.951301
 11
457.433926
 21
577.513486
  0
ARC
  5
3C6
100
AcDbEntity
  8
M0
 62
     1
100
AcDbCircle
 10
453.406902
 20
579.8013
 40
1.9
100
AcDbArc
 50
119.724303
 51
163.92712
  0
LINE
  5
3C7
100
AcDbEntity
  8
M0
 62
   114
100
AcDbLine
 10
176.172207
 20
574.451301
 11
178.172208
 21
576.451301
  0
LINE
  5
3C8
100
AcDbEntity
  8
M0
 62
   114
100
AcDbLine
 10
173.369157
 20
571.648251
 11
175.4651
 21
573.744194
  0
LINE
  5
3C9
100
AcDbEntity
  8
M0
 62
   114
100
AcDbLine
 10
174.757993
 20
574.451301
 11
172.66205
 21
572.355358
  0
LINE
  5
3CA
100
AcDbEntity
  8
M0
 62
   114
100
AcDbLine
 10
176.757996
 20
576.451303
 11
175.4651
 21
575.158407
  0
LINE
  5
3CB
100
AcDbEntity
  8
M0
 62
   114
100
AcDbLine
 10
175.4651
 20
575.158407
 11
174.36905
 21
576.254458
  0
LINE
  5
3CC
100
AcDbEntity
  8
M0
 62
   114
100
AcDbLine
 10
177.268257
 20
573.355251
 11
176.172207
 21
574.451301
  0
LINE
  5
3CD
100
AcDbEntity
  8
M0
 62
   114
100
AcDbLine
 10
175.4651
 20
573.744194
 11
176.56115
 21
572.648144
  0
LINE
  5
3CE
100
AcDbEntity
  8
M0
 62
   114
100
AcDbLine
 10
173.661943
 20
575.547351
 11
174.757993
 21
574.451301
  0
LINE
  5
3CF
100
AcDbEntity
  8
M0
 62
   114
100
AcDbLine
 10
176.56115
 20
572.648144
 11
177.268257
 21
573.355251
  0
LINE
  5
3D0
100
AcDbEntity
  8
M0
 62
   114
100
AcDbLine
 10
174.36905
 20
576.254458
 11
173.661943
 21
575.547351
  0
ARC
  5
3D1
100
AcDbEntity
  8
M0
 62
   114
100
AcDbCircle
 10
175.4651
 20
574.451301
 40
4.0
100
AcDbArc
 50
149.999778
 51
331.044929
  0
ARC
  5
3D2
100
AcDbEntity
  8
M0
 62
   114
100
AcDbCircle
 10
175.4651
 20
574.451301
 40
3.5
100
AcDbArc
 50
145.149862
 51
394.849883
  0
LINE
  5
3D3
100
AcDbEntity
  8
M0
 62
   114
100
AcDbLine
 10
201.172207
 20
574.451057
 11
203.172208
 21
576.451057
  0
LINE
  5
3D4
100
AcDbEntity
  8
M0
 62
   114
100
AcDbLine
 10
198.369157
 20
571.648007
 11
200.4651
 21
573.74395
  0
LINE
  5
3D5
100
AcDbEntity
  8
M0
 62
   114
100
AcDbLine
 10
199.757993
 20
574.451057
 11
197.66205
 21
572.355113
  0
LINE
  5
3D6
100
AcDbEntity
  8
M0
 62
   114
100
AcDbLine
 10
201.757996
 20
576.451059
 11
200.4651
 21
575.158163
  0
LINE
  5
3D7
100
AcDbEntity
  8
M0
 62
   114
100
AcDbLine
 10
200.4651
 20
575.158163
 11
199.36905
 21
576.254213
  0
LINE
  5
3D8
100
AcDbEntity
  8
M0
 62
   114
100
AcDbLine
 10
202.268257
 20
573.355006
 11
201.172207
 21
574.451057
  0
LINE
  5
3D9
100
AcDbEntity
  8
M0
 62
   114
100
AcDbLine
 10
200.4651
 20
573.74395
 11
201.56115
 21
572.6479
  0
LINE
  5
3DA
100
AcDbEntity
  8
M0
 62
   114
100
AcDbLine
 10
198.661943
 20
575.547107
 11
199.757993
 21
574.451057
  0
LINE
  5
3DB
100
AcDbEntity
  8
M0
 62
   114
100
AcDbLine
 10
201.56115
 20
572.6479
 11
202.268257
 21
573.355006
  0
LINE
  5
3DC
100
AcDbEntity
  8
M0
 62
   114
100
AcDbLine
 10
199.36905
 20
576.254213
 11
198.661943
 21
575.547107
  0
ARC
  5
3DD
100
AcDbEntity
  8
M0
 62
   114
100
AcDbCircle
 10
200.4651
 20
574.451057
 40
4.0
100
AcDbArc
 50
149.999778
 51
331.044929
  0
ARC
  5
3DE
100
AcDbEntity
  8
M0
 62
   114
100
AcDbCircle
 10
200.4651
 20
574.451057
 40
3.5
100
AcDbArc
 50
145.149862
 51
394.849883
  0
LINE
  5
3DF
100
AcDbEntity
  8
M0
 62
   234
100
AcDbLine
 10
73.814053
 20
606.451301
 11
73.814053
 21
584.451301
  0
ARC
  5
3E0
100
AcDbEntity
  8
M0
 62
   234
100
AcDbCircle
 10
76.814053
 20
584.451301
 40
3.0
100
AcDbArc
 50
179.999982
 51
270.0
  0
LINE
  5
3E1
100
AcDbEntity
  8
M0
 62
   234
100
AcDbLine
 10
76.814053
 20
581.451301
 11
158.814053
 21
581.451301
  0
LINE
  5
3E2
100
AcDbEntity
  8
M0
 62
   234
100
AcDbLine
 10
161.814053
 20
584.451301
 11
161.814053
 21
606.451301
  0
ARC
  5
3E3
100
AcDbEntity
  8
M0
 62
   234
100
AcDbCircle
 10
158.814053
 20
584.451301
 40
3.0
100
AcDbArc
 50
269.999709
 51
360.0
  0
LINE
  5
3E4
100
AcDbEntity
  8
M0
 62
   234
100
AcDbLine
 10
97.314053
 20
606.451301
 11
97.314053
 21
584.451301
  0
ARC
  5
3E5
100
AcDbEntity
  8
M0
 62
   234
100
AcDbCircle
 10
100.314053
 20
584.451301
 40
3.0
100
AcDbArc
 50
179.999982
 51
270.0
  0
LINE
  5
3E6
100
AcDbEntity
  8
M0
 62
   234
100
AcDbLine
 10
138.314053
 20
606.451301
 11
138.314053
 21
584.451301
  0
ARC
  5
3E7
100
AcDbEntity
  8
M0
 62
   234
100
AcDbCircle
 10
135.314053
 20
584.451301
 40
3.0
100
AcDbArc
 50
269.999709
 51
360.0
  0
LINE
  5
3E8
100
AcDbEntity
  8
M0
 62
   234
100
AcDbLine
 10
128.314053
 20
572.451301
 11
128.314053
 21
571.451301
  0
LINE
  5
3E9
100
AcDbEntity
  8
M0
 62
   234
100
AcDbLine
 10
122.314053
 20
572.451301
 11
122.314053
 21
571.451301
  0
LINE
  5
3EA
100
AcDbEntity
  8
M0
 62
   234
100
AcDbLine
 10
113.314054
 20
572.451301
 11
113.314054
 21
571.451301
  0
LINE
  5
3EB
100
AcDbEntity
  8
M0
 62
   234
100
AcDbLine
 10
107.314054
 20
572.451301
 11
107.314054
 21
571.451301
  0
LINE
  5
3EC
100
AcDbEntity
  8
M0
 62
   234
100
AcDbLine
 10
122.314053
 20
571.451301
 11
113.314054
 21
571.451301
  0
LINE
  5
3ED
100
AcDbEntity
  8
M0
 62
   234
100
AcDbLine
 10
136.814053
 20
571.451301
 11
136.814053
 21
576.451301
  0
ARC
  5
3EE
100
AcDbEntity
  8
M0
 62
   234
100
AcDbCircle
 10
141.814053
 20
576.451301
 40
5.0
100
AcDbArc
 50
90.0
 51
179.999967
  0
ARC
  5
3EF
100
AcDbEntity
  8
M0
 62
   234
100
AcDbCircle
 10
143.814053
 20
576.451301
 40
5.0
100
AcDbArc
 50
0.0
 51
90.0
  0
LINE
  5
3F0
100
AcDbEntity
  8
M0
 62
   234
100
AcDbLine
 10
154.814053
 20
581.451301
 11
154.814053
 21
570.451301
  0
LINE
  5
3F1
100
AcDbEntity
  8
M0
 62
   234
100
AcDbLine
 10
148.814053
 20
570.451301
 11
148.814053
 21
576.451301
  0
LINE
  5
3F2
100
AcDbEntity
  8
M0
 62
   234
100
AcDbLine
 10
139.814053
 20
572.451301
 11
139.814053
 21
570.451301
  0
LINE
  5
3F3
100
AcDbEntity
  8
M0
 62
   234
100
AcDbLine
 10
145.814053
 20
572.451301
 11
145.814053
 21
570.451301
  0
LINE
  5
3F4
100
AcDbEntity
  8
M0
 62
   234
100
AcDbLine
 10
154.814053
 20
570.451301
 11
145.814053
 21
570.451301
  0
LINE
  5
3F5
100
AcDbEntity
  8
M0
 62
   234
100
AcDbLine
 10
136.814053
 20
571.451301
 11
128.314053
 21
571.451301
  0
ARC
  5
3F6
100
AcDbEntity
  8
M0
 62
   234
100
AcDbCircle
 10
126.314053
 20
576.451301
 40
5.0
100
AcDbArc
 50
0.0
 51
90.0
  0
LINE
  5
3F7
100
AcDbEntity
  8
M0
 62
   234
100
AcDbLine
 10
131.314053
 20
571.451301
 11
131.314053
 21
576.451301
  0
LINE
  5
3F8
100
AcDbEntity
  8
M0
 62
   234
100
AcDbLine
 10
130.814053
 20
571.451301
 11
130.814053
 21
570.451301
  0
LINE
  5
3F9
100
AcDbEntity
  8
M0
 62
   234
100
AcDbLine
 10
139.814053
 20
570.451301
 11
130.814053
 21
570.451301
  0
LINE
  5
3FA
100
AcDbEntity
  8
M0
 62
   234
100
AcDbLine
 10
98.814069
 20
571.451301
 11
98.814069
 21
576.451301
  0
ARC
  5
3FB
100
AcDbEntity
  8
M0
 62
   234
100
AcDbCircle
 10
93.814069
 20
576.451301
 40
5.0
100
AcDbArc
 50
0.0
 51
89.999825
  0
ARC
  5
3FC
100
AcDbEntity
  8
M0
 62
   234
100
AcDbCircle
 10
91.814069
 20
576.451301
 40
5.0
100
AcDbArc
 50
89.999825
 51
179.999967
  0
LINE
  5
3FD
100
AcDbEntity
  8
M0
 62
   234
100
AcDbLine
 10
80.814069
 20
581.451301
 11
80.814069
 21
570.451301
  0
LINE
  5
3FE
100
AcDbEntity
  8
M0
 62
   234
100
AcDbLine
 10
86.814069
 20
570.451301
 11
86.814069
 21
576.451301
  0
LINE
  5
3FF
100
AcDbEntity
  8
M0
 62
   234
100
AcDbLine
 10
95.814069
 20
572.451301
 11
95.814069
 21
570.451301
  0
LINE
  5
400
100
AcDbEntity
  8
M0
 62
   234
100
AcDbLine
 10
89.814069
 20
572.451301
 11
89.814069
 21
570.451301
  0
LINE
  5
401
100
AcDbEntity
  8
M0
 62
   234
100
AcDbLine
 10
80.814069
 20
570.451301
 11
89.814069
 21
570.451301
  0
LINE
  5
402
100
AcDbEntity
  8
M0
 62
   234
100
AcDbLine
 10
98.814069
 20
571.451301
 11
107.314054
 21
571.451301
  0
ARC
  5
403
100
AcDbEntity
  8
M0
 62
   234
100
AcDbCircle
 10
109.314054
 20
576.451301
 40
5.0
100
AcDbArc
 50
90.0
 51
179.999967
  0
LINE
  5
404
100
AcDbEntity
  8
M0
 62
   234
100
AcDbLine
 10
104.314054
 20
571.451301
 11
104.314054
 21
576.451301
  0
LINE
  5
405
100
AcDbEntity
  8
M0
 62
   234
100
AcDbLine
 10
104.814054
 20
571.451301
 11
104.814054
 21
570.451301
  0
LINE
  5
406
100
AcDbEntity
  8
M0
 62
   234
100
AcDbLine
 10
95.814069
 20
570.451301
 11
104.814054
 21
570.451301
  0
LINE
  5
407
100
AcDbEntity
  8
M0
 62
   234
100
AcDbLine
 10
114.814053
 20
621.451301
 11
114.814053
 21
620.451301
  0
LINE
  5
408
100
AcDbEntity
  8
M0
 62
   234
100
AcDbLine
 10
120.814053
 20
621.451301
 11
120.814053
 21
620.451301
  0
LINE
  5
409
100
AcDbEntity
  8
M0
 62
   234
100
AcDbLine
 10
127.814053
 20
621.451301
 11
120.814053
 21
621.451301
  0
LINE
  5
40A
100
AcDbEntity
  8
M0
 62
   234
100
AcDbLine
 10
114.814053
 20
621.451301
 11
107.814053
 21
621.451301
  0
LINE
  5
40B
100
AcDbEntity
  8
M0
 62
   234
100
AcDbLine
 10
105.314053
 20
606.451301
 11
73.814053
 21
606.451301
  0
LINE
  5
40C
100
AcDbEntity
  8
M0
 62
   234
100
AcDbLine
 10
107.814053
 20
621.451301
 11
107.814053
 21
611.45127
  0
LINE
  5
40D
100
AcDbEntity
  8
M0
 62
   234
100
AcDbLine
 10
127.814053
 20
621.451301
 11
127.814053
 21
611.45127
  0
LINE
  5
40E
100
AcDbEntity
  8
M0
 62
   234
100
AcDbLine
 10
161.814053
 20
606.451301
 11
130.314053
 21
606.451301
  0
LINE
  5
40F
100
AcDbEntity
  8
M0
 62
   234
100
AcDbLine
 10
134.314053
 20
606.451301
 11
134.314053
 21
603.951301
  0
LINE
  5
410
100
AcDbEntity
  8
M0
 62
   234
100
AcDbLine
 10
134.314053
 20
603.951301
 11
132.564053
 21
603.951301
  0
LINE
  5
411
100
AcDbEntity
  8
M0
 62
   234
100
AcDbLine
 10
132.564053
 20
602.356025
 11
132.564053
 21
603.951301
  0
LINE
  5
412
100
AcDbEntity
  8
M0
 62
   234
100
AcDbLine
 10
127.064053
 20
602.356025
 11
127.064053
 21
603.951301
  0
LINE
  5
413
100
AcDbEntity
  8
M0
 62
   234
100
AcDbLine
 10
127.064053
 20
603.951301
 11
125.314053
 21
603.951301
  0
LINE
  5
414
100
AcDbEntity
  8
M0
 62
   234
100
AcDbLine
 10
125.314053
 20
606.451301
 11
125.314053
 21
603.951301
  0
LINE
  5
415
100
AcDbEntity
  8
M0
 62
   234
100
AcDbLine
 10
101.314069
 20
606.451301
 11
101.314069
 21
603.951301
  0
LINE
  5
416
100
AcDbEntity
  8
M0
 62
   234
100
AcDbLine
 10
101.314069
 20
603.951301
 11
103.064054
 21
603.951301
  0
LINE
  5
417
100
AcDbEntity
  8
M0
 62
   234
100
AcDbLine
 10
103.064054
 20
602.356025
 11
103.064054
 21
603.951301
  0
LINE
  5
418
100
AcDbEntity
  8
M0
 62
   234
100
AcDbLine
 10
108.564054
 20
602.356025
 11
108.564054
 21
603.951301
  0
LINE
  5
419
100
AcDbEntity
  8
M0
 62
   234
100
AcDbLine
 10
108.564054
 20
603.951301
 11
110.314054
 21
603.951301
  0
LINE
  5
41A
100
AcDbEntity
  8
M0
 62
   234
100
AcDbLine
 10
110.314054
 20
606.451301
 11
110.314054
 21
603.951301
  0
LINE
  5
41B
100
AcDbEntity
  8
M0
 62
   234
100
AcDbLine
 10
110.314054
 20
606.451285
 11
125.314053
 21
606.451285
  0
LINE
  5
41C
100
AcDbEntity
  8
M0
 62
   194
100
AcDbLine
 10
73.814053
 20
606.451273
 11
161.814053
 21
606.451328
  0
LINE
  5
41D
100
AcDbEntity
  8
M0
 62
   194
100
AcDbLine
 10
161.814053
 20
606.451328
 11
161.814052
 21
608.451327
  0
ARC
  5
41E
100
AcDbEntity
  8
M0
 62
   194
100
AcDbCircle
 10
158.814052
 20
608.451325
 40
3.0
100
AcDbArc
 50
0.0
 51
90.0
  0
LINE
  5
41F
100
AcDbEntity
  8
M0
 62
   194
100
AcDbLine
 10
158.81405
 20
611.451325
 11
76.81405
 21
611.451274
  0
LINE
  5
420
100
AcDbEntity
  8
M0
 62
   194
100
AcDbLine
 10
73.814052
 20
608.451272
 11
73.814053
 21
606.451273
  0
ARC
  5
421
100
AcDbEntity
  8
M0
 62
   194
100
AcDbCircle
 10
76.814052
 20
608.451274
 40
3.0
100
AcDbArc
 50
89.999745
 51
180.000036
  0
LINE
  5
422
100
AcDbEntity
  8
M0
 62
   194
100
AcDbLine
 10
89.814045
 20
620.451281
 11
89.814043
 21
622.451282
  0
LINE
  5
423
100
AcDbEntity
  8
M0
 62
   194
100
AcDbLine
 10
86.814047
 20
616.45128
 11
86.814043
 21
622.45128
  0
ARC
  5
424
100
AcDbEntity
  8
M0
 62
   194
100
AcDbCircle
 10
91.814047
 20
616.451283
 40
5.0
100
AcDbArc
 50
180.000036
 51
270.0
  0
ARC
  5
425
100
AcDbEntity
  8
M0
 62
   194
100
AcDbCircle
 10
93.814047
 20
616.451285
 40
5.0
100
AcDbArc
 50
270.0
 51
323.130103
  0
LINE
  5
426
100
AcDbEntity
  8
M0
 62
   194
100
AcDbLine
 10
95.814045
 20
620.451286
 11
95.814043
 21
622.451286
  0
LINE
  5
427
100
AcDbEntity
  8
M0
 62
   194
100
AcDbLine
 10
97.814043
 20
622.451287
 11
95.814043
 21
622.451286
  0
LINE
  5
428
100
AcDbEntity
  8
M0
 62
   194
100
AcDbLine
 10
89.814043
 20
622.451282
 11
80.814043
 21
622.451277
  0
LINE
  5
429
100
AcDbEntity
  8
M0
 62
   194
100
AcDbLine
 10
80.81405
 20
611.451277
 11
80.814043
 21
622.451277
  0
CIRCLE
  5
42A
100
AcDbEntity
  8
M0
 62
     7
100
AcDbCircle
 10
117.814053
 20
616.451301
 40
4.5
  0
LINE
  5
42B
100
AcDbEntity
  8
M0
 62
     7
100
AcDbLine
 10
118.662655
 20
616.451236
 11
121.391936
 21
619.180517
  0
LINE
  5
42C
100
AcDbEntity
  8
M0
 62
     7
100
AcDbLine
 10
115.084826
 20
612.873407
 11
117.814118
 21
615.602699
  0
LINE
  5
42D
100
AcDbEntity
  8
M0
 62
     7
100
AcDbLine
 10
116.965635
 20
616.451182
 11
114.23631
 21
613.721857
  0
LINE
  5
42E
100
AcDbEntity
  8
M0
 62
     7
100
AcDbLine
 10
120.543475
 20
620.029043
 11
117.814172
 21
617.299719
  0
LINE
  5
42F
100
AcDbEntity
  8
M0
 62
     7
100
AcDbLine
 10
117.814118
 20
615.602699
 11
119.086945
 21
614.329872
  0
LINE
  5
430
100
AcDbEntity
  8
M0
 62
     7
100
AcDbLine
 10
115.692798
 20
617.72402
 11
116.965624
 21
616.451193
  0
LINE
  5
431
100
AcDbEntity
  8
M0
 62
     7
100
AcDbLine
 10
117.814161
 20
617.29973
 11
116.541335
 21
618.572556
  0
LINE
  5
432
100
AcDbEntity
  8
M0
 62
     7
100
AcDbLine
 10
119.935481
 20
615.178409
 11
118.662655
 21
616.451236
  0
LINE
  5
433
100
AcDbEntity
  8
M0
 62
     7
100
AcDbLine
 10
119.086945
 20
614.329872
 11
119.935481
 21
615.178409
  0
LINE
  5
434
100
AcDbEntity
  8
M0
 62
     7
100
AcDbLine
 10
116.541335
 20
618.572556
 11
115.692798
 21
617.72402
  0
CIRCLE
  5
435
100
AcDbEntity
  8
M0
 62
     7
100
AcDbCircle
 10
117.814053
 20
616.451301
 40
5.0
  0
LINE
  5
436
100
AcDbEntity
  8
M0
 62
     1
100
AcDbLine
 10
106.52116
 20
599.451301
 11
108.617092
 21
601.547233
  0
LINE
  5
437
100
AcDbEntity
  8
M0
 62
     1
100
AcDbLine
 10
103.718111
 20
596.648252
 11
105.814053
 21
598.744194
  0
LINE
  5
438
100
AcDbEntity
  8
M0
 62
     1
100
AcDbLine
 10
105.106947
 20
599.451301
 11
103.011003
 21
597.355358
  0
LINE
  5
439
100
AcDbEntity
  8
M0
 62
     1
100
AcDbLine
 10
107.909985
 20
602.254339
 11
105.814053
 21
600.158407
  0
LINE
  5
43A
100
AcDbEntity
  8
M0
 62
     1
100
AcDbLine
 10
105.814053
 20
600.158407
 11
104.718004
 21
601.254458
  0
LINE
  5
43B
100
AcDbEntity
  8
M0
 62
     1
100
AcDbLine
 10
107.617209
 20
598.355251
 11
106.52116
 21
599.451301
  0
LINE
  5
43C
100
AcDbEntity
  8
M0
 62
     1
100
AcDbLine
 10
105.814053
 20
598.744194
 11
106.910103
 21
597.648144
  0
LINE
  5
43D
100
AcDbEntity
  8
M0
 62
     1
100
AcDbLine
 10
104.010897
 20
600.54735
 11
105.106947
 21
599.451301
  0
CIRCLE
  5
43E
100
AcDbEntity
  8
M0
 62
     1
100
AcDbCircle
 10
105.814053
 20
599.451301
 40
3.5
  0
LINE
  5
43F
100
AcDbEntity
  8
M0
 62
     1
100
AcDbLine
 10
106.910103
 20
597.648144
 11
107.617209
 21
598.355251
  0
LINE
  5
440
100
AcDbEntity
  8
M0
 62
     1
100
AcDbLine
 10
104.718004
 20
601.254458
 11
104.010897
 21
600.54735
  0
CIRCLE
  5
441
100
AcDbEntity
  8
M0
 62
     1
100
AcDbCircle
 10
105.814053
 20
599.451301
 40
3.799995
  0
CIRCLE
  5
442
100
AcDbEntity
  8
M0
 62
     1
100
AcDbCircle
 10
105.814053
 20
599.451301
 40
4.0
  0
LINE
  5
443
100
AcDbEntity
  8
M0
  6
DASHDOT
 62
     1
100
AcDbLine
 10
100.187603
 20
599.451301
 11
111.440504
 21
599.451301
  0
LINE
  5
444
100
AcDbEntity
  8
M0
  6
DASHDOT
 62
     1
100
AcDbLine
 10
105.814053
 20
593.82485
 11
105.814053
 21
605.077751
  0
LINE
  5
445
100
AcDbEntity
  8
M0
 62
     1
100
AcDbLine
 10
130.52116
 20
599.451301
 11
132.617092
 21
601.547233
  0
LINE
  5
446
100
AcDbEntity
  8
M0
 62
     1
100
AcDbLine
 10
127.718111
 20
596.648252
 11
129.814053
 21
598.744194
  0
LINE
  5
447
100
AcDbEntity
  8
M0
 62
     1
100
AcDbLine
 10
129.106947
 20
599.451301
 11
127.011003
 21
597.355358
  0
LINE
  5
448
100
AcDbEntity
  8
M0
 62
     1
100
AcDbLine
 10
131.909985
 20
602.254339
 11
129.814053
 21
600.158407
  0
LINE
  5
449
100
AcDbEntity
  8
M0
 62
     1
100
AcDbLine
 10
129.814053
 20
600.158407
 11
128.718004
 21
601.254458
  0
LINE
  5
44A
100
AcDbEntity
  8
M0
 62
     1
100
AcDbLine
 10
131.617209
 20
598.355251
 11
130.52116
 21
599.451301
  0
LINE
  5
44B
100
AcDbEntity
  8
M0
 62
     1
100
AcDbLine
 10
129.814053
 20
598.744194
 11
130.910103
 21
597.648144
  0
LINE
  5
44C
100
AcDbEntity
  8
M0
 62
     1
100
AcDbLine
 10
128.010897
 20
600.54735
 11
129.106947
 21
599.451301
  0
CIRCLE
  5
44D
100
AcDbEntity
  8
M0
 62
     1
100
AcDbCircle
 10
129.814053
 20
599.451301
 40
3.5
  0
LINE
  5
44E
100
AcDbEntity
  8
M0
 62
     1
100
AcDbLine
 10
130.910103
 20
597.648144
 11
131.617209
 21
598.355251
  0
LINE
  5
44F
100
AcDbEntity
  8
M0
 62
     1
100
AcDbLine
 10
128.718004
 20
601.254458
 11
128.010897
 21
600.54735
  0
CIRCLE
  5
450
100
AcDbEntity
  8
M0
 62
     1
100
AcDbCircle
 10
129.814053
 20
599.451301
 40
3.799995
  0
CIRCLE
  5
451
100
AcDbEntity
  8
M0
 62
     1
100
AcDbCircle
 10
129.814053
 20
599.451301
 40
4.0
  0
LINE
  5
452
100
AcDbEntity
  8
M0
  6
DASHDOT
 62
     1
100
AcDbLine
 10
124.187603
 20
599.451301
 11
135.440504
 21
599.451301
  0
LINE
  5
453
100
AcDbEntity
  8
M0
  6
DASHDOT
 62
     1
100
AcDbLine
 10
129.814053
 20
593.82485
 11
129.814053
 21
605.077751
  0
LINE
  5
454
100
AcDbEntity
  8
M0
 62
     7
100
AcDbLine
 10
442.133923
 20
526.501288
 11
452.133923
 21
526.501288
  0
LINE
  5
455
100
AcDbEntity
  8
M0
 62
     7
100
AcDbLine
 10
452.134167
 20
526.501304
 11
452.134167
 21
531.451301
  0
LINE
  5
456
100
AcDbEntity
  8
M0
 62
     7
100
AcDbLine
 10
442.134167
 20
548.401252
 11
442.134167
 21
526.501273
  0
LINE
  5
457
100
AcDbEntity
  8
M0
 62
     7
100
AcDbLine
 10
444.433926
 20
531.976264
 11
442.133923
 21
531.976264
  0
LINE
  5
458
100
AcDbEntity
  8
M0
 62
     7
100
AcDbLine
 10
442.133679
 20
548.401282
 11
452.133923
 21
548.401282
  0
LINE
  5
459
100
AcDbEntity
  8
M0
 62
     7
100
AcDbLine
 10
444.433926
 20
542.926276
 11
442.133679
 21
542.926276
  0
LINE
  5
45A
100
AcDbEntity
  8
M0
 62
     7
100
AcDbLine
 10
455.133923
 20
524.451285
 11
457.433926
 21
524.451285
  0
LINE
  5
45B
100
AcDbEntity
  8
M0
 62
     7
100
AcDbLine
 10
457.433926
 20
550.451285
 11
455.133923
 21
550.451285
  0
LINE
  5
45C
100
AcDbEntity
  8
M0
 62
     7
100
AcDbLine
 10
455.133923
 20
550.451285
 11
455.133923
 21
543.451301
  0
LINE
  5
45D
100
AcDbEntity
  8
M0
 62
     7
100
AcDbLine
 10
452.133923
 20
526.701285
 11
455.133923
 21
526.701285
  0
LINE
  5
45E
100
AcDbEntity
  8
M0
 62
     7
100
AcDbLine
 10
455.133923
 20
548.201285
 11
452.133923
 21
548.201285
  0
LINE
  5
45F
100
AcDbEntity
  8
M0
 62
     7
100
AcDbLine
 10
428.933926
 20
543.451285
 11
442.134167
 21
543.451285
  0
LINE
  5
460
100
AcDbEntity
  8
M0
 62
     7
100
AcDbLine
 10
428.933926
 20
543.451285
 11
428.933926
 21
531.451285
  0
LINE
  5
461
100
AcDbEntity
  8
M0
 62
     7
100
AcDbLine
 10
442.134167
 20
531.451285
 11
428.933926
 21
531.451285
  0
LINE
  5
462
100
AcDbEntity
  8
M0
 62
     7
100
AcDbLine
 10
428.933926
 20
532.451285
 11
442.134167
 21
532.451285
  0
LINE
  5
463
100
AcDbEntity
  8
M0
 62
     7
100
AcDbLine
 10
442.134167
 20
542.451285
 11
428.933926
 21
542.451285
  0
LINE
  5
464
100
AcDbEntity
  8
M0
 62
     7
100
AcDbLine
 10
452.134167
 20
543.451301
 11
452.134167
 21
548.401298
  0
LINE
  5
465
100
AcDbEntity
  8
M0
 62
     7
100
AcDbLine
 10
455.133923
 20
531.451301
 11
455.133923
 21
524.451285
  0
CIRCLE
  5
466
100
AcDbEntity
  8
M0
 62
     7
100
AcDbCircle
 10
232.814053
 20
616.451301
 40
4.5
  0
LINE
  5
467
100
AcDbEntity
  8
M0
 62
     7
100
AcDbLine
 10
233.662655
 20
616.451236
 11
236.391936
 21
619.180517
  0
LINE
  5
468
100
AcDbEntity
  8
M0
 62
     7
100
AcDbLine
 10
230.084826
 20
612.873407
 11
232.814118
 21
615.602699
  0
LINE
  5
469
100
AcDbEntity
  8
M0
 62
     7
100
AcDbLine
 10
231.965635
 20
616.451182
 11
229.23631
 21
613.721857
  0
LINE
  5
46A
100
AcDbEntity
  8
M0
 62
     7
100
AcDbLine
 10
235.543475
 20
620.029043
 11
232.814172
 21
617.299719
  0
LINE
  5
46B
100
AcDbEntity
  8
M0
 62
     7
100
AcDbLine
 10
232.814118
 20
615.602699
 11
234.086945
 21
614.329872
  0
LINE
  5
46C
100
AcDbEntity
  8
M0
 62
     7
100
AcDbLine
 10
230.692798
 20
617.72402
 11
231.965624
 21
616.451193
  0
LINE
  5
46D
100
AcDbEntity
  8
M0
 62
     7
100
AcDbLine
 10
232.814161
 20
617.29973
 11
231.541335
 21
618.572556
  0
LINE
  5
46E
100
AcDbEntity
  8
M0
 62
     7
100
AcDbLine
 10
234.935481
 20
615.178409
 11
233.662655
 21
616.451236
  0
LINE
  5
46F
100
AcDbEntity
  8
M0
 62
     7
100
AcDbLine
 10
234.086945
 20
614.329872
 11
234.935481
 21
615.178409
  0
LINE
  5
470
100
AcDbEntity
  8
M0
 62
     7
100
AcDbLine
 10
231.541335
 20
618.572556
 11
230.692798
 21
617.72402
  0
CIRCLE
  5
471
100
AcDbEntity
  8
M0
 62
     7
100
AcDbCircle
 10
232.814053
 20
616.451301
 40
5.0
  0
LINE
  5
472
100
AcDbEntity
  8
M0
  6
DASHDOT
 62
     7
100
AcDbLine
 10
225.996328
 20
616.451301
 11
239.631779
 21
616.4513
  0
LINE
  5
473
100
AcDbEntity
  8
M0
  6
DASHDOT
 62
     7
100
AcDbLine
 10
232.814053
 20
609.633575
 11
232.814054
 21
623.269026
  0
CIRCLE
  5
474
100
AcDbEntity
  8
M0
 62
     7
100
AcDbCircle
 10
250.314053
 20
576.451301
 40
4.5
  0
LINE
  5
475
100
AcDbEntity
  8
M0
 62
     7
100
AcDbLine
 10
251.162655
 20
576.451236
 11
253.891936
 21
579.180517
  0
LINE
  5
476
100
AcDbEntity
  8
M0
 62
     7
100
AcDbLine
 10
247.584826
 20
572.873407
 11
250.314118
 21
575.602699
  0
LINE
  5
477
100
AcDbEntity
  8
M0
 62
     7
100
AcDbLine
 10
249.465635
 20
576.451182
 11
246.73631
 21
573.721857
  0
LINE
  5
478
100
AcDbEntity
  8
M0
 62
     7
100
AcDbLine
 10
253.043475
 20
580.029043
 11
250.314172
 21
577.299719
  0
LINE
  5
479
100
AcDbEntity
  8
M0
 62
     7
100
AcDbLine
 10
250.314118
 20
575.602699
 11
251.586945
 21
574.329872
  0
LINE
  5
47A
100
AcDbEntity
  8
M0
 62
     7
100
AcDbLine
 10
248.192798
 20
577.72402
 11
249.465624
 21
576.451193
  0
LINE
  5
47B
100
AcDbEntity
  8
M0
 62
     7
100
AcDbLine
 10
250.314161
 20
577.29973
 11
249.041335
 21
578.572556
  0
LINE
  5
47C
100
AcDbEntity
  8
M0
 62
     7
100
AcDbLine
 10
252.435481
 20
575.178409
 11
251.162655
 21
576.451236
  0
LINE
  5
47D
100
AcDbEntity
  8
M0
 62
     7
100
AcDbLine
 10
251.586945
 20
574.329872
 11
252.435481
 21
575.178409
  0
LINE
  5
47E
100
AcDbEntity
  8
M0
 62
     7
100
AcDbLine
 10
249.041335
 20
578.572556
 11
248.192798
 21
577.72402
  0
CIRCLE
  5
47F
100
AcDbEntity
  8
M0
 62
     7
100
AcDbCircle
 10
250.314053
 20
576.451301
 40
5.0
  0
LINE
  5
480
100
AcDbEntity
  8
M0
  6
DASHDOT
 62
     7
100
AcDbLine
 10
243.496328
 20
576.451301
 11
257.131779
 21
576.4513
  0
LINE
  5
481
100
AcDbEntity
  8
M0
  6
DASHDOT
 62
     7
100
AcDbLine
 10
250.314053
 20
569.633575
 11
250.314054
 21
583.269026
  0
CIRCLE
  5
482
100
AcDbEntity
  8
M0
 62
     7
100
AcDbCircle
 10
265.314053
 20
576.451301
 40
4.5
  0
LINE
  5
483
100
AcDbEntity
  8
M0
 62
     7
100
AcDbLine
 10
266.162655
 20
576.451236
 11
268.891936
 21
579.180517
  0
LINE
  5
484
100
AcDbEntity
  8
M0
 62
     7
100
AcDbLine
 10
262.584826
 20
572.873407
 11
265.314118
 21
575.602699
  0
LINE
  5
485
100
AcDbEntity
  8
M0
 62
     7
100
AcDbLine
 10
264.465635
 20
576.451182
 11
261.73631
 21
573.721857
  0
LINE
  5
486
100
AcDbEntity
  8
M0
 62
     7
100
AcDbLine
 10
268.043475
 20
580.029043
 11
265.314172
 21
577.299719
  0
LINE
  5
487
100
AcDbEntity
  8
M0
 62
     7
100
AcDbLine
 10
265.314118
 20
575.602699
 11
266.586945
 21
574.329872
  0
LINE
  5
488
100
AcDbEntity
  8
M0
 62
     7
100
AcDbLine
 10
263.192798
 20
577.72402
 11
264.465624
 21
576.451193
  0
LINE
  5
489
100
AcDbEntity
  8
M0
 62
     7
100
AcDbLine
 10
265.314161
 20
577.29973
 11
264.041335
 21
578.572556
  0
LINE
  5
48A
100
AcDbEntity
  8
M0
 62
     7
100
AcDbLine
 10
267.435481
 20
575.178409
 11
266.162655
 21
576.451236
  0
LINE
  5
48B
100
AcDbEntity
  8
M0
 62
     7
100
AcDbLine
 10
266.586945
 20
574.329872
 11
267.435481
 21
575.178409
  0
LINE
  5
48C
100
AcDbEntity
  8
M0
 62
     7
100
AcDbLine
 10
264.041335
 20
578.572556
 11
263.192798
 21
577.72402
  0
CIRCLE
  5
48D
100
AcDbEntity
  8
M0
 62
     7
100
AcDbCircle
 10
265.314053
 20
576.451301
 40
5.0
  0
LINE
  5
48E
100
AcDbEntity
  8
M0
  6
DASHDOT
 62
     7
100
AcDbLine
 10
258.496328
 20
576.451301
 11
272.131779
 21
576.4513
  0
LINE
  5
48F
100
AcDbEntity
  8
M0
  6
DASHDOT
 62
     7
100
AcDbLine
 10
265.314053
 20
569.633575
 11
265.314054
 21
583.269026
  0
CIRCLE
  5
490
100
AcDbEntity
  8
M0
 62
     7
100
AcDbCircle
 10
282.814053
 20
576.451301
 40
4.5
  0
LINE
  5
491
100
AcDbEntity
  8
M0
 62
     7
100
AcDbLine
 10
283.662655
 20
576.451236
 11
286.391936
 21
579.180517
  0
LINE
  5
492
100
AcDbEntity
  8
M0
 62
     7
100
AcDbLine
 10
280.084826
 20
572.873407
 11
282.814118
 21
575.602699
  0
LINE
  5
493
100
AcDbEntity
  8
M0
 62
     7
100
AcDbLine
 10
281.965635
 20
576.451182
 11
279.23631
 21
573.721857
  0
LINE
  5
494
100
AcDbEntity
  8
M0
 62
     7
100
AcDbLine
 10
285.543475
 20
580.029043
 11
282.814172
 21
577.299719
  0
LINE
  5
495
100
AcDbEntity
  8
M0
 62
     7
100
AcDbLine
 10
282.814118
 20
575.602699
 11
284.086945
 21
574.329872
  0
LINE
  5
496
100
AcDbEntity
  8
M0
 62
     7
100
AcDbLine
 10
280.692798
 20
577.72402
 11
281.965624
 21
576.451193
  0
LINE
  5
497
100
AcDbEntity
  8
M0
 62
     7
100
AcDbLine
 10
282.814161
 20
577.29973
 11
281.541335
 21
578.572556
  0
LINE
  5
498
100
AcDbEntity
  8
M0
 62
     7
100
AcDbLine
 10
284.935481
 20
575.178409
 11
283.662655
 21
576.451236
  0
LINE
  5
499
100
AcDbEntity
  8
M0
 62
     7
100
AcDbLine
 10
284.086945
 20
574.329872
 11
284.935481
 21
575.178409
  0
LINE
  5
49A
100
AcDbEntity
  8
M0
 62
     7
100
AcDbLine
 10
281.541335
 20
578.572556
 11
280.692798
 21
577.72402
  0
CIRCLE
  5
49B
100
AcDbEntity
  8
M0
 62
     7
100
AcDbCircle
 10
282.814053
 20
576.451301
 40
5.0
  0
LINE
  5
49C
100
AcDbEntity
  8
M0
  6
DASHDOT
 62
     7
100
AcDbLine
 10
275.996328
 20
576.451301
 11
289.631779
 21
576.4513
  0
LINE
  5
49D
100
AcDbEntity
  8
M0
  6
DASHDOT
 62
     7
100
AcDbLine
 10
282.814053
 20
569.633575
 11
282.814054
 21
583.269026
  0
LINE
  5
49E
100
AcDbEntity
  8
M0
 62
     7
100
AcDbLine
 10
233.662655
 20
576.451236
 11
236.391936
 21
579.180517
  0
LINE
  5
49F
100
AcDbEntity
  8
M0
 62
     7
100
AcDbLine
 10
230.084826
 20
572.873407
 11
232.814118
 21
575.602699
  0
LINE
  5
4A0
100
AcDbEntity
  8
M0
 62
     7
100
AcDbLine
 10
231.965635
 20
576.451182
 11
229.23631
 21
573.721857
  0
LINE
  5
4A1
100
AcDbEntity
  8
M0
 62
     7
100
AcDbLine
 10
235.543475
 20
580.029043
 11
232.814172
 21
577.299719
  0
LINE
  5
4A2
100
AcDbEntity
  8
M0
 62
     7
100
AcDbLine
 10
232.814118
 20
575.602699
 11
234.086945
 21
574.329872
  0
LINE
  5
4A3
100
AcDbEntity
  8
M0
 62
     7
100
AcDbLine
 10
230.692798
 20
577.72402
 11
231.965624
 21
576.451193
  0
LINE
  5
4A4
100
AcDbEntity
  8
M0
 62
     7
100
AcDbLine
 10
232.814161
 20
577.29973
 11
231.541335
 21
578.572556
  0
LINE
  5
4A5
100
AcDbEntity
  8
M0
 62
     7
100
AcDbLine
 10
234.935481
 20
575.178409
 11
233.662655
 21
576.451236
  0
LINE
  5
4A6
100
AcDbEntity
  8
M0
 62
     7
100
AcDbLine
 10
234.086945
 20
574.329872
 11
234.935481
 21
575.178409
  0
LINE
  5
4A7
100
AcDbEntity
  8
M0
 62
     7
100
AcDbLine
 10
231.541335
 20
578.572556
 11
230.692798
 21
577.72402
  0
LINE
  5
4A8
100
AcDbEntity
  8
M0
  6
DASHDOT
 62
     7
100
AcDbLine
 10
228.465047
 20
576.451301
 11
239.631779
 21
576.4513
  0
LINE
  5
4A9
100
AcDbEntity
  8
M0
  6
DASHDOT
 62
     7
100
AcDbLine
 10
232.814053
 20
569.633575
 11
232.814054
 21
583.269026
  0
ARC
  5
4AA
100
AcDbEntity
  8
M0
 62
     7
100
AcDbCircle
 10
232.814053
 20
576.451301
 40
5.0
100
AcDbArc
 50
209.56434
 51
510.435438
  0
ARC
  5
4AB
100
AcDbEntity
  8
M0
 62
     7
100
AcDbCircle
 10
232.814053
 20
576.451301
 40
4.5
100
AcDbArc
 50
194.884347
 51
525.115436
  0
CIRCLE
  5
4AC
100
AcDbEntity
  8
M0
 62
     7
100
AcDbCircle
 10
142.814053
 20
576.451301
 40
4.5
  0
LINE
  5
4AD
100
AcDbEntity
  8
M0
 62
     7
100
AcDbLine
 10
143.662655
 20
576.451236
 11
146.391936
 21
579.180517
  0
LINE
  5
4AE
100
AcDbEntity
  8
M0
 62
     7
100
AcDbLine
 10
140.084826
 20
572.873407
 11
142.814118
 21
575.602699
  0
LINE
  5
4AF
100
AcDbEntity
  8
M0
 62
     7
100
AcDbLine
 10
141.965635
 20
576.451182
 11
139.23631
 21
573.721857
  0
LINE
  5
4B0
100
AcDbEntity
  8
M0
 62
     7
100
AcDbLine
 10
145.543475
 20
580.029043
 11
142.814172
 21
577.299719
  0
LINE
  5
4B1
100
AcDbEntity
  8
M0
 62
     7
100
AcDbLine
 10
142.814118
 20
575.602699
 11
144.086945
 21
574.329872
  0
LINE
  5
4B2
100
AcDbEntity
  8
M0
 62
     7
100
AcDbLine
 10
140.692798
 20
577.72402
 11
141.965624
 21
576.451193
  0
LINE
  5
4B3
100
AcDbEntity
  8
M0
 62
     7
100
AcDbLine
 10
142.814161
 20
577.29973
 11
141.541335
 21
578.572556
  0
LINE
  5
4B4
100
AcDbEntity
  8
M0
 62
     7
100
AcDbLine
 10
144.935481
 20
575.178409
 11
143.662655
 21
576.451236
  0
LINE
  5
4B5
100
AcDbEntity
  8
M0
 62
     7
100
AcDbLine
 10
144.086945
 20
574.329872
 11
144.935481
 21
575.178409
  0
LINE
  5
4B6
100
AcDbEntity
  8
M0
 62
     7
100
AcDbLine
 10
141.541335
 20
578.572556
 11
140.692798
 21
577.72402
  0
CIRCLE
  5
4B7
100
AcDbEntity
  8
M0
 62
     7
100
AcDbCircle
 10
142.814053
 20
576.451301
 40
5.0
  0
LINE
  5
4B8
100
AcDbEntity
  8
M0
  6
DASHDOT
 62
     7
100
AcDbLine
 10
135.996328
 20
576.451301
 11
149.631779
 21
576.4513
  0
LINE
  5
4B9
100
AcDbEntity
  8
M0
  6
DASHDOT
 62
     7
100
AcDbLine
 10
142.814053
 20
569.633575
 11
142.814054
 21
583.269026
  0
CIRCLE
  5
4BA
100
AcDbEntity
  8
M0
 62
     7
100
AcDbCircle
 10
125.314053
 20
576.451301
 40
4.5
  0
LINE
  5
4BB
100
AcDbEntity
  8
M0
 62
     7
100
AcDbLine
 10
126.162655
 20
576.451236
 11
128.891936
 21
579.180517
  0
LINE
  5
4BC
100
AcDbEntity
  8
M0
 62
     7
100
AcDbLine
 10
122.584826
 20
572.873407
 11
125.314118
 21
575.602699
  0
LINE
  5
4BD
100
AcDbEntity
  8
M0
 62
     7
100
AcDbLine
 10
124.465635
 20
576.451182
 11
121.73631
 21
573.721857
  0
LINE
  5
4BE
100
AcDbEntity
  8
M0
 62
     7
100
AcDbLine
 10
128.043475
 20
580.029043
 11
125.314172
 21
577.299719
  0
LINE
  5
4BF
100
AcDbEntity
  8
M0
 62
     7
100
AcDbLine
 10
125.314118
 20
575.602699
 11
126.586945
 21
574.329872
  0
LINE
  5
4C0
100
AcDbEntity
  8
M0
 62
     7
100
AcDbLine
 10
123.192798
 20
577.72402
 11
124.465624
 21
576.451193
  0
LINE
  5
4C1
100
AcDbEntity
  8
M0
 62
     7
100
AcDbLine
 10
125.314161
 20
577.29973
 11
124.041335
 21
578.572556
  0
LINE
  5
4C2
100
AcDbEntity
  8
M0
 62
     7
100
AcDbLine
 10
127.435481
 20
575.178409
 11
126.162655
 21
576.451236
  0
LINE
  5
4C3
100
AcDbEntity
  8
M0
 62
     7
100
AcDbLine
 10
126.586945
 20
574.329872
 11
127.435481
 21
575.178409
  0
LINE
  5
4C4
100
AcDbEntity
  8
M0
 62
     7
100
AcDbLine
 10
124.041335
 20
578.572556
 11
123.192798
 21
577.72402
  0
CIRCLE
  5
4C5
100
AcDbEntity
  8
M0
 62
     7
100
AcDbCircle
 10
125.314053
 20
576.451301
 40
5.0
  0
LINE
  5
4C6
100
AcDbEntity
  8
M0
  6
DASHDOT
 62
     7
100
AcDbLine
 10
118.496328
 20
576.451301
 11
132.131779
 21
576.4513
  0
LINE
  5
4C7
100
AcDbEntity
  8
M0
  6
DASHDOT
 62
     7
100
AcDbLine
 10
125.314053
 20
569.633575
 11
125.314054
 21
583.269026
  0
CIRCLE
  5
4C8
100
AcDbEntity
  8
M0
 62
     7
100
AcDbCircle
 10
110.314053
 20
576.451301
 40
4.5
  0
LINE
  5
4C9
100
AcDbEntity
  8
M0
 62
     7
100
AcDbLine
 10
111.162655
 20
576.451236
 11
113.891936
 21
579.180517
  0
LINE
  5
4CA
100
AcDbEntity
  8
M0
 62
     7
100
AcDbLine
 10
107.584826
 20
572.873407
 11
110.314118
 21
575.602699
  0
LINE
  5
4CB
100
AcDbEntity
  8
M0
 62
     7
100
AcDbLine
 10
109.465635
 20
576.451182
 11
106.73631
 21
573.721857
  0
LINE
  5
4CC
100
AcDbEntity
  8
M0
 62
     7
100
AcDbLine
 10
113.043475
 20
580.029043
 11
110.314172
 21
577.299719
  0
LINE
  5
4CD
100
AcDbEntity
  8
M0
 62
     7
100
AcDbLine
 10
110.314118
 20
575.602699
 11
111.586945
 21
574.329872
  0
LINE
  5
4CE
100
AcDbEntity
  8
M0
 62
     7
100
AcDbLine
 10
108.192798
 20
577.72402
 11
109.465624
 21
576.451193
  0
LINE
  5
4CF
100
AcDbEntity
  8
M0
 62
     7
100
AcDbLine
 10
110.314161
 20
577.29973
 11
109.041335
 21
578.572556
  0
LINE
  5
4D0
100
AcDbEntity
  8
M0
 62
     7
100
AcDbLine
 10
112.435481
 20
575.178409
 11
111.162655
 21
576.451236
  0
LINE
  5
4D1
100
AcDbEntity
  8
M0
 62
     7
100
AcDbLine
 10
111.586945
 20
574.329872
 11
112.435481
 21
575.178409
  0
LINE
  5
4D2
100
AcDbEntity
  8
M0
 62
     7
100
AcDbLine
 10
109.041335
 20
578.572556
 11
108.192798
 21
577.72402
  0
CIRCLE
  5
4D3
100
AcDbEntity
  8
M0
 62
     7
100
AcDbCircle
 10
110.314053
 20
576.451301
 40
5.0
  0
LINE
  5
4D4
100
AcDbEntity
  8
M0
  6
DASHDOT
 62
     7
100
AcDbLine
 10
103.496328
 20
576.451301
 11
117.131779
 21
576.4513
  0
LINE
  5
4D5
100
AcDbEntity
  8
M0
  6
DASHDOT
 62
     7
100
AcDbLine
 10
110.314053
 20
569.633575
 11
110.314054
 21
583.269026
  0
CIRCLE
  5
4D6
100
AcDbEntity
  8
M0
 62
     7
100
AcDbCircle
 10
92.814069
 20
576.451301
 40
4.5
  0
LINE
  5
4D7
100
AcDbEntity
  8
M0
 62
     7
100
AcDbLine
 10
93.66267
 20
576.451236
 11
96.391952
 21
579.180517
  0
LINE
  5
4D8
100
AcDbEntity
  8
M0
 62
     7
100
AcDbLine
 10
90.084841
 20
572.873407
 11
92.814133
 21
575.602699
  0
LINE
  5
4D9
100
AcDbEntity
  8
M0
 62
     7
100
AcDbLine
 10
91.96565
 20
576.451182
 11
89.236326
 21
573.721857
  0
LINE
  5
4DA
100
AcDbEntity
  8
M0
 62
     7
100
AcDbLine
 10
95.543491
 20
580.029043
 11
92.814187
 21
577.299719
  0
LINE
  5
4DB
100
AcDbEntity
  8
M0
 62
     7
100
AcDbLine
 10
92.814133
 20
575.602699
 11
94.08696
 21
574.329872
  0
LINE
  5
4DC
100
AcDbEntity
  8
M0
 62
     7
100
AcDbLine
 10
90.692813
 20
577.72402
 11
91.96564
 21
576.451193
  0
LINE
  5
4DD
100
AcDbEntity
  8
M0
 62
     7
100
AcDbLine
 10
92.814176
 20
577.29973
 11
91.54135
 21
578.572556
  0
LINE
  5
4DE
100
AcDbEntity
  8
M0
 62
     7
100
AcDbLine
 10
94.935497
 20
575.178409
 11
93.66267
 21
576.451236
  0
LINE
  5
4DF
100
AcDbEntity
  8
M0
 62
     7
100
AcDbLine
 10
94.08696
 20
574.329872
 11
94.935497
 21
575.178409
  0
LINE
  5
4E0
100
AcDbEntity
  8
M0
 62
     7
100
AcDbLine
 10
91.54135
 20
578.572556
 11
90.692813
 21
577.72402
  0
CIRCLE
  5
4E1
100
AcDbEntity
  8
M0
 62
     7
100
AcDbCircle
 10
92.814069
 20
576.451301
 40
5.0
  0
LINE
  5
4E2
100
AcDbEntity
  8
M0
  6
DASHDOT
 62
     7
100
AcDbLine
 10
85.996343
 20
576.451301
 11
99.631794
 21
576.4513
  0
LINE
  5
4E3
100
AcDbEntity
  8
M0
  6
DASHDOT
 62
     7
100
AcDbLine
 10
92.814068
 20
569.633575
 11
92.814069
 21
583.269026
  0
CIRCLE
  5
4E4
100
AcDbEntity
  8
M0
 62
     7
100
AcDbCircle
 10
92.814053
 20
616.451301
 40
4.5
  0
LINE
  5
4E5
100
AcDbEntity
  8
M0
 62
     7
100
AcDbLine
 10
93.662655
 20
616.451236
 11
96.391936
 21
619.180517
  0
LINE
  5
4E6
100
AcDbEntity
  8
M0
 62
     7
100
AcDbLine
 10
90.084826
 20
612.873407
 11
92.814118
 21
615.602699
  0
LINE
  5
4E7
100
AcDbEntity
  8
M0
 62
     7
100
AcDbLine
 10
91.965635
 20
616.451182
 11
89.23631
 21
613.721857
  0
LINE
  5
4E8
100
AcDbEntity
  8
M0
 62
     7
100
AcDbLine
 10
95.543475
 20
620.029043
 11
92.814172
 21
617.299719
  0
LINE
  5
4E9
100
AcDbEntity
  8
M0
 62
     7
100
AcDbLine
 10
92.814118
 20
615.602699
 11
94.086945
 21
614.329872
  0
LINE
  5
4EA
100
AcDbEntity
  8
M0
 62
     7
100
AcDbLine
 10
90.692798
 20
617.72402
 11
91.965624
 21
616.451193
  0
LINE
  5
4EB
100
AcDbEntity
  8
M0
 62
     7
100
AcDbLine
 10
92.814161
 20
617.29973
 11
91.541335
 21
618.572556
  0
LINE
  5
4EC
100
AcDbEntity
  8
M0
 62
     7
100
AcDbLine
 10
94.935481
 20
615.178409
 11
93.662655
 21
616.451236
  0
LINE
  5
4ED
100
AcDbEntity
  8
M0
 62
     7
100
AcDbLine
 10
94.086945
 20
614.329872
 11
94.935481
 21
615.178409
  0
LINE
  5
4EE
100
AcDbEntity
  8
M0
 62
     7
100
AcDbLine
 10
91.541335
 20
618.572556
 11
90.692798
 21
617.72402
  0
CIRCLE
  5
4EF
100
AcDbEntity
  8
M0
 62
     7
100
AcDbCircle
 10
92.814053
 20
616.451301
 40
5.0
  0
LINE
  5
4F0
100
AcDbEntity
  8
M0
  6
DASHDOT
 62
     7
100
AcDbLine
 10
85.996328
 20
616.451301
 11
99.631779
 21
616.4513
  0
LINE
  5
4F1
100
AcDbEntity
  8
M0
  6
DASHDOT
 62
     7
100
AcDbLine
 10
92.814053
 20
609.633575
 11
92.814054
 21
623.269026
  0
LINE
  5
4F2
100
AcDbEntity
  8
M0
 62
     7
100
AcDbLine
 10
192.814023
 20
624.251348
 11
182.814023
 21
624.251351
  0
LINE
  5
4F3
100
AcDbEntity
  8
M0
 62
     7
100
AcDbLine
 10
182.814022
 20
622.951364
 11
182.814023
 21
624.251351
  0
LINE
  5
4F4
100
AcDbEntity
  8
M0
 62
     7
100
AcDbLine
 10
192.814022
 20
622.951361
 11
192.814023
 21
624.251348
  0
LINE
  5
4F5
100
AcDbEntity
  8
M0
 62
     7
100
AcDbLine
 10
192.814022
 20
622.95136
 11
182.814022
 21
622.951363
  0
LINE
  5
4F6
100
AcDbEntity
  8
M0
 62
     7
100
AcDbLine
 10
183.314022
 20
622.951363
 11
183.314022
 21
621.663872
  0
ARC
  5
4F7
100
AcDbEntity
  8
M0
 62
     7
100
AcDbCircle
 10
184.91412
 20
621.663872
 40
1.599999
100
AcDbArc
 50
179.999948
 51
253.812399
  0
LINE
  5
4F8
100
AcDbEntity
  8
M0
 62
     7
100
AcDbLine
 10
192.314022
 20
621.663866
 11
192.314022
 21
622.95136
  0
ARC
  5
4F9
100
AcDbEntity
  8
M0
 62
     7
100
AcDbCircle
 10
187.814025
 20
631.651359
 40
12.0
100
AcDbArc
 50
253.809557
 51
286.191317
  0
LINE
  5
4FA
100
AcDbEntity
  8
M0
 62
     7
100
AcDbLine
 10
187.814053
 20
622.951362
 11
186.814053
 21
624.25135
  0
LINE
  5
4FB
100
AcDbEntity
  8
M0
 62
     7
100
AcDbLine
 10
187.814053
 20
624.25135
 11
188.814053
 21
622.951361
  0
ARC
  5
4FC
100
AcDbEntity
  8
M0
 62
     7
100
AcDbCircle
 10
190.714022
 20
621.663866
 40
1.599999
100
AcDbArc
 50
286.191304
 51
359.999948
  0
LINE
  5
4FD
100
AcDbEntity
  8
M0
 62
     7
100
AcDbLine
 10
419.133847
 20
624.251348
 11
409.133847
 21
624.251351
  0
LINE
  5
4FE
100
AcDbEntity
  8
M0
 62
     7
100
AcDbLine
 10
409.133847
 20
622.951364
 11
409.133847
 21
624.251351
  0
LINE
  5
4FF
100
AcDbEntity
  8
M0
 62
     7
100
AcDbLine
 10
419.133847
 20
622.951361
 11
419.133847
 21
624.251348
  0
LINE
  5
500
100
AcDbEntity
  8
M0
 62
     7
100
AcDbLine
 10
419.133847
 20
622.95136
 11
409.133847
 21
622.951363
  0
LINE
  5
501
100
AcDbEntity
  8
M0
 62
     7
100
AcDbLine
 10
409.633847
 20
622.951363
 11
409.633846
 21
621.663872
  0
ARC
  5
502
100
AcDbEntity
  8
M0
 62
     7
100
AcDbCircle
 10
411.233944
 20
621.663872
 40
1.599999
100
AcDbArc
 50
179.999948
 51
253.812399
  0
LINE
  5
503
100
AcDbEntity
  8
M0
 62
     7
100
AcDbLine
 10
418.633846
 20
621.663866
 11
418.633847
 21
622.95136
  0
ARC
  5
504
100
AcDbEntity
  8
M0
 62
     7
100
AcDbCircle
 10
414.133849
 20
631.651359
 40
12.0
100
AcDbArc
 50
253.809557
 51
286.191317
  0
LINE
  5
505
100
AcDbEntity
  8
M0
 62
     7
100
AcDbLine
 10
414.133877
 20
622.951362
 11
413.133878
 21
624.25135
  0
LINE
  5
506
100
AcDbEntity
  8
M0
 62
     7
100
AcDbLine
 10
414.133878
 20
624.25135
 11
415.133877
 21
622.951361
  0
ARC
  5
507
100
AcDbEntity
  8
M0
 62
     7
100
AcDbCircle
 10
417.033846
 20
621.663866
 40
1.599999
100
AcDbArc
 50
286.191304
 51
359.999948
  0
LINE
  5
508
100
AcDbEntity
  8
M0
 62
     7
100
AcDbLine
 10
434.133847
 20
624.251348
 11
424.133847
 21
624.251351
  0
LINE
  5
509
100
AcDbEntity
  8
M0
 62
     7
100
AcDbLine
 10
424.133847
 20
622.951364
 11
424.133847
 21
624.251351
  0
LINE
  5
50A
100
AcDbEntity
  8
M0
 62
     7
100
AcDbLine
 10
434.133847
 20
622.951361
 11
434.133847
 21
624.251348
  0
LINE
  5
50B
100
AcDbEntity
  8
M0
 62
     7
100
AcDbLine
 10
434.133847
 20
622.95136
 11
424.133847
 21
622.951363
  0
LINE
  5
50C
100
AcDbEntity
  8
M0
 62
     7
100
AcDbLine
 10
424.633847
 20
622.951363
 11
424.633846
 21
621.663872
  0
ARC
  5
50D
100
AcDbEntity
  8
M0
 62
     7
100
AcDbCircle
 10
426.233944
 20
621.663872
 40
1.599999
100
AcDbArc
 50
179.999948
 51
253.812399
  0
LINE
  5
50E
100
AcDbEntity
  8
M0
 62
     7
100
AcDbLine
 10
433.633846
 20
621.663866
 11
433.633847
 21
622.95136
  0
ARC
  5
50F
100
AcDbEntity
  8
M0
 62
     7
100
AcDbCircle
 10
429.133849
 20
631.651359
 40
12.0
100
AcDbArc
 50
253.809557
 51
286.191317
  0
LINE
  5
510
100
AcDbEntity
  8
M0
 62
     7
100
AcDbLine
 10
429.133877
 20
622.951362
 11
428.133878
 21
624.25135
  0
LINE
  5
511
100
AcDbEntity
  8
M0
 62
     7
100
AcDbLine
 10
429.133878
 20
624.25135
 11
430.133877
 21
622.951361
  0
ARC
  5
512
100
AcDbEntity
  8
M0
 62
     7
100
AcDbCircle
 10
432.033846
 20
621.663866
 40
1.599999
100
AcDbArc
 50
286.191304
 51
359.999948
  0
LINE
  5
513
100
AcDbEntity
  8
M1
 62
     2
100
AcDbLine
 10
28.571429
 20
28.571429
 11
28.571429
 21
814.285728
  0
LINE
  5
514
100
AcDbEntity
  8
M1
 62
     2
100
AcDbLine
 10
28.571429
 20
814.285728
 11
571.428581
 21
814.285728
  0
LINE
  5
515
100
AcDbEntity
  8
M1
 62
     2
100
AcDbLine
 10
571.428581
 20
814.285728
 11
571.428581
 21
28.571429
  0
LINE
  5
516
100
AcDbEntity
  8
M1
 62
     2
100
AcDbLine
 10
571.428581
 20
28.571429
 11
28.571429
 21
28.571429
  0
LINE
  5
517
100
AcDbEntity
  8
M1
 62
     2
100
AcDbLine
 10
571.428581
 20
57.142858
 11
285.714291
 21
57.142858
  0
LINE
  5
518
100
AcDbEntity
  8
M1
 62
     2
100
AcDbLine
 10
571.428581
 20
85.714287
 11
285.714291
 21
85.714287
  0
LINE
  5
519
100
AcDbEntity
  8
M1
 62
     2
100
AcDbLine
 10
571.428581
 20
114.285716
 11
285.714291
 21
114.285716
  0
LINE
  5
51A
100
AcDbEntity
  8
M1
 62
     2
100
AcDbLine
 10
285.714291
 20
28.571429
 11
285.714291
 21
114.285716
  0
TEXT
  5
51B
100
AcDbEntity
  8
M1
 62
     2
100
AcDbText
 10
292.857148
 20
35.714286
 40
14.285714
  1
適　用；
 41
1.0
  7
STANDARD
100
AcDbText
  0
TEXT
  5
51C
100
AcDbEntity
  8
M1
 62
     2
100
AcDbText
 10
292.857148
 20
92.857144
 40
14.285714
  1
登録名：
 41
1.0
  7
STANDARD
100
AcDbText
  0
TEXT
  5
51D
100
AcDbEntity
  8
M1
 62
     2
100
AcDbText
 10
361.428578
 20
92.857144
 40
14.285714
  1
ＤＭＴＲ６００Ｂ１ＥＲ００
 41
0.5
  7
STANDARD
100
AcDbText
  0
TEXT
  5
51E
100
AcDbEntity
  8
M1
 62
     2
100
AcDbText
 10
292.857148
 20
64.285715
 40
14.285714
  1
形　式；
 41
1.0
  7
STANDARD
100
AcDbText
  0
TEXT
  5
51F
100
AcDbEntity
  8
M1
 62
     2
100
AcDbText
 10
361.428578
 20
64.285715
 40
14.285714
  1
ＴＲ６００Ｂ－１Ｅ，ＴＲ６００Ｂ－２Ｅ，ＴＲ６００Ｂ－１ＥＳ
 41
0.25
  7
STANDARD
100
AcDbText
  0
LINE
  5
520
100
AcDbEntity
  8
DN0
100
AcDbLine
 10
128.681174
 20
381.637536
 11
272.366883
 21
381.637536
  0
TEXT
  5
521
100
AcDbEntity
  8
DN0
100
AcDbText
 10
130.285936
 20
383.066108
 40
14.285715
  1
単独使用できません。
 41
0.833333
  7
STANDARD
100
AcDbText
  0
TEXT
  5
522
100
AcDbEntity
  8
DN0
100
AcDbText
 10
131.968292
 20
361.876009
 40
9.0
  1
電磁接触器Ｈ８Ｃ，Ｈ１０Ｃ，
 41
0.833333
  7
STANDARD
100
AcDbText
  0
TEXT
  5
523
100
AcDbEntity
  8
DN0
100
AcDbText
 10
131.968292
 20
348.876
 40
9.0
  1
Ｈ１１，Ｈ１２，Ｈ１０Ｂ－Ｒ
 41
0.833333
  7
STANDARD
100
AcDbText
  0
TEXT
  5
524
100
AcDbEntity
  8
DN0
100
AcDbText
 10
131.968292
 20
335.875991
 40
9.0
  1
と組み合わせ専用品です。
 41
0.833333
  7
STANDARD
100
AcDbText
  0
ENDSEC
  0
SECTION
  2
OBJECTS
  0
DICTIONARY
  5
C
100
AcDbDictionary
  3
ACAD_GROUP
350
D
  3
ACAD_MLINESTYLE
350
E
  0
DICTIONARY
  5
D
102
{ACAD_REACTORS
330
C
102
}
100
AcDbDictionary
  0
DICTIONARY
  5
E
102
{ACAD_REACTORS
330
C
102
}
100
AcDbDictionary
  3
STANDARD
350
13
  0
MLINESTYLE
  5
13
102
{ACAD_REACTORS
330
E
102
}
100
AcDbMlineStyle
  2
STANDARD
 70
     0
  3

 62
     0
 51
90.0
 52
90.0
 71
     2
 49
0.5
 62
   256
  6
BYLAYER
 49
-0.5
 62
   256
  6
BYLAYER
  0
ENDSEC
  0
EOF
