  0
SECTION
  2
HEADER
  9
$ACADVER
  1
AC1014
  9
$INSBASE
 10
0.000000
 20
0.000000
 30
0.0
  9
$VIEWCTR
 10
7.531722
 20
4.5
  9
$VIEWSIZE
 40
9.0
  9
$SNAPMODE
 70
     0
  9
$SNAPUNIT
 10
1.0
 20
1.0
  9
$SNAPBASE
 10
0.0
 20
0.0
  9
$SNAPANG
 50
0.0
  9
$SNAPSTYLE
 70
     0
  9
$SNAPISOPAIR
 70
     0
  9
$GRIDMODE
 70
     0
  9
$GRIDUNIT
 10
0.0
 20
0.0
  9
$ORTHOMODE
 70
     0
  9
$REGENMODE
 70
     1
  9
$FILLMODE
 70
     1
  9
$QTEXTMODE
 70
     0
  9
$DRAGMODE
 70
     2
  9
$LTSCALE
  40
     1.000000
  9
$OSMODE
 70
     0
  9
$ATTMODE
 70
     1
  9
$TEXTSIZE
 40
0.2
  9
$TRACEWID
 40
0.05
  9
$TEXTSTYLE
  7
STANDARD
  9
$CELTYPE
  6
BYLAYER
  9
$CECOLOR
 62
   256
  9
$DIMSCALE
 40
1.0
  9
$DIMASZ
 40
0.18
  9
$DIMEXO
 40
0.0625
  9
$DIMDLI
 40
0.38
  9
$DIMRND
 40
0.0
  9
$DIMDLE
 40
0.0
  9
$DIMEXE
 40
0.18
  9
$DIMTP
 40
0.0
  9
$DIMTM
 40
0.0
  9
$DIMTXT
 40
0.18
  9
$DIMCEN
 40
0.09
  9
$DIMTSZ
 40
0.0
  9
$DIMTOL
 70
     0
  9
$DIMLIM
 70
     0
  9
$DIMTIH
 70
     1
  9
$DIMTOH
 70
     1
  9
$DIMSE1
 70
     0
  9
$DIMSE2
 70
     0
  9
$DIMTAD
 70
     0
  9
$DIMZIN
 70
     0
  9
$DIMBLK
  1

  9
$LUNITS
 70
     2
  9
$LUPREC
 70
     4
  9
$AXISMODE
 70
     0
  9
$AXISUNIT
 10
0.0
 20
0.0
  9
$SKETCHINC
 40
0.1
  9
$FILLETRAD
 40
0.0
  9
$AUNITS
 70
     0
  9
$AUPREC
 70
     0
  9
$MENU
  1
ACAD
  9
$ELEVATION
 40
0.0
  9
$THICKNESS
 40
0.0
  9
$VIEWDIR
 10
0.0
 20
0.0
 30
1.0
  9
$LIMCHECK
 70
     0
  9
$BLIPMODE
 70
     1
  9
$CHAMFERA
 40
0.0
  9
$CHAMFERB
 40
0.0
  9
$FASTZOOM
 70
     1
  9
$SKPOLY
 70
     0
  9
$TDCREATE
 40
0000000.0000000000
  9
$TDUPDATE
 40
0000000.0000000000
  9
$TDINDWG
 40
0.0000000000
  9
$TDUSRTIMER
 40
0.0000000000
  9
$USRTIMER
 70
     1
  9
$ANGBASE
 50
0.0
  9
$ANGDIR
 70
     0
  9
$PDMODE
 70
     0
  9
$PDSIZE
 40
0.0
  9
$PLINEWID
 40
0.0
  9
$COORDS
 70
     0
  9
$USERI1
 70
     0
  9
$USERI2
 70
     0
  9
$USERI3
 70
     0
  9
$USERI4
 70
     0
  9
$USERI5
 70
     0
  9
$USERR1
 40
0.0
  9
$USERR2
 40
0.0
  9
$USERR3
 40
0.0
  9
$USERR4
 40
0.0
  9
$USERR5
 40
0.0
  9
$CLAYER
  8
M0
  9
$EXTMIN
 10
12.5
 20
12.5
  9
$EXTMAX
 10
249.999996
 20
356.249995
  9
$LIMMIN
 10
0.0
 20
0.0
  9
$LIMMAX
 10
210.0
 20
297.0
  9
$HANDSEED
  5
2A9
  0
ENDSEC
  0
SECTION
  2
CLASSES
  0
ENDSEC
  0
SECTION
  2
TABLES
  0
TABLE
  2
VPORT
  5
8
100
AcDbSymbolTable
 70
     2
  0
VPORT
  5
14
100
AcDbSymbolTableRecord
100
AcDbViewportTableRecord
  2
*ACTIVE
 70
     0
 10
0.0
 20
0.0
 11
1.0
 21
1.0
 12
484.0
 22
297.0
 13
0.0
 23
0.0
 14
1.0
 24
1.0
 15
0.0
 25
0.0
 16
0.0
 26
0.0
 36
1.0
 17
0.0
 27
0.0
 37
0.0
 40
594.0
 41
2.0
 42
50.0
 43
0.0
 44
0.0
 50
0.0
 51
0.0
 71
     0
 72
   100
 73
     1
 74
     1
 75
     0
 76
     0
 77
     0
 78
     0
  0
ENDTAB
  0
TABLE
  2
LTYPE
  5
5
100
AcDbSymbolTable
 70
     5
  0
LTYPE
  5
15
100
AcDbSymbolTableRecord
100
AcDbLinetypeTableRecord
  2
BYBLOCK
 70
     0
  3

 72
    65
 73
     0
 40
0.0
  0
LTYPE
  5
16
100
AcDbSymbolTableRecord
100
AcDbLinetypeTableRecord
  2
BYLAYER
 70
     0
  3

 72
    65
 73
     0
 40
0.0
  0
LTYPE
  5
17
100
AcDbSymbolTableRecord
100
AcDbLinetypeTableRecord
  2
CONTINUOUS
 70
    64
  3
Solid line
 72
    65
 73
     0
 40
0.0
  0
LTYPE
  5
18
100
AcDbSymbolTableRecord
100
AcDbLinetypeTableRecord
  2
DASHED
 70
    64
  3
__ __ __ __ __ __ __ __ __ __ __ __ __ __ __ __
 72
    65
 73
     2
 40
0.75
 49
0.5
 74
     0
 49
-0.25
 74
     0
  0
LTYPE
  5
19
100
AcDbSymbolTableRecord
100
AcDbLinetypeTableRecord
  2
DASHDOT
 70
    64
  3
__ . __ . __ . __ . __ . __ . __ . __ . __ . __
 72
    65
 73
     4
 40
1.0
 49
0.5
 74
     0
 49
-0.25
 74
     0
 49
0.0
 74
     0
 49
-0.25
 74
     0
  0
LTYPE
  5
1A
100
AcDbSymbolTableRecord
100
AcDbLinetypeTableRecord
  2
DIVIDE
 70
    64
  3
____ . . ____ . . ____ . . ____ . . ____ . . __
 72
    65
 73
     6
 40
1.25
 49
0.5
 74
     0
 49
-0.25
 74
     0
 49
0.0
 74
     0
 49
-0.25
 74
     0
 49
0.0
 74
     0
 49
-0.25
 74
     0
  0
LTYPE
  5
1B
100
AcDbSymbolTableRecord
100
AcDbLinetypeTableRecord
  2
DOT
 70
    64
  3
. . . . . . . . . . . . . . . . . . . . . . . .
 72
    65
 73
     2
 40
0.25
 49
0.0
 74
     0
 49
-0.25
 74
     0
  0
ENDTAB
  0
TABLE
  2
LAYER
  5
2
100
AcDbSymbolTable
 70
   102
  0
LAYER
  5
F
100
AcDbSymbolTableRecord
100
AcDbLayerTableRecord
  2
0
 70
     0
 62
     7
  6
CONTINUOUS
  0
LAYER
  5
1C
100
AcDbSymbolTableRecord
100
AcDbLayerTableRecord
  2
DEFPOINTS
 70
     0
 62
     7
  6
CONTINUOUS
  0
LAYER
  5
1D
100
AcDbSymbolTableRecord
100
AcDbLayerTableRecord
  2
M0
 70
     0
 62
     3
  6
CONTINUOUS
  0
LAYER
  5
1E
100
AcDbSymbolTableRecord
100
AcDbLayerTableRecord
  2
M1
 70
     0
 62
     3
  6
CONTINUOUS
  0
LAYER
  5
1F
100
AcDbSymbolTableRecord
100
AcDbLayerTableRecord
  2
DD0
 70
     0
 62
     4
  6
CONTINUOUS
  0
LAYER
  5
20
100
AcDbSymbolTableRecord
100
AcDbLayerTableRecord
  2
DN0
 70
     0
 62
     2
  6
CONTINUOUS
  0
ENDTAB
  0
TABLE
  2
STYLE
  5
3
100
AcDbSymbolTable
 70
     2
  0
STYLE
  5
10
100
AcDbSymbolTableRecord
100
AcDbTextStyleTableRecord
  2
STANDARD
 70
     0
 40
0.0
 41
1.0
 50
0.0
 71
     0
 42
0.2
  3
txt
  4
BIGFONT
  0
ENDTAB
  0
TABLE
  2
VIEW
  5
6
100
AcDbSymbolTable
 70
     0
  0
ENDTAB
  0
TABLE
  2
UCS
  5
7
100
AcDbSymbolTable
 70
     0
  0
ENDTAB
  0
TABLE
  2
APPID
  5
9
100
AcDbSymbolTable
 70
     1
  0
APPID
  5
11
100
AcDbSymbolTableRecord
100
AcDbRegAppTableRecord
  2
ACAD
 70
     0
  0
ENDTAB
  0
TABLE
  2
DIMSTYLE
  5
A
100
AcDbSymbolTable
 70
     2
  0
DIMSTYLE
105
27
100
AcDbSymbolTableRecord
100
AcDbDimStyleTableRecord
  2
STANDARD
 70
     0
  3

  4

  5

  6
_OPEN
  7
_OPEN
 40
1.0
 41
3.75
 42
1.0
 43
8.0
 44
1.0
 45
0.0
 46
0.0
 47
0.0
 48
0.0
140
3.9375
141
0.09
142
0.0
143
0.03937
144
1.0
145
0.0
146
1.0
147
0.6
 71
     0
 72
     0
 73
     1
 74
     1
 75
     0
 76
     0
 77
     3
 78
     8
170
     0
171
     2
172
     0
173
     1
174
     0
175
     0
176
     0
177
     0
178
     0
270
     2
271
     2
272
     4
273
     2
274
     2
340
10
275
     0
280
     0
281
     0
282
     0
283
     1
284
     0
285
     0
286
     0
287
     3
288
     0
  0
DIMSTYLE
105
28
100
AcDbSymbolTableRecord
100
AcDbDimStyleTableRecord
  2
LEADSTYL
 70
     0
  3

  4

  5

  6
_OPEN
  7
_OPEN
 40
1.0
 41
3.75
 42
0.0625
 43
0.38
 44
0.18
 45
0.0
 46
0.0
 47
0.0
 48
0.0
140
3.9375
141
0.09
142
0.0
143
25.4
144
1.0
145
0.0
146
1.0
147
0.6
 71
     0
 72
     0
 73
     1
 74
     1
 75
     0
 76
     0
 77
     0
 78
     0
170
     0
171
     2
172
     0
173
     1
174
     0
175
     0
176
     0
177
     0
178
     0
270
     2
271
     4
272
     4
273
     2
274
     2
340
10
275
     0
280
     0
281
     0
282
     0
283
     1
284
     0
285
     0
286
     0
287
     3
288
     0
  0
ENDTAB
  0
TABLE
  2
BLOCK_RECORD
  5
1
100
AcDbSymbolTable
 70
    16
  0
BLOCK_RECORD
  5
21
100
AcDbSymbolTableRecord
100
AcDbBlockTableRecord
  2
*MODEL_SPACE
  0
BLOCK_RECORD
  5
24
100
AcDbSymbolTableRecord
100
AcDbBlockTableRecord
  2
*PAPER_SPACE
  0
BLOCK_RECORD
  5
29
100
AcDbSymbolTableRecord
100
AcDbBlockTableRecord
  2
_NONE
  0
BLOCK_RECORD
  5
2D
100
AcDbSymbolTableRecord
100
AcDbBlockTableRecord
  2
_OPEN
  0
BLOCK_RECORD
  5
33
100
AcDbSymbolTableRecord
100
AcDbBlockTableRecord
  2
_CLOSED
  0
BLOCK_RECORD
  5
3A
100
AcDbSymbolTableRecord
100
AcDbBlockTableRecord
  2
_ORIGIN
  0
BLOCK_RECORD
  5
3F
100
AcDbSymbolTableRecord
100
AcDbBlockTableRecord
  2
_DOT
  0
BLOCK_RECORD
  5
47
100
AcDbSymbolTableRecord
100
AcDbBlockTableRecord
  2
_OBLIQUE
  0
BLOCK_RECORD
  5
4B
100
AcDbSymbolTableRecord
100
AcDbBlockTableRecord
  2
DIMS0
  0
BLOCK_RECORD
  5
57
100
AcDbSymbolTableRecord
100
AcDbBlockTableRecord
  2
DIMS1
  0
BLOCK_RECORD
  5
63
100
AcDbSymbolTableRecord
100
AcDbBlockTableRecord
  2
DIMS2
  0
BLOCK_RECORD
  5
6F
100
AcDbSymbolTableRecord
100
AcDbBlockTableRecord
  2
DIMS3
  0
BLOCK_RECORD
  5
78
100
AcDbSymbolTableRecord
100
AcDbBlockTableRecord
  2
DIMS4
  0
BLOCK_RECORD
  5
84
100
AcDbSymbolTableRecord
100
AcDbBlockTableRecord
  2
DIMS5
  0
BLOCK_RECORD
  5
90
100
AcDbSymbolTableRecord
100
AcDbBlockTableRecord
  2
DIMS6
  0
BLOCK_RECORD
  5
9C
100
AcDbSymbolTableRecord
100
AcDbBlockTableRecord
  2
DIMS7
  0
BLOCK_RECORD
  5
A8
100
AcDbSymbolTableRecord
100
AcDbBlockTableRecord
  2
DIMS8
  0
BLOCK_RECORD
  5
B4
100
AcDbSymbolTableRecord
100
AcDbBlockTableRecord
  2
DIMS9
  0
ENDTAB
  0
ENDSEC
  0
SECTION
  2
BLOCKS
  0
BLOCK
  5
22
100
AcDbEntity
  8
0
100
AcDbBlockBegin
  2
*MODEL_SPACE
 70
     0
 10
0.0
 20
0.0
 30
0.0
  3
*MODEL_SPACE
  1

  0
ENDBLK
  5
23
100
AcDbEntity
  8
0
100
AcDbBlockEnd
  0
BLOCK
  5
25
100
AcDbEntity
 67
     1
  8
0
100
AcDbBlockBegin
  2
*PAPER_SPACE
 70
     0
 10
0.0
 20
0.0
 30
0.0
  3
*PAPER_SPACE
  1

  0
ENDBLK
  5
26
100
AcDbEntity
 67
     1
  8
0
100
AcDbBlockEnd
  0
BLOCK
  5
2A
100
AcDbEntity
  8
0
100
AcDbBlockBegin
  2
_NONE
 70
     0
 10
0.0
 20
0.0
  0
CIRCLE
  5
2B
100
AcDbEntity
  8
0
 62
     0
100
AcDbCircle
 10
0.0
 20
0.0
 40
0.25
  0
ENDBLK
  5
2C
100
AcDbEntity
  8
0
100
AcDbBlockEnd
  0
BLOCK
  5
2E
100
AcDbEntity
  8
0
100
AcDbBlockBegin
  2
_OPEN
 70
     0
 10
0.0
 20
0.0
  0
LINE
  5
2F
100
AcDbEntity
  8
0
 62
     0
100
AcDbLine
 10
-0.965926
 20
0.258819
 11
0.0
 21
0.0
  0
LINE
  5
30
100
AcDbEntity
  8
0
 62
     0
100
AcDbLine
 10
0.0
 20
0.0
 11
-0.965926
 21
-0.258819
  0
LINE
  5
31
100
AcDbEntity
  8
0
 62
     0
100
AcDbLine
 10
0.0
 20
0.0
 11
-1.0
 21
0.0
  0
ENDBLK
  5
32
100
AcDbEntity
  8
0
100
AcDbBlockEnd
  0
BLOCK
  5
34
100
AcDbEntity
  8
0
100
AcDbBlockBegin
  2
_CLOSED
 70
     0
 10
0.0
 20
0.0
  0
LINE
  5
35
100
AcDbEntity
  8
0
 62
     0
100
AcDbLine
 10
-0.965926
 20
0.258819
 11
0.0
 21
0.0
  0
LINE
  5
36
100
AcDbEntity
  8
0
 62
     0
100
AcDbLine
 10
0.0
 20
0.0
 11
-0.965926
 21
-0.258819
  0
LINE
  5
37
100
AcDbEntity
  8
0
 62
     0
100
AcDbLine
 10
-0.965926
 20
0.258819
 11
-0.965926
 21
-0.258819
  0
LINE
  5
38
100
AcDbEntity
  8
0
 62
     0
100
AcDbLine
 10
0.0
 20
0.0
 11
-1.0
 21
0.0
  0
ENDBLK
  5
39
100
AcDbEntity
  8
0
100
AcDbBlockEnd
  0
BLOCK
  5
3B
100
AcDbEntity
  8
0
100
AcDbBlockBegin
  2
_ORIGIN
 70
     0
 10
0.0
 20
0.0
  0
CIRCLE
  5
3C
100
AcDbEntity
  8
0
 62
     0
100
AcDbCircle
 10
0.0
 20
0.0
 40
0.5
  0
LINE
  5
3D
100
AcDbEntity
  8
0
 62
     0
100
AcDbLine
 10
0.0
 20
0.0
 11
-1.0
 21
0.0
  0
ENDBLK
  5
3E
100
AcDbEntity
  8
0
100
AcDbBlockEnd
  0
BLOCK
  5
40
100
AcDbEntity
  8
0
100
AcDbBlockBegin
  2
_DOT
 70
     0
 10
0.0
 20
0.0
  0
POLYLINE
  5
41
100
AcDbEntity
  8
0
 62
     0
100
AcDb2dPolyline
 66
     1
 70
     1
 40
0.5
 41
0.5
  0
VERTEX
  5
42
100
AcDbEntity
  8
0
 62
     0
100
AcDbVertex
100
AcDb2dVertex
 10
-0.25
 20
0.0
 42
1.0
  0
VERTEX
  5
43
100
AcDbEntity
  8
0
 62
     0
100
AcDbVertex
100
AcDb2dVertex
 10
0.25
 20
0.0
 42
1.0
  0
SEQEND
  5
44
100
AcDbEntity
  8
0
 62
     0
  0
LINE
  5
45
100
AcDbEntity
  8
0
 62
     0
100
AcDbLine
 10
-0.5
 20
0.0
 11
-1.0
 21
0.0
  0
ENDBLK
  5
46
100
AcDbEntity
  8
0
100
AcDbBlockEnd
  0
BLOCK
  5
48
100
AcDbEntity
  8
0
100
AcDbBlockBegin
  2
_OBLIQUE
 70
     0
 10
0.0
 20
0.0
  0
LINE
  5
49
100
AcDbEntity
  8
0
 62
     0
100
AcDbLine
 10
-0.353553
 20
-0.353553
 11
0.353553
 21
0.353553
  0
ENDBLK
  5
4A
100
AcDbEntity
  8
0
100
AcDbBlockEnd
  0
BLOCK
  5
4C
100
AcDbEntity
  8
DD0
100
AcDbBlockBegin
  2
DIMS0
 70
     0
 10
0.0
 20
0.0
  0
LINE
  5
4D
100
AcDbEntity
  8
DD0
 60
     1
100
AcDbLine
 10
116.908434
 20
207.571503
 11
116.908434
 21
148.925016
  0
LINE
  5
4E
100
AcDbEntity
  8
DD0
100
AcDbLine
 10
130.90843
 20
166.979062
 11
130.90843
 21
148.925016
  0
LINE
  5
4F
100
AcDbEntity
  8
DD0
100
AcDbLine
 10
120.530656
 20
151.145588
 11
116.908434
 21
150.175016
  0
LINE
  5
50
100
AcDbEntity
  8
DD0
100
AcDbLine
 10
116.908434
 20
150.175016
 11
120.530656
 21
149.204445
  0
LINE
  5
51
100
AcDbEntity
  8
DD0
100
AcDbLine
 10
127.286208
 20
149.204445
 11
130.90843
 21
150.175016
  0
LINE
  5
52
100
AcDbEntity
  8
DD0
100
AcDbLine
 10
130.90843
 20
150.175016
 11
127.286208
 21
151.145588
  0
LINE
  5
53
100
AcDbEntity
  8
DD0
100
AcDbLine
 10
116.908434
 20
150.175016
 11
130.90843
 21
150.175016
  0
TEXT
  5
54
100
AcDbEntity
  8
DD0
100
AcDbText
 10
120.292807
 20
150.925014
 40
3.9375
  1
１４
 41
0.833333
  7
STANDARD
100
AcDbText
  0
ENDBLK
  5
55
100
AcDbEntity
  8
DD0
100
AcDbBlockEnd
  0
BLOCK
  5
58
100
AcDbEntity
  8
DD0
100
AcDbBlockBegin
  2
DIMS1
 70
     0
 10
0.0
 20
0.0
  0
LINE
  5
59
100
AcDbEntity
  8
DD0
100
AcDbLine
 10
32.908434
 20
168.571489
 11
32.908434
 21
148.925016
  0
LINE
  5
5A
100
AcDbEntity
  8
DD0
100
AcDbLine
 10
116.908434
 20
207.571503
 11
116.908434
 21
148.925016
  0
LINE
  5
5B
100
AcDbEntity
  8
DD0
100
AcDbLine
 10
36.530656
 20
151.145588
 11
32.908434
 21
150.175016
  0
LINE
  5
5C
100
AcDbEntity
  8
DD0
100
AcDbLine
 10
32.908434
 20
150.175016
 11
36.530656
 21
149.204445
  0
LINE
  5
5D
100
AcDbEntity
  8
DD0
100
AcDbLine
 10
113.286212
 20
149.204445
 11
116.908434
 21
150.175016
  0
LINE
  5
5E
100
AcDbEntity
  8
DD0
100
AcDbLine
 10
116.908434
 20
150.175016
 11
113.286212
 21
151.145588
  0
LINE
  5
5F
100
AcDbEntity
  8
DD0
100
AcDbLine
 10
32.908434
 20
150.175016
 11
116.908434
 21
150.175016
  0
TEXT
  5
60
100
AcDbEntity
  8
DD0
100
AcDbText
 10
71.292811
 20
150.925014
 40
3.9375
  1
８４
 41
0.833333
  7
STANDARD
100
AcDbText
  0
ENDBLK
  5
61
100
AcDbEntity
  8
DD0
100
AcDbBlockEnd
  0
BLOCK
  5
64
100
AcDbEntity
  8
DD0
100
AcDbBlockBegin
  2
DIMS2
 70
     0
 10
0.0
 20
0.0
  0
LINE
  5
65
100
AcDbEntity
  8
DD0
100
AcDbLine
 10
32.908434
 20
168.571489
 11
32.908434
 21
157.652414
  0
LINE
  5
66
100
AcDbEntity
  8
DD0
100
AcDbLine
 10
71.408433
 20
168.571489
 11
71.408433
 21
157.652414
  0
LINE
  5
67
100
AcDbEntity
  8
DD0
100
AcDbLine
 10
36.530656
 20
159.872985
 11
32.908434
 21
158.902414
  0
LINE
  5
68
100
AcDbEntity
  8
DD0
100
AcDbLine
 10
32.908434
 20
158.902414
 11
36.530656
 21
157.931842
  0
LINE
  5
69
100
AcDbEntity
  8
DD0
100
AcDbLine
 10
67.786211
 20
157.931842
 11
71.408433
 21
158.902414
  0
LINE
  5
6A
100
AcDbEntity
  8
DD0
100
AcDbLine
 10
71.408433
 20
158.902414
 11
67.786211
 21
159.872985
  0
LINE
  5
6B
100
AcDbEntity
  8
DD0
100
AcDbLine
 10
32.908434
 20
158.902414
 11
71.408433
 21
158.902414
  0
TEXT
  5
6C
100
AcDbEntity
  8
DD0
100
AcDbText
 10
44.605309
 20
159.652412
 40
3.9375
  1
３８．５
 41
0.833333
  7
STANDARD
100
AcDbText
  0
ENDBLK
  5
6D
100
AcDbEntity
  8
DD0
100
AcDbBlockEnd
  0
BLOCK
  5
70
100
AcDbEntity
  8
DD0
100
AcDbBlockBegin
  2
DIMS3
 70
     0
 10
0.0
 20
0.0
  0
TEXT
  5
71
100
AcDbEntity
  8
DD0
100
AcDbText
 10
21.357266
 20
136.826876
 40
3.9375
  1
３－Ｍ４ねじ穴
 41
0.833333
  7
STANDARD
100
AcDbText
  0
LINE
  5
72
100
AcDbEntity
  8
DD0
100
AcDbLine
 10
31.400723
 20
173.848992
 11
31.47063
 21
177.59834
  0
LINE
  5
73
100
AcDbEntity
  8
DD0
100
AcDbLine
 10
31.47063
 20
177.59834
 11
29.535414
 21
174.386263
  0
LINE
  5
74
100
AcDbEntity
  8
DD0
100
AcDbLine
 10
31.47063
 20
177.59834
 11
19.511078
 21
136.076916
  0
LINE
  5
75
100
AcDbEntity
  8
DD0
100
AcDbLine
 10
19.511059
 20
136.076935
 11
49.935517
 21
136.076877
  0
ENDBLK
  5
76
100
AcDbEntity
  8
DD0
100
AcDbBlockEnd
  0
BLOCK
  5
79
100
AcDbEntity
  8
DD0
100
AcDbBlockBegin
  2
DIMS4
 70
     0
 10
0.0
 20
0.0
  0
LINE
  5
7A
100
AcDbEntity
  8
DD0
100
AcDbLine
 10
132.158316
 20
301.02964
 11
142.306078
 21
301.02964
  0
LINE
  5
7B
100
AcDbEntity
  8
DD0
100
AcDbLine
 10
84.154233
 20
255.930668
 11
142.306078
 21
255.930668
  0
LINE
  5
7C
100
AcDbEntity
  8
DD0
100
AcDbLine
 10
142.026649
 20
297.407418
 11
141.056078
 21
301.02964
  0
LINE
  5
7D
100
AcDbEntity
  8
DD0
100
AcDbLine
 10
141.056078
 20
301.02964
 11
140.085506
 21
297.407418
  0
LINE
  5
7E
100
AcDbEntity
  8
DD0
100
AcDbLine
 10
140.085506
 20
259.55289
 11
141.056078
 21
255.930668
  0
LINE
  5
7F
100
AcDbEntity
  8
DD0
100
AcDbLine
 10
141.056078
 20
255.930668
 11
142.026649
 21
259.55289
  0
LINE
  5
80
100
AcDbEntity
  8
DD0
100
AcDbLine
 10
141.056078
 20
301.02964
 11
141.056078
 21
255.930668
  0
TEXT
  5
81
100
AcDbEntity
  8
DD0
100
AcDbText
 10
140.30608
 20
270.927017
 40
3.9375
  1
４５．５
 50
90.000003
 41
0.833333
  7
STANDARD
100
AcDbText
  0
ENDBLK
  5
82
100
AcDbEntity
  8
DD0
100
AcDbBlockEnd
  0
BLOCK
  5
85
100
AcDbEntity
  8
DD0
100
AcDbBlockBegin
  2
DIMS5
 70
     0
 10
0.0
 20
0.0
  0
LINE
  5
86
100
AcDbEntity
  8
DD0
100
AcDbLine
 10
27.904617
 20
303.279586
 11
27.904617
 21
319.030032
  0
LINE
  5
87
100
AcDbEntity
  8
DD0
100
AcDbLine
 10
130.90843
 20
309.279838
 11
130.90843
 21
319.030032
  0
LINE
  5
88
100
AcDbEntity
  8
DD0
100
AcDbLine
 10
31.526839
 20
318.750604
 11
27.904617
 21
317.780032
  0
LINE
  5
89
100
AcDbEntity
  8
DD0
100
AcDbLine
 10
27.904617
 20
317.780032
 11
31.526839
 21
316.809461
  0
LINE
  5
8A
100
AcDbEntity
  8
DD0
100
AcDbLine
 10
127.286208
 20
316.809461
 11
130.90843
 21
317.780032
  0
LINE
  5
8B
100
AcDbEntity
  8
DD0
100
AcDbLine
 10
130.90843
 20
317.780032
 11
127.286208
 21
318.750604
  0
LINE
  5
8C
100
AcDbEntity
  8
DD0
100
AcDbLine
 10
27.904617
 20
317.780032
 11
130.90843
 21
317.780032
  0
TEXT
  5
8D
100
AcDbEntity
  8
DD0
100
AcDbText
 10
73.822146
 20
318.53004
 40
3.9375
  1
１０３
 41
0.833333
  7
STANDARD
100
AcDbText
  0
ENDBLK
  5
8E
100
AcDbEntity
  8
DD0
100
AcDbBlockEnd
  0
BLOCK
  5
91
100
AcDbEntity
  8
DD0
100
AcDbBlockBegin
  2
DIMS6
 70
     0
 10
0.0
 20
0.0
  0
LINE
  5
92
100
AcDbEntity
  8
DD0
100
AcDbLine
 10
154.706266
 20
300.279346
 11
154.706266
 21
319.030032
  0
LINE
  5
93
100
AcDbEntity
  8
DD0
100
AcDbLine
 10
237.704788
 20
311.679225
 11
237.704788
 21
319.030032
  0
LINE
  5
94
100
AcDbEntity
  8
DD0
100
AcDbLine
 10
158.328488
 20
318.750604
 11
154.706266
 21
317.780032
  0
LINE
  5
95
100
AcDbEntity
  8
DD0
100
AcDbLine
 10
154.706266
 20
317.780032
 11
158.328488
 21
316.809461
  0
LINE
  5
96
100
AcDbEntity
  8
DD0
100
AcDbLine
 10
234.082567
 20
316.809461
 11
237.704788
 21
317.780032
  0
LINE
  5
97
100
AcDbEntity
  8
DD0
100
AcDbLine
 10
237.704788
 20
317.780032
 11
234.082567
 21
318.750604
  0
LINE
  5
98
100
AcDbEntity
  8
DD0
100
AcDbLine
 10
154.706266
 20
317.780032
 11
237.704788
 21
317.780032
  0
TEXT
  5
99
100
AcDbEntity
  8
DD0
100
AcDbText
 10
192.589902
 20
318.53004
 40
3.9375
  1
８３
 41
0.833333
  7
STANDARD
100
AcDbText
  0
ENDBLK
  5
9A
100
AcDbEntity
  8
DD0
100
AcDbBlockEnd
  0
BLOCK
  5
9D
100
AcDbEntity
  8
DD0
100
AcDbBlockBegin
  2
DIMS7
 70
     0
 10
0.0
 20
0.0
  0
LINE
  5
9E
100
AcDbEntity
  8
DD0
100
AcDbLine
 10
236.70509
 20
263.778835
 11
236.70509
 21
242.554222
  0
LINE
  5
9F
100
AcDbEntity
  8
DD0
100
AcDbLine
 10
237.704369
 20
260.678745
 11
237.704369
 21
242.554222
  0
LINE
  5
A0
100
AcDbEntity
  8
DD0
100
AcDbLine
 10
233.082868
 20
242.833651
 11
236.70509
 21
243.804222
  0
LINE
  5
A1
100
AcDbEntity
  8
DD0
100
AcDbLine
 10
236.70509
 20
243.804222
 11
233.082868
 21
244.774794
  0
LINE
  5
A2
100
AcDbEntity
  8
DD0
100
AcDbLine
 10
241.326591
 20
244.774794
 11
237.704369
 21
243.804222
  0
LINE
  5
A3
100
AcDbEntity
  8
DD0
100
AcDbLine
 10
237.704369
 20
243.804222
 11
241.326591
 21
242.833651
  0
LINE
  5
A4
100
AcDbEntity
  8
DD0
100
AcDbLine
 10
210.151526
 20
243.804222
 11
241.829369
 21
243.804222
  0
TEXT
  5
A5
100
AcDbEntity
  8
DD0
100
AcDbText
 10
211.723736
 20
244.554096
 40
3.9375
  1
１（取付足）
 50
-0.023648
 41
0.833333
  7
STANDARD
100
AcDbText
  0
ENDBLK
  5
A6
100
AcDbEntity
  8
DD0
100
AcDbBlockEnd
  0
BLOCK
  5
A9
100
AcDbEntity
  8
DD0
100
AcDbBlockBegin
  2
DIMS8
 70
     0
 10
0.0
 20
0.0
  0
LINE
  5
AA
100
AcDbEntity
  8
DD0
100
AcDbLine
 10
82.165936
 20
179.329011
 11
142.306078
 21
179.329011
  0
LINE
  5
AB
100
AcDbEntity
  8
DD0
100
AcDbLine
 10
127.665937
 20
218.329007
 11
142.306078
 21
218.329007
  0
LINE
  5
AC
100
AcDbEntity
  8
DD0
100
AcDbLine
 10
140.085506
 20
182.951233
 11
141.056078
 21
179.329011
  0
LINE
  5
AD
100
AcDbEntity
  8
DD0
100
AcDbLine
 10
141.056078
 20
179.329011
 11
142.026649
 21
182.951233
  0
LINE
  5
AE
100
AcDbEntity
  8
DD0
100
AcDbLine
 10
142.026649
 20
214.706785
 11
141.056078
 21
218.329007
  0
LINE
  5
AF
100
AcDbEntity
  8
DD0
100
AcDbLine
 10
141.056078
 20
218.329007
 11
140.085506
 21
214.706785
  0
LINE
  5
B0
100
AcDbEntity
  8
DD0
100
AcDbLine
 10
141.056078
 20
179.329011
 11
141.056078
 21
218.329007
  0
TEXT
  5
B1
100
AcDbEntity
  8
DD0
100
AcDbText
 10
140.30608
 20
195.213384
 40
3.9375
  1
３９
 50
90.000003
 41
0.833333
  7
STANDARD
100
AcDbText
  0
ENDBLK
  5
B2
100
AcDbEntity
  8
DD0
100
AcDbBlockEnd
  0
BLOCK
  5
B5
100
AcDbEntity
  8
DD0
100
AcDbBlockBegin
  2
DIMS9
 70
     0
 10
0.0
 20
0.0
  0
LINE
  5
B6
100
AcDbEntity
  8
DD0
100
AcDbLine
 10
127.665937
 20
218.329007
 11
142.306078
 21
218.329007
  0
LINE
  5
B7
100
AcDbEntity
  8
DD0
100
AcDbLine
 10
129.658421
 20
223.329026
 11
142.306078
 21
223.329026
  0
LINE
  5
B8
100
AcDbEntity
  8
DD0
100
AcDbLine
 10
142.026649
 20
214.706785
 11
141.056078
 21
218.329007
  0
LINE
  5
B9
100
AcDbEntity
  8
DD0
100
AcDbLine
 10
141.056078
 20
218.329007
 11
140.085506
 21
214.706785
  0
LINE
  5
BA
100
AcDbEntity
  8
DD0
100
AcDbLine
 10
140.085506
 20
226.951248
 11
141.056078
 21
223.329026
  0
LINE
  5
BB
100
AcDbEntity
  8
DD0
100
AcDbLine
 10
141.056078
 20
223.329026
 11
142.026649
 21
226.951248
  0
LINE
  5
BC
100
AcDbEntity
  8
DD0
100
AcDbLine
 10
141.056078
 20
214.204007
 11
141.056078
 21
227.454026
  0
TEXT
  5
BD
100
AcDbEntity
  8
DD0
100
AcDbText
 10
140.30608
 20
219.182137
 40
3.9375
  1
５
 50
90.000003
 41
0.833333
  7
STANDARD
100
AcDbText
  0
ENDBLK
  5
BE
100
AcDbEntity
  8
DD0
100
AcDbBlockEnd
  0
ENDSEC
  0
SECTION
  2
ENTITIES
  0
INSERT
  5
56
100
AcDbEntity
  8
DD0
100
AcDbBlockReference
  2
DIMS0
 10
0.0
 20
0.0
  0
INSERT
  5
62
100
AcDbEntity
  8
DD0
100
AcDbBlockReference
  2
DIMS1
 10
0.0
 20
0.0
  0
INSERT
  5
6E
100
AcDbEntity
  8
DD0
100
AcDbBlockReference
  2
DIMS2
 10
0.0
 20
0.0
  0
INSERT
  5
77
100
AcDbEntity
  8
DD0
100
AcDbBlockReference
  2
DIMS3
 10
0.0
 20
0.0
  0
INSERT
  5
83
100
AcDbEntity
  8
DD0
100
AcDbBlockReference
  2
DIMS4
 10
0.0
 20
0.0
  0
INSERT
  5
8F
100
AcDbEntity
  8
DD0
100
AcDbBlockReference
  2
DIMS5
 10
0.0
 20
0.0
  0
INSERT
  5
9B
100
AcDbEntity
  8
DD0
100
AcDbBlockReference
  2
DIMS6
 10
0.0
 20
0.0
  0
INSERT
  5
A7
100
AcDbEntity
  8
DD0
100
AcDbBlockReference
  2
DIMS7
 10
0.0
 20
0.0
  0
INSERT
  5
B3
100
AcDbEntity
  8
DD0
100
AcDbBlockReference
  2
DIMS8
 10
0.0
 20
0.0
  0
INSERT
  5
BF
100
AcDbEntity
  8
DD0
100
AcDbBlockReference
  2
DIMS9
 10
0.0
 20
0.0
  0
LINE
  5
C0
100
AcDbEntity
  8
M0
100
AcDbLine
 10
36.154589
 20
261.180717
 11
49.654589
 21
261.180717
  0
LINE
  5
C1
100
AcDbEntity
  8
M0
100
AcDbLine
 10
50.654589
 20
262.180473
 11
50.654589
 21
275.680229
  0
LINE
  5
C2
100
AcDbEntity
  8
M0
100
AcDbLine
 10
35.154589
 20
275.680473
 11
35.154589
 21
262.180717
  0
ARC
  5
C3
100
AcDbEntity
  8
M0
100
AcDbCircle
 10
49.654589
 20
275.680473
 40
1.0
100
AcDbArc
 50
359.985957
 51
374.506528
  0
ARC
  5
C4
100
AcDbEntity
  8
M0
100
AcDbCircle
 10
36.154589
 20
275.680473
 40
1.0
100
AcDbArc
 50
165.493645
 51
180.0
  0
ARC
  5
C5
100
AcDbEntity
  8
M0
100
AcDbCircle
 10
36.154589
 20
262.180717
 40
1.0
100
AcDbArc
 50
179.999966
 51
270.0
  0
ARC
  5
C6
100
AcDbEntity
  8
M0
100
AcDbCircle
 10
49.654589
 20
262.180717
 40
1.0
100
AcDbArc
 50
270.0
 51
359.985991
  0
CIRCLE
  5
C7
100
AcDbEntity
  8
M0
100
AcDbCircle
 10
42.904589
 20
268.930717
 40
5.249997
  0
LINE
  5
C8
100
AcDbEntity
  8
M0
  6
DASHDOT
100
AcDbLine
 10
30.147081
 20
268.930717
 11
55.662096
 21
268.930717
  0
LINE
  5
C9
100
AcDbEntity
  8
M0
  6
DASHDOT
100
AcDbLine
 10
42.904589
 20
256.173149
 11
42.904589
 21
281.688041
  0
LINE
  5
CA
100
AcDbEntity
  8
M0
100
AcDbLine
 10
45.271807
 20
266.563286
 11
40.335176
 21
271.500053
  0
LINE
  5
CB
100
AcDbEntity
  8
M0
100
AcDbLine
 10
40.636217
 20
267.369194
 11
44.437334
 21
271.170219
  0
LINE
  5
CC
100
AcDbEntity
  8
M0
100
AcDbLine
 10
41.343325
 20
266.661918
 11
45.144426
 21
270.462944
  0
LINE
  5
CD
100
AcDbEntity
  8
M0
100
AcDbLine
 10
62.154558
 20
261.180717
 11
75.654558
 21
261.180717
  0
LINE
  5
CE
100
AcDbEntity
  8
M0
100
AcDbLine
 10
76.654558
 20
262.180473
 11
76.654558
 21
275.680229
  0
LINE
  5
CF
100
AcDbEntity
  8
M0
100
AcDbLine
 10
61.154558
 20
275.680473
 11
61.154558
 21
262.180717
  0
ARC
  5
D0
100
AcDbEntity
  8
M0
100
AcDbCircle
 10
75.654558
 20
275.680473
 40
1.0
100
AcDbArc
 50
359.985957
 51
374.492135
  0
ARC
  5
D1
100
AcDbEntity
  8
M0
100
AcDbCircle
 10
62.154558
 20
275.680473
 40
1.0
100
AcDbArc
 50
165.50809
 51
180.0
  0
ARC
  5
D2
100
AcDbEntity
  8
M0
100
AcDbCircle
 10
62.154558
 20
262.180717
 40
1.0
100
AcDbArc
 50
179.999966
 51
270.0
  0
ARC
  5
D3
100
AcDbEntity
  8
M0
100
AcDbCircle
 10
75.654558
 20
262.180717
 40
1.0
100
AcDbArc
 50
270.0
 51
359.985991
  0
CIRCLE
  5
D4
100
AcDbEntity
  8
M0
100
AcDbCircle
 10
68.904558
 20
268.930717
 40
5.249997
  0
LINE
  5
D5
100
AcDbEntity
  8
M0
  6
DASHDOT
100
AcDbLine
 10
56.147051
 20
268.930717
 11
81.662065
 21
268.930717
  0
LINE
  5
D6
100
AcDbEntity
  8
M0
  6
DASHDOT
100
AcDbLine
 10
68.904558
 20
256.173149
 11
68.904558
 21
281.688041
  0
LINE
  5
D7
100
AcDbEntity
  8
M0
100
AcDbLine
 10
71.271776
 20
266.563286
 11
66.335146
 21
271.500053
  0
LINE
  5
D8
100
AcDbEntity
  8
M0
100
AcDbLine
 10
66.636187
 20
267.369194
 11
70.437303
 21
271.170219
  0
LINE
  5
D9
100
AcDbEntity
  8
M0
100
AcDbLine
 10
67.343294
 20
266.661918
 11
71.144396
 21
270.462944
  0
LINE
  5
DA
100
AcDbEntity
  8
M0
100
AcDbLine
 10
88.154406
 20
261.180717
 11
101.654406
 21
261.180717
  0
LINE
  5
DB
100
AcDbEntity
  8
M0
100
AcDbLine
 10
102.654406
 20
262.180473
 11
102.654406
 21
275.680229
  0
LINE
  5
DC
100
AcDbEntity
  8
M0
100
AcDbLine
 10
87.154406
 20
275.680473
 11
87.154406
 21
262.180717
  0
ARC
  5
DD
100
AcDbEntity
  8
M0
100
AcDbCircle
 10
101.654406
 20
275.680473
 40
1.0
100
AcDbArc
 50
359.985957
 51
374.477689
  0
ARC
  5
DE
100
AcDbEntity
  8
M0
100
AcDbCircle
 10
88.154406
 20
275.680473
 40
1.0
100
AcDbArc
 50
165.50809
 51
180.0
  0
ARC
  5
DF
100
AcDbEntity
  8
M0
100
AcDbCircle
 10
88.154406
 20
262.180717
 40
1.0
100
AcDbArc
 50
179.999966
 51
270.0
  0
ARC
  5
E0
100
AcDbEntity
  8
M0
100
AcDbCircle
 10
101.654406
 20
262.180717
 40
1.0
100
AcDbArc
 50
270.0
 51
359.985991
  0
CIRCLE
  5
E1
100
AcDbEntity
  8
M0
100
AcDbCircle
 10
94.904406
 20
268.930717
 40
5.249997
  0
LINE
  5
E2
100
AcDbEntity
  8
M0
  6
DASHDOT
100
AcDbLine
 10
82.146898
 20
268.930717
 11
107.661913
 21
268.930717
  0
LINE
  5
E3
100
AcDbEntity
  8
M0
  6
DASHDOT
100
AcDbLine
 10
94.904406
 20
256.173149
 11
94.904406
 21
281.688041
  0
LINE
  5
E4
100
AcDbEntity
  8
M0
100
AcDbLine
 10
97.271624
 20
266.563286
 11
92.334993
 21
271.500053
  0
LINE
  5
E5
100
AcDbEntity
  8
M0
100
AcDbLine
 10
92.636034
 20
267.369194
 11
96.437151
 21
271.170219
  0
LINE
  5
E6
100
AcDbEntity
  8
M0
100
AcDbLine
 10
93.343141
 20
266.661918
 11
97.144243
 21
270.462944
  0
LINE
  5
E7
100
AcDbEntity
  8
M0
100
AcDbLine
 10
62.154558
 20
282.680717
 11
75.654558
 21
282.680717
  0
LINE
  5
E8
100
AcDbEntity
  8
M0
100
AcDbLine
 10
76.654558
 20
283.680473
 11
76.654558
 21
297.180229
  0
LINE
  5
E9
100
AcDbEntity
  8
M0
100
AcDbLine
 10
75.654558
 20
298.180717
 11
62.154558
 21
298.180717
  0
LINE
  5
EA
100
AcDbEntity
  8
M0
100
AcDbLine
 10
61.154558
 20
297.180473
 11
61.154558
 21
283.680717
  0
ARC
  5
EB
100
AcDbEntity
  8
M0
100
AcDbCircle
 10
75.654558
 20
297.180473
 40
1.0
100
AcDbArc
 50
359.985957
 51
450.0
  0
ARC
  5
EC
100
AcDbEntity
  8
M0
100
AcDbCircle
 10
62.154558
 20
297.180473
 40
1.0
100
AcDbArc
 50
90.0
 51
180.0
  0
ARC
  5
ED
100
AcDbEntity
  8
M0
100
AcDbCircle
 10
62.154558
 20
283.680717
 40
1.0
100
AcDbArc
 50
179.999945
 51
270.0
  0
ARC
  5
EE
100
AcDbEntity
  8
M0
100
AcDbCircle
 10
75.654558
 20
283.680717
 40
1.0
100
AcDbArc
 50
270.0
 51
359.986012
  0
CIRCLE
  5
EF
100
AcDbEntity
  8
M0
100
AcDbCircle
 10
68.904558
 20
290.430717
 40
5.249994
  0
LINE
  5
F0
100
AcDbEntity
  8
M0
  6
DASHDOT
100
AcDbLine
 10
56.147051
 20
290.430717
 11
81.662065
 21
290.430717
  0
LINE
  5
F1
100
AcDbEntity
  8
M0
  6
DASHDOT
100
AcDbLine
 10
68.904558
 20
277.673149
 11
68.904558
 21
303.188041
  0
LINE
  5
F2
100
AcDbEntity
  8
M0
100
AcDbLine
 10
71.271776
 20
288.063286
 11
66.335146
 21
293.000053
  0
LINE
  5
F3
100
AcDbEntity
  8
M0
100
AcDbLine
 10
66.636187
 20
288.869194
 11
70.437303
 21
292.670219
  0
LINE
  5
F4
100
AcDbEntity
  8
M0
100
AcDbLine
 10
67.343294
 20
288.161918
 11
71.144396
 21
291.962944
  0
LINE
  5
F5
100
AcDbEntity
  8
M0
100
AcDbLine
 10
88.154543
 20
282.680717
 11
101.654543
 21
282.680717
  0
LINE
  5
F6
100
AcDbEntity
  8
M0
100
AcDbLine
 10
102.654543
 20
283.680473
 11
102.654543
 21
297.180229
  0
LINE
  5
F7
100
AcDbEntity
  8
M0
100
AcDbLine
 10
101.654543
 20
298.180717
 11
88.154543
 21
298.180717
  0
LINE
  5
F8
100
AcDbEntity
  8
M0
100
AcDbLine
 10
87.154543
 20
297.180473
 11
87.154543
 21
283.680717
  0
ARC
  5
F9
100
AcDbEntity
  8
M0
100
AcDbCircle
 10
101.654543
 20
297.180473
 40
1.0
100
AcDbArc
 50
359.985957
 51
450.0
  0
ARC
  5
FA
100
AcDbEntity
  8
M0
100
AcDbCircle
 10
88.154543
 20
297.180473
 40
1.0
100
AcDbArc
 50
90.0
 51
180.0
  0
ARC
  5
FB
100
AcDbEntity
  8
M0
100
AcDbCircle
 10
88.154543
 20
283.680717
 40
1.0
100
AcDbArc
 50
179.999945
 51
270.0
  0
ARC
  5
FC
100
AcDbEntity
  8
M0
100
AcDbCircle
 10
101.654543
 20
283.680717
 40
1.0
100
AcDbArc
 50
270.0
 51
359.986012
  0
CIRCLE
  5
FD
100
AcDbEntity
  8
M0
100
AcDbCircle
 10
94.904543
 20
290.430717
 40
5.249994
  0
LINE
  5
FE
100
AcDbEntity
  8
M0
  6
DASHDOT
100
AcDbLine
 10
82.147036
 20
290.430717
 11
107.66205
 21
290.430717
  0
LINE
  5
FF
100
AcDbEntity
  8
M0
  6
DASHDOT
100
AcDbLine
 10
94.904543
 20
277.673149
 11
94.904543
 21
303.188041
  0
LINE
  5
100
100
AcDbEntity
  8
M0
100
AcDbLine
 10
97.271761
 20
288.063286
 11
92.335131
 21
293.000053
  0
LINE
  5
101
100
AcDbEntity
  8
M0
100
AcDbLine
 10
92.636171
 20
288.869194
 11
96.437288
 21
292.670219
  0
LINE
  5
102
100
AcDbEntity
  8
M0
100
AcDbLine
 10
93.343279
 20
288.161918
 11
97.144381
 21
291.962944
  0
LINE
  5
103
100
AcDbEntity
  8
M0
100
AcDbLine
 10
36.154604
 20
282.680717
 11
49.654604
 21
282.680717
  0
LINE
  5
104
100
AcDbEntity
  8
M0
100
AcDbLine
 10
50.654604
 20
283.680473
 11
50.654604
 21
297.180229
  0
LINE
  5
105
100
AcDbEntity
  8
M0
100
AcDbLine
 10
49.654604
 20
298.180717
 11
36.154604
 21
298.180717
  0
LINE
  5
106
100
AcDbEntity
  8
M0
100
AcDbLine
 10
35.154604
 20
297.180473
 11
35.154604
 21
283.680717
  0
ARC
  5
107
100
AcDbEntity
  8
M0
100
AcDbCircle
 10
49.654604
 20
297.180473
 40
1.0
100
AcDbArc
 50
359.985957
 51
450.0
  0
ARC
  5
108
100
AcDbEntity
  8
M0
100
AcDbCircle
 10
36.154604
 20
297.180473
 40
1.0
100
AcDbArc
 50
90.0
 51
180.0
  0
ARC
  5
109
100
AcDbEntity
  8
M0
100
AcDbCircle
 10
36.154604
 20
283.680717
 40
1.0
100
AcDbArc
 50
179.999945
 51
270.0
  0
ARC
  5
10A
100
AcDbEntity
  8
M0
100
AcDbCircle
 10
49.654604
 20
283.680717
 40
1.0
100
AcDbArc
 50
270.0
 51
359.986012
  0
CIRCLE
  5
10B
100
AcDbEntity
  8
M0
100
AcDbCircle
 10
42.904604
 20
290.430717
 40
5.249994
  0
LINE
  5
10C
100
AcDbEntity
  8
M0
  6
DASHDOT
100
AcDbLine
 10
30.147097
 20
290.430717
 11
55.662111
 21
290.430717
  0
LINE
  5
10D
100
AcDbEntity
  8
M0
  6
DASHDOT
100
AcDbLine
 10
42.904604
 20
277.673149
 11
42.904604
 21
303.188041
  0
LINE
  5
10E
100
AcDbEntity
  8
M0
100
AcDbLine
 10
45.271822
 20
288.063286
 11
40.335192
 21
293.000053
  0
LINE
  5
10F
100
AcDbEntity
  8
M0
100
AcDbLine
 10
40.636232
 20
288.869194
 11
44.437349
 21
292.670219
  0
LINE
  5
110
100
AcDbEntity
  8
M0
100
AcDbLine
 10
41.34334
 20
288.161918
 11
45.144442
 21
291.962944
  0
LINE
  5
111
100
AcDbEntity
  8
M0
  6
DIVIDE
100
AcDbLine
 10
130.908433
 20
168.229058
 11
130.908433
 21
220.829018
  0
LINE
  5
112
100
AcDbEntity
  8
M0
  6
DIVIDE
100
AcDbLine
 10
111.908433
 20
214.829018
 11
27.908433
 21
214.829033
  0
LINE
  5
113
100
AcDbEntity
  8
M0
  6
DIVIDE
100
AcDbLine
 10
27.908433
 20
214.829033
 11
27.908433
 21
168.229058
  0
LINE
  5
114
100
AcDbEntity
  8
M0
  6
DIVIDE
100
AcDbLine
 10
128.408418
 20
223.329018
 11
114.408418
 21
223.329003
  0
LINE
  5
115
100
AcDbEntity
  8
M0
  6
DIVIDE
100
AcDbLine
 10
111.908433
 20
220.829003
 11
111.908433
 21
214.829033
  0
ARC
  5
116
100
AcDbEntity
  8
M0
  6
DIVIDE
100
AcDbCircle
 10
128.408433
 20
220.829018
 40
2.5
100
AcDbArc
 50
0.0
 51
90.0
  0
ARC
  5
117
100
AcDbEntity
  8
M0
  6
DIVIDE
100
AcDbCircle
 10
114.408433
 20
220.829003
 40
2.5
100
AcDbArc
 50
90.0
 51
180.0
  0
LINE
  5
118
100
AcDbEntity
  8
M0
  6
DIVIDE
100
AcDbLine
 10
27.908449
 20
168.229058
 11
130.908433
 21
168.229058
  0
LINE
  5
119
100
AcDbEntity
  8
M0
  6
DASHDOT
100
AcDbLine
 10
107.400926
 20
218.329003
 11
126.415941
 21
218.329003
  0
LINE
  5
11A
100
AcDbEntity
  8
M0
  6
DASHDOT
100
AcDbLine
 10
116.908433
 20
208.821495
 11
116.908433
 21
224.908272
  0
CIRCLE
  5
11B
100
AcDbEntity
  8
M0
100
AcDbCircle
 10
116.908433
 20
218.329003
 40
2.249998
  0
LINE
  5
11C
100
AcDbEntity
  8
M0
100
AcDbLine
 10
236.70512
 20
261.928755
 11
236.705141
 21
265.028609
  0
LINE
  5
11D
100
AcDbEntity
  8
M0
100
AcDbLine
 10
236.706168
 20
300.028598
 11
235.205738
 21
300.028117
  0
LINE
  5
11E
100
AcDbEntity
  8
M0
100
AcDbLine
 10
181.124803
 20
265.53036
 11
204.741426
 21
265.529767
  0
LINE
  5
11F
100
AcDbEntity
  8
M0
100
AcDbLine
 10
188.006528
 20
303.029989
 11
157.706601
 21
303.030246
  0
LINE
  5
120
100
AcDbEntity
  8
M0
100
AcDbLine
 10
174.205861
 20
279.030421
 11
175.205892
 21
279.030412
  0
LINE
  5
121
100
AcDbEntity
  8
M0
100
AcDbLine
 10
174.205861
 20
279.030534
 11
174.206389
 21
300.030534
  0
LINE
  5
122
100
AcDbEntity
  8
M0
100
AcDbLine
 10
175.205876
 20
279.030494
 11
175.527975
 21
277.828285
  0
ARC
  5
123
100
AcDbEntity
  8
M0
100
AcDbCircle
 10
181.124879
 20
268.53036
 40
3.0
100
AcDbArc
 50
194.998624
 51
269.998561
  0
LINE
  5
124
100
AcDbEntity
  8
M0
100
AcDbLine
 10
180.053126
 20
269.530387
 11
189.705638
 21
269.530145
  0
ARC
  5
125
100
AcDbEntity
  8
M0
100
AcDbCircle
 10
180.053202
 20
272.530387
 40
3.0
100
AcDbArc
 50
194.99863
 51
269.998561
  0
LINE
  5
126
100
AcDbEntity
  8
M0
100
AcDbLine
 10
192.705603
 20
267.53007
 11
204.205572
 21
267.529781
  0
LINE
  5
127
100
AcDbEntity
  8
M0
100
AcDbLine
 10
207.079852
 20
262.529709
 11
210.905444
 21
262.529613
  0
LINE
  5
128
100
AcDbEntity
  8
M0
100
AcDbLine
 10
207.981698
 20
258.529686
 11
224.299219
 21
258.529276
  0
ARC
  5
129
100
AcDbEntity
  8
M0
100
AcDbCircle
 10
188.006462
 20
301.029974
 40
2.0
100
AcDbArc
 50
14.40471
 51
89.998561
  0
LINE
  5
12A
100
AcDbEntity
  8
M0
100
AcDbLine
 10
226.031275
 20
259.529234
 11
229.206859
 21
265.029154
  0
ARC
  5
12B
100
AcDbEntity
  8
M0
100
AcDbCircle
 10
224.29926
 20
260.529277
 40
2.0
100
AcDbArc
 50
269.998534
 51
329.998441
  0
ARC
  5
12C
100
AcDbEntity
  8
M0
100
AcDbCircle
 10
207.079902
 20
264.529709
 40
2.0
100
AcDbArc
 50
194.999002
 51
269.998561
  0
LINE
  5
12D
100
AcDbEntity
  8
M0
100
AcDbLine
 10
213.905394
 20
260.529537
 11
225.453978
 21
260.529247
  0
ARC
  5
12E
100
AcDbEntity
  8
M0
100
AcDbCircle
 10
225.454019
 20
262.529248
 40
2.0
100
AcDbArc
 50
269.998534
 51
329.998441
  0
LINE
  5
12F
100
AcDbEntity
  8
M0
100
AcDbLine
 10
204.705555
 20
265.029768
 11
192.705525
 21
265.03007
  0
LINE
  5
130
100
AcDbEntity
  8
M0
100
AcDbLine
 10
191.955538
 20
265.530088
 11
192.705525
 21
265.03007
  0
LINE
  5
131
100
AcDbEntity
  8
M0
100
AcDbLine
 10
189.705638
 20
269.530145
 11
192.705603
 21
267.53007
  0
LINE
  5
132
100
AcDbEntity
  8
M0
100
AcDbLine
 10
229.206868
 20
265.029153
 11
236.70551
 21
265.028965
  0
LINE
  5
133
100
AcDbEntity
  8
M0
100
AcDbLine
 10
226.031299
 20
259.529233
 11
231.705372
 21
259.52909
  0
LINE
  5
134
100
AcDbEntity
  8
M0
100
AcDbLine
 10
233.705422
 20
261.52904
 11
233.70551
 21
265.02904
  0
ARC
  5
135
100
AcDbEntity
  8
M0
100
AcDbCircle
 10
231.705422
 20
261.52909
 40
2.0
100
AcDbArc
 50
269.998534
 51
359.998534
  0
LINE
  5
136
100
AcDbEntity
  8
M0
100
AcDbLine
 10
210.905444
 20
262.529613
 11
213.905394
 21
260.529537
  0
LINE
  5
137
100
AcDbEntity
  8
M0
100
AcDbLine
 10
204.705525
 20
265.029829
 11
206.049881
 21
260.012095
  0
LINE
  5
138
100
AcDbEntity
  8
M0
100
AcDbLine
 10
204.205588
 20
267.529781
 11
205.14805
 21
264.012118
  0
ARC
  5
139
100
AcDbEntity
  8
M0
100
AcDbCircle
 10
207.981749
 20
260.529686
 40
2.0
100
AcDbArc
 50
194.998658
 51
269.998561
  0
LINE
  5
13A
100
AcDbEntity
  8
M0
100
AcDbLine
 10
236.705098
 20
265.028827
 11
236.706052
 21
303.028583
  0
LINE
  5
13B
100
AcDbEntity
  8
M0
100
AcDbLine
 10
236.70595
 20
303.028354
 11
236.706014
 21
310.428989
  0
LINE
  5
13C
100
AcDbEntity
  8
M0
  6
DASHED
100
AcDbLine
 10
169.705785
 20
294.829338
 11
169.705824
 21
300.028312
  0
LINE
  5
13D
100
AcDbEntity
  8
M0
  6
DASHED
100
AcDbLine
 10
170.7058
 20
294.829328
 11
170.705839
 21
300.028303
  0
LINE
  5
13E
100
AcDbEntity
  8
M0
100
AcDbLine
 10
193.428234
 20
259.214037
 11
193.208532
 21
258.394215
  0
LINE
  5
13F
100
AcDbEntity
  8
M0
100
AcDbLine
 10
160.705098
 20
279.02999
 11
164.73356
 21
263.9948
  0
ARC
  5
140
100
AcDbEntity
  8
M0
100
AcDbCircle
 10
168.597218
 20
265.030167
 40
4.0
100
AcDbArc
 50
195.001371
 51
269.998561
  0
LINE
  5
141
100
AcDbEntity
  8
M0
100
AcDbLine
 10
189.704927
 20
265.529742
 11
189.704875
 21
261.029742
  0
LINE
  5
142
100
AcDbEntity
  8
M0
100
AcDbLine
 10
189.70489
 20
261.029742
 11
192.704886
 21
259.029717
  0
LINE
  5
143
100
AcDbEntity
  8
M0
100
AcDbLine
 10
199.704921
 20
261.029656
 11
199.704911
 21
260.029656
  0
LINE
  5
144
100
AcDbEntity
  8
M0
100
AcDbLine
 10
237.704377
 20
261.928748
 11
237.704793
 21
310.429223
  0
LINE
  5
145
100
AcDbEntity
  8
M0
100
AcDbLine
 10
236.706014
 20
310.428989
 11
237.704549
 21
310.428979
  0
LINE
  5
146
100
AcDbEntity
  8
M0
100
AcDbLine
 10
236.704632
 20
261.928755
 11
237.704143
 21
261.928748
  0
LINE
  5
147
100
AcDbEntity
  8
M0
100
AcDbLine
 10
236.704912
 20
301.527393
 11
179.705816
 21
301.527634
  0
LINE
  5
148
100
AcDbEntity
  8
M0
100
AcDbLine
 10
235.205807
 20
301.528117
 11
235.2058
 21
300.028117
  0
LINE
  5
149
100
AcDbEntity
  8
M0
100
AcDbLine
 10
179.705801
 20
301.528031
 11
179.205809
 21
300.027799
  0
LINE
  5
14A
100
AcDbEntity
  8
M0
100
AcDbLine
 10
179.206144
 20
300.028288
 11
157.706556
 21
300.02927
  0
LINE
  5
14B
100
AcDbEntity
  8
M0
100
AcDbLine
 10
236.705889
 20
302.526905
 11
205.445938
 21
302.526896
  0
LINE
  5
14C
100
AcDbEntity
  8
M0
100
AcDbLine
 10
205.445907
 20
302.527385
 11
205.445898
 21
301.527629
  0
CIRCLE
  5
14D
100
AcDbEntity
  8
M0
100
AcDbCircle
 10
116.908433
 20
218.329003
 40
1.749995
  0
CIRCLE
  5
14E
100
AcDbEntity
  8
M0
100
AcDbCircle
 10
71.408433
 20
179.329003
 40
1.749995
  0
CIRCLE
  5
14F
100
AcDbEntity
  8
M0
100
AcDbCircle
 10
32.908433
 20
179.329003
 40
1.749995
  0
LINE
  5
150
100
AcDbEntity
  8
M0
100
AcDbLine
 10
175.849478
 20
276.628284
 11
178.227078
 21
267.753974
  0
LINE
  5
151
100
AcDbEntity
  8
M0
  6
DASHED
100
AcDbLine
 10
166.506073
 20
278.82886
 11
173.205871
 21
278.82886
  0
LINE
  5
152
100
AcDbEntity
  8
M0
  6
DASHED
100
AcDbLine
 10
166.506078
 20
294.228847
 11
173.206258
 21
294.228847
  0
LINE
  5
153
100
AcDbEntity
  8
M0
  6
DASHED
100
AcDbLine
 10
166.506078
 20
294.228847
 11
166.506073
 21
278.828857
  0
LINE
  5
154
100
AcDbEntity
  8
M0
  6
DASHED
100
AcDbLine
 10
173.206258
 20
294.228832
 11
173.205871
 21
278.828845
  0
LINE
  5
155
100
AcDbEntity
  8
M0
  6
DASHDOT
100
AcDbLine
 10
61.900926
 20
179.329003
 11
80.915941
 21
179.329003
  0
LINE
  5
156
100
AcDbEntity
  8
M0
  6
DASHDOT
100
AcDbLine
 10
71.408433
 20
169.821495
 11
71.408433
 21
188.83651
  0
CIRCLE
  5
157
100
AcDbEntity
  8
M0
100
AcDbCircle
 10
71.408433
 20
179.329003
 40
2.249998
  0
CIRCLE
  5
158
100
AcDbEntity
  8
M0
100
AcDbCircle
 10
32.908433
 20
179.329003
 40
2.249998
  0
LINE
  5
159
100
AcDbEntity
  8
M0
  6
DASHDOT
100
AcDbLine
 10
23.400926
 20
179.329003
 11
42.415941
 21
179.329003
  0
LINE
  5
15A
100
AcDbEntity
  8
M0
  6
DASHDOT
100
AcDbLine
 10
32.908433
 20
169.821495
 11
32.908433
 21
188.83651
  0
LINE
  5
15B
100
AcDbEntity
  8
M0
 62
     4
100
AcDbLine
 10
53.904603
 20
302.031215
 11
53.90427
 21
256.431118
  0
LINE
  5
15C
100
AcDbEntity
  8
M0
 62
     4
100
AcDbLine
 10
54.904263
 20
255.430866
 11
56.904248
 21
255.430852
  0
LINE
  5
15D
100
AcDbEntity
  8
M0
 62
     4
100
AcDbLine
 10
57.904255
 20
256.431089
 11
57.904588
 21
302.030942
  0
LINE
  5
15E
100
AcDbEntity
  8
M0
 62
     4
100
AcDbLine
 10
79.904259
 20
256.930684
 11
79.904588
 21
302.030781
  0
LINE
  5
15F
100
AcDbEntity
  8
M0
 62
     4
100
AcDbLine
 10
83.904259
 20
256.930655
 11
83.904588
 21
302.030752
  0
LINE
  5
160
100
AcDbEntity
  8
M0
 62
     4
100
AcDbLine
 10
82.904236
 20
255.930662
 11
80.904236
 21
255.930676
  0
LINE
  5
161
100
AcDbEntity
  8
M0
 62
     4
100
AcDbLine
 10
105.90842
 20
300.030554
 11
83.904436
 21
300.030421
  0
ARC
  5
162
100
AcDbEntity
  8
M0
 62
     4
100
AcDbCircle
 10
82.904243
 20
256.930662
 40
1.0
100
AcDbArc
 50
270.0
 51
359.999582
  0
ARC
  5
163
100
AcDbEntity
  8
M0
 62
     4
100
AcDbCircle
 10
80.904243
 20
256.930676
 40
1.0
100
AcDbArc
 50
179.999582
 51
270.0
  0
ARC
  5
164
100
AcDbEntity
  8
M0
 62
     4
100
AcDbCircle
 10
54.90427
 20
256.431111
 40
1.0
100
AcDbArc
 50
179.999582
 51
270.0
  0
ARC
  5
165
100
AcDbEntity
  8
M0
 62
     4
100
AcDbCircle
 10
56.904255
 20
256.431096
 40
1.0
100
AcDbArc
 50
270.0
 51
359.999582
  0
LINE
  5
166
100
AcDbEntity
  8
M0
  6
DASHDOT
 62
     4
100
AcDbLine
 10
68.904251
 20
255.931008
 11
68.904562
 21
298.531106
  0
LINE
  5
167
100
AcDbEntity
  8
M0
 62
     4
100
AcDbLine
 10
77.404288
 20
260.930946
 11
77.40439
 21
274.930946
  0
LINE
  5
168
100
AcDbEntity
  8
M0
 62
     4
100
AcDbLine
 10
79.904285
 20
258.430684
 11
77.404288
 21
260.930946
  0
LINE
  5
169
100
AcDbEntity
  8
M0
 62
     4
100
AcDbLine
 10
57.904285
 20
258.431089
 11
60.404318
 21
260.931314
  0
LINE
  5
16A
100
AcDbEntity
  8
M0
 62
     4
100
AcDbLine
 10
60.404318
 20
260.931314
 11
60.404421
 21
274.93107
  0
LINE
  5
16B
100
AcDbEntity
  8
M0
 62
     4
100
AcDbLine
 10
105.904353
 20
275.930494
 11
102.404414
 21
275.930748
  0
LINE
  5
16C
100
AcDbEntity
  8
M0
 62
     4
100
AcDbLine
 10
105.908419
 20
278.430738
 11
84.904416
 21
278.430891
  0
LINE
  5
16D
100
AcDbEntity
  8
M0
 62
     4
100
AcDbLine
 10
103.904415
 20
280.430753
 11
84.904461
 21
280.430891
  0
LINE
  5
16E
100
AcDbEntity
  8
M0
 62
     4
100
AcDbLine
 10
77.404438
 20
281.430946
 11
77.404555
 21
297.5308
  0
LINE
  5
16F
100
AcDbEntity
  8
M0
 62
     4
100
AcDbLine
 10
60.404468
 20
281.43107
 11
60.404586
 21
297.530924
  0
ARC
  5
170
100
AcDbEntity
  8
M0
 62
     4
100
AcDbCircle
 10
78.90439
 20
274.930935
 40
1.0
100
AcDbArc
 50
359.999582
 51
449.998707
  0
ARC
  5
171
100
AcDbEntity
  8
M0
 62
     4
100
AcDbCircle
 10
76.40439
 20
274.930953
 40
1.0
100
AcDbArc
 50
359.999582
 51
449.998707
  0
ARC
  5
172
100
AcDbEntity
  8
M0
 62
     4
100
AcDbCircle
 10
58.90439
 20
274.931081
 40
1.0
100
AcDbArc
 50
89.998707
 51
179.999582
  0
ARC
  5
173
100
AcDbEntity
  8
M0
 62
     4
100
AcDbCircle
 10
61.404421
 20
274.931063
 40
1.0
100
AcDbArc
 50
89.998707
 51
179.999582
  0
ARC
  5
174
100
AcDbEntity
  8
M0
 62
     4
100
AcDbCircle
 10
61.404468
 20
281.431063
 40
1.0
100
AcDbArc
 50
179.999582
 51
270.0
  0
ARC
  5
175
100
AcDbEntity
  8
M0
 62
     4
100
AcDbCircle
 10
76.404438
 20
281.430953
 40
1.0
100
AcDbArc
 50
270.0
 51
359.999582
  0
ARC
  5
176
100
AcDbEntity
  8
M0
 62
     4
100
AcDbCircle
 10
58.904438
 20
281.431081
 40
1.0
100
AcDbArc
 50
179.999582
 51
270.0
  0
ARC
  5
177
100
AcDbEntity
  8
M0
 62
     4
100
AcDbCircle
 10
78.904438
 20
281.430935
 40
1.0
100
AcDbArc
 50
270.0
 51
359.999582
  0
LINE
  5
178
100
AcDbEntity
  8
M0
 62
     4
100
AcDbLine
 10
31.904588
 20
299.931278
 11
31.904347
 21
266.931278
  0
LINE
  5
179
100
AcDbEntity
  8
M0
 62
     4
100
AcDbLine
 10
27.904618
 20
302.029593
 11
27.904358
 21
266.431216
  0
LINE
  5
17A
100
AcDbEntity
  8
M0
  6
DASHDOT
 62
     4
100
AcDbLine
 10
42.904578
 20
298.531296
 11
42.904267
 21
255.931198
  0
LINE
  5
17B
100
AcDbEntity
  8
M0
 62
     4
100
AcDbLine
 10
34.40457
 20
297.531114
 11
34.404445
 21
280.43126
  0
LINE
  5
17C
100
AcDbEntity
  8
M0
 62
     4
100
AcDbLine
 10
51.404586
 20
297.531234
 11
51.404445
 21
280.431136
  0
LINE
  5
17D
100
AcDbEntity
  8
M0
 62
     4
100
AcDbLine
 10
52.904413
 20
275.931125
 11
32.904413
 21
275.931271
  0
LINE
  5
17E
100
AcDbEntity
  8
M0
 62
     4
100
AcDbLine
 10
52.904431
 20
278.431125
 11
32.904431
 21
278.431271
  0
LINE
  5
17F
100
AcDbEntity
  8
M0
 62
     4
100
AcDbLine
 10
52.904445
 20
280.431125
 11
32.904445
 21
280.431271
  0
LINE
  5
180
100
AcDbEntity
  8
M0
 62
     4
100
AcDbLine
 10
51.404405
 20
274.931136
 11
51.404303
 21
260.931624
  0
LINE
  5
181
100
AcDbEntity
  8
M0
 62
     4
100
AcDbLine
 10
34.404405
 20
274.931504
 11
34.404384
 21
269.931504
  0
ARC
  5
182
100
AcDbEntity
  8
M0
 62
     4
100
AcDbCircle
 10
52.904405
 20
274.931125
 40
1.0
100
AcDbArc
 50
359.999582
 51
449.998707
  0
ARC
  5
183
100
AcDbEntity
  8
M0
 62
     4
100
AcDbCircle
 10
52.904453
 20
281.431125
 40
1.0
100
AcDbArc
 50
270.0
 51
359.999582
  0
ARC
  5
184
100
AcDbEntity
  8
M0
 62
     4
100
AcDbCircle
 10
32.904405
 20
274.931271
 40
1.0
100
AcDbArc
 50
89.998707
 51
179.999582
  0
ARC
  5
185
100
AcDbEntity
  8
M0
 62
     4
100
AcDbCircle
 10
32.904453
 20
281.431271
 40
1.0
100
AcDbArc
 50
179.999582
 51
270.0
  0
ARC
  5
186
100
AcDbEntity
  8
M0
 62
     4
100
AcDbCircle
 10
52.904424
 20
277.431125
 40
1.0
100
AcDbArc
 50
359.999582
 51
449.998707
  0
ARC
  5
187
100
AcDbEntity
  8
M0
 62
     4
100
AcDbCircle
 10
32.904424
 20
277.431271
 40
1.0
100
AcDbArc
 50
89.998707
 51
179.999582
  0
LINE
  5
188
100
AcDbEntity
  8
M0
 62
     4
100
AcDbLine
 10
31.904366
 20
267.431278
 11
34.404384
 21
269.931504
  0
LINE
  5
189
100
AcDbEntity
  8
M0
 62
     4
100
AcDbLine
 10
53.90427
 20
258.43185
 11
51.404257
 21
260.931624
  0
ARC
  5
18A
100
AcDbEntity
  8
M0
 62
     4
100
AcDbCircle
 10
50.404405
 20
274.931143
 40
1.0
100
AcDbArc
 50
359.999582
 51
449.998707
  0
ARC
  5
18B
100
AcDbEntity
  8
M0
 62
     4
100
AcDbCircle
 10
35.404405
 20
274.931253
 40
1.0
100
AcDbArc
 50
89.998707
 51
179.984719
  0
LINE
  5
18C
100
AcDbEntity
  8
M0
 62
     4
100
AcDbLine
 10
30.90434
 20
265.931286
 11
28.40434
 21
265.931304
  0
ARC
  5
18D
100
AcDbEntity
  8
M0
 62
     4
100
AcDbCircle
 10
28.404343
 20
266.431304
 40
0.5
100
AcDbArc
 50
179.999582
 51
270.0
  0
ARC
  5
18E
100
AcDbEntity
  8
M0
 62
     4
100
AcDbCircle
 10
30.904347
 20
266.931286
 40
1.0
100
AcDbArc
 50
270.0
 51
359.999582
  0
LINE
  5
18F
100
AcDbEntity
  8
M0
 62
     4
100
AcDbLine
 10
31.904604
 20
300.031132
 11
34.40457
 21
297.531114
  0
LINE
  5
190
100
AcDbEntity
  8
M0
 62
     4
100
AcDbLine
 10
130.908319
 20
301.029635
 11
83.904489
 21
301.029615
  0
ARC
  5
191
100
AcDbEntity
  8
M0
 62
     4
100
AcDbCircle
 10
30.904589
 20
300.031286
 40
1.0
100
AcDbArc
 50
359.999546
 51
449.998707
  0
LINE
  5
192
100
AcDbEntity
  8
M0
  6
DASHDOT
 62
     4
100
AcDbLine
 10
94.904259
 20
256.930574
 11
94.904573
 21
300.030672
  0
LINE
  5
193
100
AcDbEntity
  8
M0
 62
     4
100
AcDbLine
 10
86.404288
 20
260.931369
 11
86.40439
 21
274.93088
  0
LINE
  5
194
100
AcDbEntity
  8
M0
 62
     4
100
AcDbLine
 10
103.40431
 20
263.931245
 11
103.40439
 21
274.930756
  0
LINE
  5
195
100
AcDbEntity
  8
M0
 62
     4
100
AcDbLine
 10
83.9043
 20
258.431631
 11
86.404349
 21
260.931369
  0
ARC
  5
196
100
AcDbEntity
  8
M0
 62
     4
100
AcDbCircle
 10
87.404436
 20
274.930873
 40
1.0
100
AcDbArc
 50
89.998707
 51
179.999582
  0
ARC
  5
197
100
AcDbEntity
  8
M0
 62
     4
100
AcDbCircle
 10
84.904436
 20
274.930891
 40
1.0
100
AcDbArc
 50
89.998707
 51
179.999582
  0
ARC
  5
198
100
AcDbEntity
  8
M0
 62
     4
100
AcDbCircle
 10
102.404405
 20
274.930764
 40
1.0
100
AcDbArc
 50
359.999582
 51
450.0
  0
LINE
  5
199
100
AcDbEntity
  8
M0
 62
     4
100
AcDbLine
 10
78.904397
 20
275.930935
 11
58.904397
 21
275.931081
  0
LINE
  5
19A
100
AcDbEntity
  8
M0
 62
     4
100
AcDbLine
 10
87.404443
 20
275.930873
 11
84.904443
 21
275.930891
  0
LINE
  5
19B
100
AcDbEntity
  8
M0
 62
     4
100
AcDbLine
 10
102.404413
 20
275.930764
 11
87.404443
 21
275.930873
  0
ARC
  5
19C
100
AcDbEntity
  8
M0
 62
     4
100
AcDbCircle
 10
87.404468
 20
281.430873
 40
1.0
100
AcDbArc
 50
179.999582
 51
270.0
  0
ARC
  5
19D
100
AcDbEntity
  8
M0
 62
     4
100
AcDbCircle
 10
84.904468
 20
281.430891
 40
1.0
100
AcDbArc
 50
179.999582
 51
270.0
  0
LINE
  5
19E
100
AcDbEntity
  8
M0
 62
     4
100
AcDbLine
 10
78.904416
 20
278.430935
 11
58.904416
 21
278.431081
  0
LINE
  5
19F
100
AcDbEntity
  8
M0
 62
     4
100
AcDbLine
 10
78.90443
 20
280.430935
 11
58.90443
 21
280.431081
  0
LINE
  5
1A0
100
AcDbEntity
  8
M0
 62
     4
100
AcDbLine
 10
86.404438
 20
281.43088
 11
86.404555
 21
297.531222
  0
ARC
  5
1A1
100
AcDbEntity
  8
M0
 62
     4
100
AcDbCircle
 10
102.404453
 20
281.430764
 40
1.0
100
AcDbArc
 50
270.0
 51
359.999582
  0
LINE
  5
1A2
100
AcDbEntity
  8
M0
 62
     4
100
AcDbLine
 10
104.904422
 20
281.430745
 11
104.904558
 21
300.030599
  0
ARC
  5
1A3
100
AcDbEntity
  8
M0
 62
     4
100
AcDbCircle
 10
103.904422
 20
281.430753
 40
1.0
100
AcDbArc
 50
270.0
 51
359.999582
  0
LINE
  5
1A4
100
AcDbEntity
  8
M0
 62
     4
100
AcDbLine
 10
103.404422
 20
281.430756
 11
103.404547
 21
298.530854
  0
ARC
  5
1A5
100
AcDbEntity
  8
M0
 62
     4
100
AcDbCircle
 10
105.404405
 20
274.930757
 40
1.0
100
AcDbArc
 50
359.999582
 51
450.0
  0
ARC
  5
1A6
100
AcDbEntity
  8
M0
 62
     4
100
AcDbCircle
 10
84.904408
 20
277.430891
 40
1.0
100
AcDbArc
 50
89.998707
 51
179.999582
  0
ARC
  5
1A7
100
AcDbEntity
  8
M0
 62
     4
100
AcDbCircle
 10
58.904408
 20
277.431081
 40
1.0
100
AcDbArc
 50
89.998707
 51
179.999582
  0
ARC
  5
1A8
100
AcDbEntity
  8
M0
 62
     4
100
AcDbCircle
 10
78.904408
 20
277.430935
 40
1.0
100
AcDbArc
 50
359.999582
 51
449.998707
  0
ARC
  5
1A9
100
AcDbEntity
  8
M0
 62
     4
100
AcDbCircle
 10
105.404408
 20
277.430757
 40
1.0
100
AcDbArc
 50
59.734602
 51
90.0
  0
LINE
  5
1AA
100
AcDbEntity
  8
M0
 62
     4
100
AcDbLine
 10
53.904604
 20
300.030971
 11
51.404586
 21
297.531234
  0
LINE
  5
1AB
100
AcDbEntity
  8
M0
 62
     4
100
AcDbLine
 10
57.904573
 20
300.030942
 11
60.404586
 21
297.530924
  0
LINE
  5
1AC
100
AcDbEntity
  8
M0
 62
     4
100
AcDbLine
 10
83.904634
 20
300.030752
 11
86.404616
 21
297.530978
  0
LINE
  5
1AD
100
AcDbEntity
  8
M0
 62
     4
100
AcDbLine
 10
79.904665
 20
300.030781
 11
77.404616
 21
297.5308
  0
LINE
  5
1AE
100
AcDbEntity
  8
M0
 62
     4
100
AcDbLine
 10
108.754595
 20
299.82967
 11
108.754595
 21
280.272026
  0
LINE
  5
1AF
100
AcDbEntity
  8
M0
 62
     4
100
AcDbLine
 10
104.904573
 20
300.030599
 11
103.404547
 21
298.530854
  0
LINE
  5
1B0
100
AcDbEntity
  8
M0
 62
     4
100
AcDbLine
 10
106.408232
 20
260.926584
 11
103.40431
 21
263.931
  0
LINE
  5
1B1
100
AcDbEntity
  8
M0
 62
     4
100
AcDbLine
 10
108.75445
 20
280.272514
 11
108.75444
 21
278.829674
  0
ARC
  5
1B2
100
AcDbEntity
  8
M0
 62
     4
100
AcDbCircle
 10
118.754496
 20
286.530498
 40
13.299997
100
AcDbArc
 50
165.188542
 51
194.810608
  0
LINE
  5
1B3
100
AcDbEntity
  8
M0
 62
     4
100
AcDbLine
 10
105.896458
 20
289.930738
 11
108.754542
 21
292.789116
  0
LINE
  5
1B4
100
AcDbEntity
  8
M0
 62
     4
100
AcDbLine
 10
105.896409
 20
283.130689
 11
108.75445
 21
280.27227
  0
ARC
  5
1B5
100
AcDbEntity
  8
M0
 62
     4
100
AcDbCircle
 10
82.904588
 20
302.03076
 40
1.0
100
AcDbArc
 50
359.999527
 51
449.998707
  0
LINE
  5
1B6
100
AcDbEntity
  8
M0
 62
     4
100
AcDbLine
 10
82.904595
 20
303.03076
 11
80.904595
 21
303.030774
  0
ARC
  5
1B7
100
AcDbEntity
  8
M0
 62
     4
100
AcDbCircle
 10
80.904588
 20
302.030774
 40
1.0
100
AcDbArc
 50
89.998707
 51
179.999582
  0
ARC
  5
1B8
100
AcDbEntity
  8
M0
 62
     4
100
AcDbCircle
 10
56.904588
 20
302.030949
 40
1.0
100
AcDbArc
 50
359.999527
 51
449.998707
  0
LINE
  5
1B9
100
AcDbEntity
  8
M0
 62
     4
100
AcDbLine
 10
56.904595
 20
303.030949
 11
54.904611
 21
303.030964
  0
ARC
  5
1BA
100
AcDbEntity
  8
M0
 62
     4
100
AcDbCircle
 10
54.904603
 20
302.030964
 40
1.0
100
AcDbArc
 50
89.998707
 51
179.985593
  0
LINE
  5
1BB
100
AcDbEntity
  8
M0
 62
     4
100
AcDbLine
 10
53.904611
 20
301.030002
 11
27.904626
 21
301.030858
  0
LINE
  5
1BC
100
AcDbEntity
  8
M0
 62
     4
100
AcDbLine
 10
79.904474
 20
301.029878
 11
57.904474
 21
301.029983
  0
LINE
  5
1BD
100
AcDbEntity
  8
M0
 62
     4
100
AcDbLine
 10
79.904436
 20
300.030437
 11
57.904436
 21
300.030276
  0
LINE
  5
1BE
100
AcDbEntity
  8
M0
 62
     4
100
AcDbLine
 10
53.904604
 20
300.030292
 11
31.904589
 21
300.03062
  0
LINE
  5
1BF
100
AcDbEntity
  8
M0
 62
     4
100
AcDbLine
 10
53.904649
 20
302.029838
 11
33.904603
 21
302.029593
  0
LINE
  5
1C0
100
AcDbEntity
  8
M0
 62
     4
100
AcDbLine
 10
79.904496
 20
302.029648
 11
57.904496
 21
302.029691
  0
LINE
  5
1C1
100
AcDbEntity
  8
M0
 62
     4
100
AcDbLine
 10
103.102831
 20
302.028617
 11
83.904542
 21
302.029349
  0
CIRCLE
  5
1C2
100
AcDbEntity
  8
M0
  6
DASHED
 62
     4
100
AcDbCircle
 10
118.758363
 20
286.528862
 40
7.699991
  0
LINE
  5
1C3
100
AcDbEntity
  8
M0
 62
     4
100
AcDbLine
 10
154.706262
 20
299.029351
 11
154.70618
 21
279.029362
  0
ARC
  5
1C4
100
AcDbEntity
  8
M0
 62
     4
100
AcDbCircle
 10
158.706247
 20
299.029594
 40
3.999998
100
AcDbArc
 50
89.999545
 51
179.999518
  0
LINE
  5
1C5
100
AcDbEntity
  8
M0
 62
     4
100
AcDbLine
 10
157.706285
 20
300.028618
 11
157.706052
 21
280.27032
  0
LINE
  5
1C6
100
AcDbEntity
  8
M0
 62
     4
100
AcDbLine
 10
157.706182
 20
292.789605
 11
165.506063
 21
292.789605
  0
LINE
  5
1C7
100
AcDbEntity
  8
M0
 62
     4
100
AcDbLine
 10
157.706052
 20
280.27032
 11
165.506055
 21
280.270319
  0
LINE
  5
1C8
100
AcDbEntity
  8
M0
 62
     4
100
AcDbLine
 10
154.706119
 20
279.029362
 11
160.704989
 21
279.02936
  0
LINE
  5
1C9
100
AcDbEntity
  8
M0
 62
     4
100
AcDbLine
 10
164.09883
 20
255.429266
 11
189.34479
 21
255.429264
  0
LINE
  5
1CA
100
AcDbEntity
  8
M0
 62
     4
100
AcDbLine
 10
154.706195
 20
279.029362
 11
160.235129
 21
258.393866
  0
ARC
  5
1CB
100
AcDbEntity
  8
M0
 62
     4
100
AcDbCircle
 10
164.098816
 20
259.429266
 40
4.0
100
AcDbArc
 50
195.001414
 51
269.999545
  0
LINE
  5
1CC
100
AcDbEntity
  8
M0
 62
     4
100
AcDbLine
 10
168.597196
 20
261.029359
 11
189.704806
 21
261.029359
  0
ARC
  5
1CD
100
AcDbEntity
  8
M0
 62
     4
100
AcDbCircle
 10
189.344805
 20
259.429264
 40
4.0
100
AcDbArc
 50
269.999518
 51
344.998155
  0
LINE
  5
1CE
100
AcDbEntity
  8
M0
 62
     4
100
AcDbLine
 10
192.704852
 20
259.029365
 11
198.704927
 21
259.029364
  0
LINE
  5
1CF
100
AcDbEntity
  8
M0
 62
     4
100
AcDbLine
 10
199.704942
 20
261.029371
 11
206.04532
 21
261.029366
  0
ARC
  5
1D0
100
AcDbEntity
  8
M0
 62
     4
100
AcDbCircle
 10
198.704927
 20
260.029364
 40
1.0
100
AcDbArc
 50
270.0
 51
359.999545
  0
CIRCLE
  5
1D1
100
AcDbEntity
  8
M0
 62
     6
100
AcDbCircle
 10
112.907198
 20
274.528862
 40
2.999997
  0
LINE
  5
1D2
100
AcDbEntity
  8
M0
 62
     6
100
AcDbLine
 10
109.687227
 20
277.629669
 11
109.132051
 21
275.828911
  0
LINE
  5
1D3
100
AcDbEntity
  8
M0
 62
     6
100
AcDbLine
 10
109.948214
 20
270.581611
 11
109.132051
 21
273.228935
  0
LINE
  5
1D4
100
AcDbEntity
  8
M0
 62
     6
100
AcDbLine
 10
116.497466
 20
276.427611
 11
116.6821
 21
275.828911
  0
LINE
  5
1D5
100
AcDbEntity
  8
M0
 62
     6
100
AcDbLine
 10
115.865694
 20
270.581596
 11
116.6821
 21
273.228935
  0
LINE
  5
1D6
100
AcDbEntity
  8
M0
 62
     6
100
AcDbLine
 10
110.426241
 20
270.228935
 11
115.387911
 21
270.228935
  0
LINE
  5
1D7
100
AcDbEntity
  8
M0
 62
     6
100
AcDbLine
 10
116.6821
 20
273.228935
 11
116.6821
 21
275.828911
  0
LINE
  5
1D8
100
AcDbEntity
  8
M0
 62
     6
100
AcDbLine
 10
109.132051
 20
275.828911
 11
109.132051
 21
273.228935
  0
LINE
  5
1D9
100
AcDbEntity
  8
M0
 62
     6
100
AcDbLine
 10
114.497774
 20
272.938041
 11
111.316133
 21
276.119804
  0
LINE
  5
1DA
100
AcDbEntity
  8
M0
 62
     6
100
AcDbLine
 10
113.260469
 20
275.943046
 11
111.492891
 21
274.175346
  0
LINE
  5
1DB
100
AcDbEntity
  8
M0
 62
     6
100
AcDbLine
 10
114.321016
 20
274.882377
 11
112.553438
 21
273.114799
  0
ARC
  5
1DC
100
AcDbEntity
  8
M0
 62
     6
100
AcDbCircle
 10
110.426241
 20
270.728935
 40
0.5
100
AcDbArc
 50
197.128737
 51
270.0
  0
ARC
  5
1DD
100
AcDbEntity
  8
M0
 62
     6
100
AcDbCircle
 10
115.387911
 20
270.728935
 40
0.5
100
AcDbArc
 50
270.0
 51
342.861308
  0
LINE
  5
1DE
100
AcDbEntity
  8
M0
  6
DASHDOT
 62
     6
100
AcDbLine
 10
116.407198
 20
274.528862
 11
109.407198
 21
274.528862
  0
LINE
  5
1DF
100
AcDbEntity
  8
M0
  6
DASHDOT
 62
     6
100
AcDbLine
 10
112.907183
 20
278.028862
 11
112.907198
 21
271.028862
  0
CIRCLE
  5
1E0
100
AcDbEntity
  8
M0
 62
     6
100
AcDbCircle
 10
123.907198
 20
274.528862
 40
2.999997
  0
LINE
  5
1E1
100
AcDbEntity
  8
M0
 62
     6
100
AcDbLine
 10
120.286436
 20
276.329669
 11
120.132051
 21
275.828911
  0
LINE
  5
1E2
100
AcDbEntity
  8
M0
 62
     6
100
AcDbLine
 10
120.948214
 20
270.581611
 11
120.132051
 21
273.228935
  0
LINE
  5
1E3
100
AcDbEntity
  8
M0
 62
     6
100
AcDbLine
 10
127.126761
 20
277.629669
 11
127.6821
 21
275.828911
  0
LINE
  5
1E4
100
AcDbEntity
  8
M0
 62
     6
100
AcDbLine
 10
126.865694
 20
270.581596
 11
127.6821
 21
273.228935
  0
LINE
  5
1E5
100
AcDbEntity
  8
M0
 62
     6
100
AcDbLine
 10
121.426241
 20
270.228935
 11
126.387911
 21
270.228935
  0
LINE
  5
1E6
100
AcDbEntity
  8
M0
 62
     6
100
AcDbLine
 10
127.6821
 20
273.228935
 11
127.6821
 21
275.828911
  0
LINE
  5
1E7
100
AcDbEntity
  8
M0
 62
     6
100
AcDbLine
 10
120.132051
 20
275.828911
 11
120.132051
 21
273.228935
  0
LINE
  5
1E8
100
AcDbEntity
  8
M0
 62
     6
100
AcDbLine
 10
125.497774
 20
272.938041
 11
122.316133
 21
276.119804
  0
LINE
  5
1E9
100
AcDbEntity
  8
M0
 62
     6
100
AcDbLine
 10
124.260469
 20
275.943046
 11
122.492891
 21
274.175346
  0
LINE
  5
1EA
100
AcDbEntity
  8
M0
 62
     6
100
AcDbLine
 10
125.321016
 20
274.882377
 11
123.553438
 21
273.114799
  0
ARC
  5
1EB
100
AcDbEntity
  8
M0
 62
     6
100
AcDbCircle
 10
121.426241
 20
270.728935
 40
0.5
100
AcDbArc
 50
197.128737
 51
270.0
  0
ARC
  5
1EC
100
AcDbEntity
  8
M0
 62
     6
100
AcDbCircle
 10
126.387911
 20
270.728935
 40
0.5
100
AcDbArc
 50
270.0
 51
342.861308
  0
LINE
  5
1ED
100
AcDbEntity
  8
M0
  6
DASHDOT
 62
     6
100
AcDbLine
 10
127.407198
 20
274.528862
 11
120.407198
 21
274.528862
  0
LINE
  5
1EE
100
AcDbEntity
  8
M0
  6
DASHDOT
 62
     6
100
AcDbLine
 10
123.907183
 20
278.028862
 11
123.907198
 21
271.028862
  0
LINE
  5
1EF
100
AcDbEntity
  8
M0
 62
     5
100
AcDbLine
 10
103.721895
 20
267.528862
 11
106.407183
 21
267.529106
  0
LINE
  5
1F0
100
AcDbEntity
  8
M0
  6
DASHED
100
AcDbLine
 10
119.257296
 20
296.379106
 11
123.257296
 21
296.379106
  0
LINE
  5
1F1
100
AcDbEntity
  8
M0
  6
DASHED
100
AcDbLine
 10
123.257296
 20
296.379106
 11
123.257296
 21
299.179105
  0
LINE
  5
1F2
100
AcDbEntity
  8
M0
  6
DASHED
100
AcDbLine
 10
123.257296
 20
299.179105
 11
119.257296
 21
299.179105
  0
LINE
  5
1F3
100
AcDbEntity
  8
M0
  6
DASHED
100
AcDbLine
 10
119.257296
 20
299.179105
 11
119.257296
 21
296.379106
  0
LINE
  5
1F4
100
AcDbEntity
  8
M0
100
AcDbLine
 10
119.666194
 20
286.444632
 11
119.666194
 21
288.833792
  0
LINE
  5
1F5
100
AcDbEntity
  8
M0
100
AcDbLine
 10
119.666209
 20
288.834037
 11
117.963466
 21
288.834037
  0
LINE
  5
1F6
100
AcDbEntity
  8
M0
100
AcDbLine
 10
117.963466
 20
288.833792
 11
117.963466
 21
286.445121
  0
LINE
  5
1F7
100
AcDbEntity
  8
M0
100
AcDbLine
 10
118.81483
 20
284.055472
 11
117.160579
 21
286.445609
  0
LINE
  5
1F8
100
AcDbEntity
  8
M0
100
AcDbLine
 10
118.81483
 20
284.055472
 11
120.469096
 21
286.444876
  0
LINE
  5
1F9
100
AcDbEntity
  8
M0
100
AcDbLine
 10
117.160579
 20
286.445609
 11
117.96345
 21
286.445365
  0
LINE
  5
1FA
100
AcDbEntity
  8
M0
100
AcDbLine
 10
120.469096
 20
286.444876
 11
119.666194
 21
286.444876
  0
ARC
  5
1FB
100
AcDbEntity
  8
M0
 62
     6
100
AcDbCircle
 10
123.908419
 20
267.528862
 40
2.999997
100
AcDbArc
 50
115.844051
 51
424.156194
  0
LINE
  5
1FC
100
AcDbEntity
  8
M0
 62
     6
100
AcDbLine
 10
120.81093
 20
271.026664
 11
120.133272
 21
268.828911
  0
LINE
  5
1FD
100
AcDbEntity
  8
M0
 62
     6
100
AcDbLine
 10
120.949434
 20
263.581611
 11
120.133272
 21
266.228935
  0
LINE
  5
1FE
100
AcDbEntity
  8
M0
 62
     6
100
AcDbLine
 10
127.004244
 20
271.030815
 11
127.683321
 21
268.828911
  0
LINE
  5
1FF
100
AcDbEntity
  8
M0
 62
     6
100
AcDbLine
 10
126.866915
 20
263.581596
 11
127.683321
 21
266.228935
  0
LINE
  5
200
100
AcDbEntity
  8
M0
 62
     6
100
AcDbLine
 10
121.427462
 20
263.228935
 11
126.389131
 21
263.228935
  0
LINE
  5
201
100
AcDbEntity
  8
M0
 62
     6
100
AcDbLine
 10
127.683321
 20
266.228935
 11
127.683321
 21
268.828911
  0
LINE
  5
202
100
AcDbEntity
  8
M0
 62
     6
100
AcDbLine
 10
120.133272
 20
268.828911
 11
120.133272
 21
266.228935
  0
LINE
  5
203
100
AcDbEntity
  8
M0
  6
DASHDOT
 62
     6
100
AcDbLine
 10
117.633272
 20
267.528862
 11
130.183321
 21
267.528862
  0
LINE
  5
204
100
AcDbEntity
  8
M0
  6
DASHDOT
 62
     6
100
AcDbLine
 10
123.908419
 20
260.72895
 11
123.908419
 21
270.004898
  0
LINE
  5
205
100
AcDbEntity
  8
M0
 62
     6
100
AcDbLine
 10
125.498995
 20
265.938041
 11
122.317354
 21
269.119804
  0
LINE
  5
206
100
AcDbEntity
  8
M0
 62
     6
100
AcDbLine
 10
124.26169
 20
268.943046
 11
122.494112
 21
267.175346
  0
LINE
  5
207
100
AcDbEntity
  8
M0
 62
     6
100
AcDbLine
 10
125.322237
 20
267.882377
 11
123.554659
 21
266.114799
  0
ARC
  5
208
100
AcDbEntity
  8
M0
 62
     6
100
AcDbCircle
 10
121.427462
 20
263.728935
 40
0.5
100
AcDbArc
 50
197.128737
 51
270.0
  0
ARC
  5
209
100
AcDbEntity
  8
M0
 62
     6
100
AcDbCircle
 10
126.389131
 20
263.728935
 40
0.5
100
AcDbArc
 50
270.0
 51
342.861308
  0
ARC
  5
20A
100
AcDbEntity
  8
M0
 62
     6
100
AcDbCircle
 10
113.908419
 20
267.528862
 40
2.999997
100
AcDbArc
 50
115.844051
 51
424.156194
  0
LINE
  5
20B
100
AcDbEntity
  8
M0
 62
     6
100
AcDbLine
 10
110.564897
 20
270.228813
 11
110.133272
 21
268.828911
  0
LINE
  5
20C
100
AcDbEntity
  8
M0
 62
     6
100
AcDbLine
 10
110.949434
 20
263.581611
 11
110.133272
 21
266.228935
  0
LINE
  5
20D
100
AcDbEntity
  8
M0
 62
     6
100
AcDbLine
 10
116.866915
 20
263.581596
 11
117.495089
 21
265.618461
  0
LINE
  5
20E
100
AcDbEntity
  8
M0
 62
     6
100
AcDbLine
 10
111.427462
 20
263.228935
 11
116.389131
 21
263.228935
  0
LINE
  5
20F
100
AcDbEntity
  8
M0
 62
     6
100
AcDbLine
 10
110.133272
 20
268.828911
 11
110.133272
 21
266.228935
  0
LINE
  5
210
100
AcDbEntity
  8
M0
  6
DASHDOT
 62
     6
100
AcDbLine
 10
107.633272
 20
267.528862
 11
120.183321
 21
267.528862
  0
LINE
  5
211
100
AcDbEntity
  8
M0
  6
DASHDOT
 62
     6
100
AcDbLine
 10
113.908419
 20
260.72895
 11
113.908419
 21
274.328911
  0
LINE
  5
212
100
AcDbEntity
  8
M0
 62
     6
100
AcDbLine
 10
115.498995
 20
265.938041
 11
112.317354
 21
269.119804
  0
LINE
  5
213
100
AcDbEntity
  8
M0
 62
     6
100
AcDbLine
 10
114.26169
 20
268.943046
 11
112.494112
 21
267.175346
  0
LINE
  5
214
100
AcDbEntity
  8
M0
 62
     6
100
AcDbLine
 10
115.322237
 20
267.882377
 11
113.554659
 21
266.114799
  0
ARC
  5
215
100
AcDbEntity
  8
M0
 62
     6
100
AcDbCircle
 10
111.427462
 20
263.728935
 40
0.5
100
AcDbArc
 50
197.128737
 51
270.0
  0
ARC
  5
216
100
AcDbEntity
  8
M0
 62
     6
100
AcDbCircle
 10
116.389131
 20
263.728935
 40
0.5
100
AcDbArc
 50
270.0
 51
342.861308
  0
ARC
  5
217
100
AcDbEntity
  8
M0
 62
     4
100
AcDbCircle
 10
118.90835
 20
259.528881
 40
1.0
100
AcDbArc
 50
179.999909
 51
270.0
  0
ARC
  5
218
100
AcDbEntity
  8
M0
 62
     4
100
AcDbCircle
 10
118.90835
 20
259.528881
 40
1.0
100
AcDbArc
 50
270.0
 51
359.999909
  0
LINE
  5
219
100
AcDbEntity
  8
M0
 62
     4
100
AcDbLine
 10
109.90838
 20
259.528895
 11
106.90838
 21
259.5289
  0
LINE
  5
21A
100
AcDbEntity
  8
M0
 62
     4
100
AcDbLine
 10
105.908429
 20
300.028628
 11
104.90286
 21
300.028618
  0
LINE
  5
21B
100
AcDbEntity
  8
M0
 62
     4
100
AcDbLine
 10
109.908371
 20
263.528895
 11
110.965668
 21
263.528893
  0
LINE
  5
21C
100
AcDbEntity
  8
M0
 62
     4
100
AcDbLine
 10
130.908352
 20
261.028862
 11
130.908419
 21
303.028862
  0
LINE
  5
21D
100
AcDbEntity
  8
M0
 62
     4
100
AcDbLine
 10
106.408428
 20
260.72638
 11
106.408439
 21
277.629685
  0
LINE
  5
21E
100
AcDbEntity
  8
M0
 62
     4
100
AcDbLine
 10
127.908353
 20
261.528866
 11
127.908378
 21
277.629681
  0
LINE
  5
21F
100
AcDbEntity
  8
M0
 62
     4
100
AcDbLine
 10
130.40835
 20
269.528863
 11
128.90835
 21
269.528865
  0
ARC
  5
220
100
AcDbEntity
  8
M0
 62
     4
100
AcDbCircle
 10
130.408351
 20
270.028863
 40
0.5
100
AcDbArc
 50
270.0
 51
359.999909
  0
ARC
  5
221
100
AcDbEntity
  8
M0
 62
     4
100
AcDbCircle
 10
128.908352
 20
270.528865
 40
1.0
100
AcDbArc
 50
179.999909
 51
270.0
  0
LINE
  5
222
100
AcDbEntity
  8
M0
 62
     4
100
AcDbLine
 10
130.408355
 20
262.528863
 11
128.908355
 21
262.528865
  0
LINE
  5
223
100
AcDbEntity
  8
M0
 62
     4
100
AcDbLine
 10
130.408351
 20
260.528863
 11
128.908351
 21
260.528865
  0
ARC
  5
224
100
AcDbEntity
  8
M0
 62
     4
100
AcDbCircle
 10
130.408352
 20
261.028863
 40
0.5
100
AcDbArc
 50
270.0
 51
359.999909
  0
ARC
  5
225
100
AcDbEntity
  8
M0
 62
     4
100
AcDbCircle
 10
128.908353
 20
261.528865
 40
1.0
100
AcDbArc
 50
179.999909
 51
270.0
  0
ARC
  5
226
100
AcDbEntity
  8
M0
 62
     4
100
AcDbCircle
 10
130.408355
 20
263.028863
 40
0.5
100
AcDbArc
 50
270.0
 51
359.999909
  0
ARC
  5
227
100
AcDbEntity
  8
M0
 62
     4
100
AcDbCircle
 10
128.908356
 20
263.528865
 40
1.0
100
AcDbArc
 50
179.999909
 51
270.0
  0
LINE
  5
228
100
AcDbEntity
  8
M0
 62
     4
100
AcDbLine
 10
130.408362
 20
267.528863
 11
128.908362
 21
267.528865
  0
ARC
  5
229
100
AcDbEntity
  8
M0
 62
     4
100
AcDbCircle
 10
128.908364
 20
268.528865
 40
1.0
100
AcDbArc
 50
179.999909
 51
270.0
  0
ARC
  5
22A
100
AcDbEntity
  8
M0
 62
     4
100
AcDbCircle
 10
130.408363
 20
268.028863
 40
0.5
100
AcDbArc
 50
270.0
 51
359.999909
  0
LINE
  5
22B
100
AcDbEntity
  8
M0
 62
     4
100
AcDbLine
 10
119.90835
 20
259.528879
 11
119.908376
 21
276.329676
  0
LINE
  5
22C
100
AcDbEntity
  8
M0
 62
     4
100
AcDbLine
 10
126.850617
 20
263.528868
 11
127.908326
 21
263.528866
  0
LINE
  5
22D
100
AcDbEntity
  8
M0
 62
     4
100
AcDbLine
 10
127.908337
 20
270.528866
 11
127.159023
 21
270.528624
  0
LINE
  5
22E
100
AcDbEntity
  8
M0
 62
     4
100
AcDbLine
 10
120.657406
 20
270.528634
 11
119.908337
 21
270.528879
  0
LINE
  5
22F
100
AcDbEntity
  8
M0
 62
     4
100
AcDbLine
 10
116.90833
 20
266.528884
 11
116.90836
 21
276.32968
  0
LINE
  5
230
100
AcDbEntity
  8
M0
 62
     4
100
AcDbLine
 10
118.908359
 20
265.528881
 11
117.908359
 21
265.528882
  0
ARC
  5
231
100
AcDbEntity
  8
M0
 62
     4
100
AcDbCircle
 10
118.908361
 20
266.528881
 40
1.0
100
AcDbArc
 50
270.0
 51
359.999909
  0
ARC
  5
232
100
AcDbEntity
  8
M0
 62
     4
100
AcDbCircle
 10
117.908361
 20
266.528882
 40
1.0
100
AcDbArc
 50
179.999909
 51
270.0
  0
LINE
  5
233
100
AcDbEntity
  8
M0
 62
     4
100
AcDbLine
 10
108.908394
 20
268.028912
 11
108.908409
 21
277.629681
  0
LINE
  5
234
100
AcDbEntity
  8
M0
 62
     4
100
AcDbLine
 10
115.849422
 20
270.528886
 11
116.908367
 21
270.528884
  0
LINE
  5
235
100
AcDbEntity
  8
M0
 62
     4
100
AcDbLine
 10
110.908371
 20
263.528893
 11
110.908372
 21
263.714684
  0
LINE
  5
236
100
AcDbEntity
  8
M0
 62
     4
100
AcDbLine
 10
109.90838
 20
259.528895
 11
109.908383
 21
270.71078
  0
LINE
  5
237
100
AcDbEntity
  8
M0
 62
     4
100
AcDbLine
 10
117.90835
 20
259.528882
 11
117.908359
 21
265.528882
  0
LINE
  5
238
100
AcDbEntity
  8
M0
 62
     4
100
AcDbLine
 10
119.908326
 20
263.528879
 11
120.965653
 21
263.528877
  0
LINE
  5
239
100
AcDbEntity
  8
M0
 62
     4
100
AcDbLine
 10
109.908389
 20
265.028895
 11
106.408389
 21
265.0289
  0
LINE
  5
23A
100
AcDbEntity
  8
M0
 62
     4
100
AcDbLine
 10
109.908392
 20
267.028895
 11
106.408392
 21
267.0289
  0
LINE
  5
23B
100
AcDbEntity
  8
M0
 62
     4
100
AcDbLine
 10
108.908395
 20
268.528897
 11
108.908409
 21
277.629681
  0
ARC
  5
23C
100
AcDbEntity
  8
M0
 62
     4
100
AcDbCircle
 10
107.408394
 20
268.028899
 40
1.0
100
AcDbArc
 50
179.999909
 51
270.0
  0
ARC
  5
23D
100
AcDbEntity
  8
M0
 62
     4
100
AcDbCircle
 10
107.908394
 20
268.028898
 40
1.0
100
AcDbArc
 50
270.0
 51
359.999909
  0
LINE
  5
23E
100
AcDbEntity
  8
M0
 62
     4
100
AcDbLine
 10
106.90838
 20
259.5289
 11
106.908389
 21
265.0289
  0
LINE
  5
23F
100
AcDbEntity
  8
M0
 62
     4
100
AcDbLine
 10
108.758399
 20
286.528897
 11
107.258396
 21
285.028914
  0
LINE
  5
240
100
AcDbEntity
  8
M0
 62
     4
100
AcDbLine
 10
108.758399
 20
286.528897
 11
107.258401
 21
288.028899
  0
LINE
  5
241
100
AcDbEntity
  8
M0
 62
     4
100
AcDbLine
 10
106.408436
 20
285.02887
 11
106.408441
 21
288.028618
  0
LINE
  5
242
100
AcDbEntity
  8
M0
 62
     4
100
AcDbLine
 10
108.758435
 20
299.82967
 11
108.758424
 21
292.778618
  0
LINE
  5
243
100
AcDbEntity
  8
M0
 62
     4
100
AcDbLine
 10
107.258396
 20
285.028624
 11
106.408436
 21
285.02887
  0
LINE
  5
244
100
AcDbEntity
  8
M0
 62
     4
100
AcDbLine
 10
107.258416
 20
288.028618
 11
106.408441
 21
288.028862
  0
LINE
  5
245
100
AcDbEntity
  8
M0
 62
     4
100
AcDbLine
 10
116.850632
 20
263.528884
 11
117.908326
 21
263.528882
  0
LINE
  5
246
100
AcDbEntity
  8
M0
 62
     4
100
AcDbLine
 10
130.908419
 20
303.028862
 11
122.408419
 21
303.028875
  0
LINE
  5
247
100
AcDbEntity
  8
M0
 62
     4
100
AcDbLine
 10
121.408416
 20
301.228889
 11
121.408417
 21
302.028877
  0
ARC
  5
248
100
AcDbEntity
  8
M0
 62
     4
100
AcDbCircle
 10
122.408417
 20
302.028875
 40
1.0
100
AcDbArc
 50
90.0
 51
179.999909
  0
LINE
  5
249
100
AcDbEntity
  8
M0
 62
     4
100
AcDbLine
 10
107.908385
 20
262.528898
 11
107.908389
 21
265.028898
  0
LINE
  5
24A
100
AcDbEntity
  8
M0
 62
     4
100
AcDbLine
 10
109.908399
 20
261.528895
 11
106.908383
 21
261.5289
  0
ARC
  5
24B
100
AcDbEntity
  8
M0
 62
     4
100
AcDbCircle
 10
108.908385
 20
262.528897
 40
1.0
100
AcDbArc
 50
179.999909
 51
270.0
  0
ARC
  5
24C
100
AcDbEntity
  8
M0
 62
     4
100
AcDbCircle
 10
108.908385
 20
262.528897
 40
1.0
100
AcDbArc
 50
270.0
 51
359.999909
  0
LINE
  5
24D
100
AcDbEntity
  8
M0
 62
     4
100
AcDbLine
 10
108.758434
 20
280.279355
 11
108.758387
 21
279.028897
  0
LINE
  5
24E
100
AcDbEntity
  8
M0
100
AcDbLine
 10
164.709291
 20
283.279106
 11
165.506053
 21
283.279106
  0
LINE
  5
24F
100
AcDbEntity
  8
M0
100
AcDbLine
 10
165.506053
 20
289.779106
 11
164.709291
 21
289.779106
  0
ARC
  5
250
100
AcDbEntity
  8
M0
100
AcDbCircle
 10
164.709306
 20
289.278861
 40
0.5
100
AcDbArc
 50
90.0
 51
180.0
  0
ARC
  5
251
100
AcDbEntity
  8
M0
100
AcDbCircle
 10
164.709306
 20
283.779106
 40
0.5
100
AcDbArc
 50
179.999891
 51
270.0
  0
LINE
  5
252
100
AcDbEntity
  8
M0
  6
DASHDOT
100
AcDbLine
 10
156.396257
 20
286.528862
 11
175.103289
 21
286.528862
  0
LINE
  5
253
100
AcDbEntity
  8
M0
100
AcDbLine
 10
164.209322
 20
289.278618
 11
164.209322
 21
283.779106
  0
LINE
  5
254
100
AcDbEntity
  8
M0
  6
DASHDOT
100
AcDbLine
 10
109.495985
 20
286.529106
 11
130.608702
 21
286.529106
  0
LINE
  5
255
100
AcDbEntity
  8
M0
  6
DASHDOT
100
AcDbLine
 10
118.757296
 20
270.721599
 11
118.757296
 21
302.336612
  0
LINE
  5
256
100
AcDbEntity
  8
M0
100
AcDbLine
 10
128.408419
 20
310.530082
 11
116.908419
 21
310.530082
  0
ARC
  5
257
100
AcDbEntity
  8
M0
100
AcDbCircle
 10
116.908434
 20
305.529838
 40
4.999997
100
AcDbArc
 50
90.0
 51
179.999967
  0
LINE
  5
258
100
AcDbEntity
  8
M0
100
AcDbLine
 10
130.908434
 20
301.028618
 11
111.908434
 21
301.028373
  0
LINE
  5
259
100
AcDbEntity
  8
M0
100
AcDbLine
 10
111.908434
 20
305.529838
 11
111.908434
 21
301.028373
  0
ARC
  5
25A
100
AcDbEntity
  8
M0
100
AcDbCircle
 10
128.408434
 20
308.029838
 40
2.499997
100
AcDbArc
 50
0.0
 51
90.0
  0
LINE
  5
25B
100
AcDbEntity
  8
M0
100
AcDbLine
 10
130.908388
 20
301.028373
 11
130.908434
 21
308.029838
  0
CIRCLE
  5
25C
100
AcDbEntity
  8
M0
100
AcDbCircle
 10
116.908434
 20
305.529838
 40
2.249993
  0
LINE
  5
25D
100
AcDbEntity
  8
M0
  6
DASHDOT
100
AcDbLine
 10
122.181902
 20
305.529838
 11
111.634951
 21
305.529838
  0
LINE
  5
25E
100
AcDbEntity
  8
M0
  6
DASHDOT
100
AcDbLine
 10
116.908419
 20
310.803276
 11
116.908434
 21
300.256157
  0
LINE
  5
25F
100
AcDbEntity
  8
M0
 62
     7
100
AcDbLine
 10
27.904589
 20
301.030815
 11
33.904589
 21
301.030815
  0
LINE
  5
260
100
AcDbEntity
  8
M0
 62
     7
100
AcDbLine
 10
33.904589
 20
301.030815
 11
33.904589
 21
302.030784
  0
LINE
  5
261
100
AcDbEntity
  8
M0
 62
     7
100
AcDbLine
 10
32.904589
 20
303.030815
 11
28.904589
 21
303.0308
  0
LINE
  5
262
100
AcDbEntity
  8
M0
 62
     7
100
AcDbLine
 10
27.904589
 20
302.0308
 11
27.904589
 21
301.030815
  0
ARC
  5
263
100
AcDbEntity
  8
M0
 62
     7
100
AcDbCircle
 10
32.904589
 20
302.0308
 40
1.0
100
AcDbArc
 50
0.0
 51
90.0
  0
ARC
  5
264
100
AcDbEntity
  8
M0
 62
     7
100
AcDbCircle
 10
28.904589
 20
302.0308
 40
1.0
100
AcDbArc
 50
90.0
 51
179.999964
  0
LINE
  5
265
100
AcDbEntity
  8
M0
 62
     7
100
AcDbLine
 10
103.102831
 20
301.029594
 11
109.102831
 21
301.029594
  0
LINE
  5
266
100
AcDbEntity
  8
M0
 62
     7
100
AcDbLine
 10
109.102831
 20
301.029594
 11
109.102831
 21
302.029564
  0
LINE
  5
267
100
AcDbEntity
  8
M0
 62
     7
100
AcDbLine
 10
108.102831
 20
303.029594
 11
104.102831
 21
303.029579
  0
LINE
  5
268
100
AcDbEntity
  8
M0
 62
     7
100
AcDbLine
 10
103.102831
 20
302.029579
 11
103.102831
 21
301.029594
  0
ARC
  5
269
100
AcDbEntity
  8
M0
 62
     7
100
AcDbCircle
 10
108.102831
 20
302.029579
 40
1.0
100
AcDbArc
 50
0.0
 51
90.0
  0
ARC
  5
26A
100
AcDbEntity
  8
M0
 62
     7
100
AcDbCircle
 10
104.102831
 20
302.029579
 40
1.0
100
AcDbArc
 50
90.0
 51
179.999964
  0
LINE
  5
26B
100
AcDbEntity
  8
M0
 62
    34
100
AcDbLine
 10
109.208434
 20
281.529596
 11
109.208424
 21
297.129581
  0
LINE
  5
26C
100
AcDbEntity
  8
M0
 62
    34
100
AcDbLine
 10
105.908419
 20
301.029579
 11
105.908419
 21
299.829579
  0
LINE
  5
26D
100
AcDbEntity
  8
M0
 62
    34
100
AcDbLine
 10
105.908433
 20
278.829582
 11
105.908433
 21
277.629585
  0
LINE
  5
26E
100
AcDbEntity
  8
M0
 62
    34
100
AcDbLine
 10
105.908433
 20
278.829582
 11
111.408433
 21
278.829585
  0
LINE
  5
26F
100
AcDbEntity
  8
M0
 62
    34
100
AcDbLine
 10
105.908419
 20
299.829579
 11
111.408419
 21
299.829582
  0
LINE
  5
270
100
AcDbEntity
  8
M0
 62
    34
100
AcDbLine
 10
116.708434
 20
276.329589
 11
120.708434
 21
276.329591
  0
LINE
  5
271
100
AcDbEntity
  8
M0
 62
    34
100
AcDbLine
 10
122.908433
 20
277.629596
 11
120.708434
 21
276.329591
  0
LINE
  5
272
100
AcDbEntity
  8
M0
 62
    34
100
AcDbLine
 10
116.708434
 20
276.329589
 11
113.908433
 21
277.62959
  0
LINE
  5
273
100
AcDbEntity
  8
M0
 62
    34
100
AcDbLine
 10
113.908433
 20
277.62959
 11
105.908433
 21
277.629585
  0
LINE
  5
274
100
AcDbEntity
  8
M0
 62
    34
100
AcDbLine
 10
130.408433
 20
277.6296
 11
122.908433
 21
277.629596
  0
ARC
  5
275
100
AcDbEntity
  8
M0
 62
    34
100
AcDbCircle
 10
130.408433
 20
278.1296
 40
0.5
100
AcDbArc
 50
270.0
 51
360.000036
  0
LINE
  5
276
100
AcDbEntity
  8
M0
 62
    34
100
AcDbLine
 10
130.908433
 20
278.129601
 11
130.908419
 21
300.529595
  0
LINE
  5
277
100
AcDbEntity
  8
M0
 62
    34
100
AcDbLine
 10
130.408419
 20
301.029594
 11
105.908419
 21
301.029579
  0
ARC
  5
278
100
AcDbEntity
  8
M0
 62
    34
100
AcDbCircle
 10
130.408419
 20
300.529594
 40
0.5
100
AcDbArc
 50
1.821226E-006
 51
90.0
  0
LINE
  5
279
100
AcDbEntity
  8
M0
 62
    34
100
AcDbLine
 10
111.408433
 20
278.829585
 11
111.408431
 21
280.529597
  0
LINE
  5
27A
100
AcDbEntity
  8
M0
 62
    34
100
AcDbLine
 10
109.208434
 20
281.529596
 11
110.408431
 21
281.529597
  0
ARC
  5
27B
100
AcDbEntity
  8
M0
 62
    34
100
AcDbCircle
 10
110.408431
 20
280.529597
 40
1.0
100
AcDbArc
 50
3.597218E-005
 51
89.999162
  0
LINE
  5
27C
100
AcDbEntity
  8
M0
 62
    34
100
AcDbLine
 10
109.208424
 20
297.129581
 11
110.408421
 21
297.129582
  0
LINE
  5
27D
100
AcDbEntity
  8
M0
 62
    34
100
AcDbLine
 10
111.40842
 20
298.129583
 11
111.408419
 21
299.829582
  0
ARC
  5
27E
100
AcDbEntity
  8
M0
 62
    34
100
AcDbCircle
 10
110.40842
 20
298.129582
 40
1.0
100
AcDbArc
 50
270.0
 51
360.000036
  0
CIRCLE
  5
27F
100
AcDbEntity
  8
M0
 62
    34
100
AcDbCircle
 10
118.708428
 20
286.329587
 40
4.25
  0
LINE
  5
280
100
AcDbEntity
  8
M0
 62
    34
100
AcDbLine
 10
162.50606
 20
276.628128
 11
162.50606
 21
277.828128
  0
LINE
  5
281
100
AcDbEntity
  8
M0
 62
    34
100
AcDbLine
 10
162.50606
 20
298.828117
 11
162.50606
 21
300.028114
  0
LINE
  5
282
100
AcDbEntity
  8
M0
 62
    34
100
AcDbLine
 10
178.006046
 20
276.628128
 11
162.50606
 21
276.628128
  0
LINE
  5
283
100
AcDbEntity
  8
M0
 62
    34
100
AcDbLine
 10
178.006046
 20
300.028114
 11
162.50606
 21
300.028114
  0
LINE
  5
284
100
AcDbEntity
  8
M0
 62
    34
100
AcDbLine
 10
178.006046
 20
277.828128
 11
174.206046
 21
277.828128
  0
LINE
  5
285
100
AcDbEntity
  8
M0
 62
    34
100
AcDbLine
 10
178.006046
 20
277.828128
 11
178.006046
 21
276.628128
  0
LINE
  5
286
100
AcDbEntity
  8
M0
 62
    34
100
AcDbLine
 10
165.506046
 20
278.528127
 11
169.656047
 21
278.528127
  0
LINE
  5
287
100
AcDbEntity
  8
M0
 62
    34
100
AcDbLine
 10
165.506046
 20
298.12812
 11
169.656047
 21
298.12812
  0
LINE
  5
288
100
AcDbEntity
  8
M0
 62
    34
100
AcDbLine
 10
165.506046
 20
298.12812
 11
165.506046
 21
278.528127
  0
LINE
  5
289
100
AcDbEntity
  8
M0
 62
    34
100
AcDbLine
 10
174.206046
 20
300.828117
 11
174.206046
 21
276.628128
  0
LINE
  5
28A
100
AcDbEntity
  8
M0
 62
    34
100
AcDbLine
 10
178.006046
 20
300.028114
 11
178.006046
 21
298.828117
  0
LINE
  5
28B
100
AcDbEntity
  8
M0
 62
    34
100
AcDbLine
 10
165.206046
 20
300.028114
 11
165.206046
 21
301.328117
  0
LINE
  5
28C
100
AcDbEntity
  8
M0
 62
    34
100
AcDbLine
 10
165.206046
 20
301.328117
 11
173.706046
 21
301.328117
  0
LINE
  5
28D
100
AcDbEntity
  8
M0
 62
    34
100
AcDbLine
 10
178.006046
 20
298.828117
 11
174.206046
 21
298.828117
  0
LINE
  5
28E
100
AcDbEntity
  8
M0
 62
    34
100
AcDbLine
 10
169.656047
 20
277.828128
 11
162.50606
 21
277.828128
  0
LINE
  5
28F
100
AcDbEntity
  8
M0
 62
    34
100
AcDbLine
 10
169.656047
 20
298.828117
 11
162.50606
 21
298.828117
  0
ARC
  5
290
100
AcDbEntity
  8
M0
 62
    34
100
AcDbCircle
 10
169.656047
 20
298.478126
 40
0.35
100
AcDbArc
 50
270.0
 51
360.0
  0
ARC
  5
291
100
AcDbEntity
  8
M0
 62
    34
100
AcDbCircle
 10
169.656047
 20
298.478126
 40
0.35
100
AcDbArc
 50
0.0
 51
90.0
  0
ARC
  5
292
100
AcDbEntity
  8
M0
 62
    34
100
AcDbCircle
 10
169.656047
 20
278.178128
 40
0.35
100
AcDbArc
 50
270.0
 51
360.0
  0
ARC
  5
293
100
AcDbEntity
  8
M0
 62
    34
100
AcDbCircle
 10
169.656047
 20
278.178128
 40
0.35
100
AcDbArc
 50
0.0
 51
90.0
  0
ARC
  5
294
100
AcDbEntity
  8
M0
 62
    34
100
AcDbCircle
 10
173.706046
 20
300.828117
 40
0.5
100
AcDbArc
 50
0.0
 51
90.0
  0
LINE
  5
295
100
AcDbEntity
  8
M0
 62
     4
100
AcDbLine
 10
115.258433
 20
296.028886
 11
113.258414
 21
296.02889
  0
LINE
  5
296
100
AcDbEntity
  8
M0
 62
     4
100
AcDbLine
 10
115.258404
 20
296.028883
 11
115.258418
 21
299.028883
  0
LINE
  5
297
100
AcDbEntity
  8
M0
 62
     4
100
AcDbLine
 10
113.258418
 20
299.028888
 11
115.258418
 21
299.028883
  0
LINE
  5
298
100
AcDbEntity
  8
M0
 62
     4
100
AcDbLine
 10
113.258414
 20
296.02889
 11
113.258418
 21
299.028888
  0
LINE
  5
299
100
AcDbEntity
  8
M1
 62
     2
100
AcDbLine
 10
12.5
 20
12.5
 11
12.5
 21
356.249995
  0
LINE
  5
29A
100
AcDbEntity
  8
M1
 62
     2
100
AcDbLine
 10
12.5
 20
356.249995
 11
249.999996
 21
356.249995
  0
LINE
  5
29B
100
AcDbEntity
  8
M1
 62
     2
100
AcDbLine
 10
249.999996
 20
356.249995
 11
249.999996
 21
12.5
  0
LINE
  5
29C
100
AcDbEntity
  8
M1
 62
     2
100
AcDbLine
 10
249.999996
 20
12.5
 11
12.5
 21
12.5
  0
LINE
  5
29D
100
AcDbEntity
  8
M1
 62
     2
100
AcDbLine
 10
249.999996
 20
25.0
 11
124.999998
 21
25.0
  0
LINE
  5
29E
100
AcDbEntity
  8
M1
 62
     2
100
AcDbLine
 10
249.999996
 20
37.499999
 11
124.999998
 21
37.499999
  0
LINE
  5
29F
100
AcDbEntity
  8
M1
 62
     2
100
AcDbLine
 10
249.999996
 20
49.999999
 11
124.999998
 21
49.999999
  0
LINE
  5
2A0
100
AcDbEntity
  8
M1
 62
     2
100
AcDbLine
 10
124.999998
 20
12.5
 11
124.999998
 21
49.999999
  0
TEXT
  5
2A1
100
AcDbEntity
  8
M1
 62
     2
100
AcDbText
 10
128.124998
 20
15.625
 40
6.25
  1
適　用；
  7
STANDARD
100
AcDbText
  0
TEXT
  5
2A2
100
AcDbEntity
  8
M1
 62
     2
100
AcDbText
 10
128.124998
 20
40.624999
 40
6.25
  1
登録名：
  7
STANDARD
100
AcDbText
  0
TEXT
  5
2A3
100
AcDbEntity
  8
M1
 62
     2
100
AcDbText
 10
158.124998
 20
40.624999
 40
6.25
  1
ＤＭＴＲ８０Ｂ１ＥＲ００
 41
0.5
  7
STANDARD
100
AcDbText
  0
TEXT
  5
2A4
100
AcDbEntity
  8
M1
 62
     2
100
AcDbText
 10
128.124998
 20
28.125
 40
6.25
  1
形　式；
  7
STANDARD
100
AcDbText
  0
TEXT
  5
2A5
100
AcDbEntity
  8
M1
 62
     2
100
AcDbText
 10
158.124998
 20
28.125
 40
6.25
  1
ＴＲ８０Ｂ－１Ｅ，ＴＲ８０Ｂ－１ＥＦ，ＴＲ８０Ｂ－２Ｅ，ＴＲ８０Ｂ－２ＥＦ
 41
0.25
  7
STANDARD
100
AcDbText
  0
LINE
  5
2A6
100
AcDbEntity
  8
DN0
100
AcDbLine
 10
66.208315
 20
126.951469
 11
89.03332
 21
126.951469
  0
TEXT
  5
2A7
100
AcDbEntity
  8
DN0
100
AcDbText
 10
66.839565
 20
127.513969
 40
5.625
  1
せん孔図
 41
0.833333
  7
STANDARD
100
AcDbText
  0
ENDSEC
  0
SECTION
  2
OBJECTS
  0
DICTIONARY
  5
C
100
AcDbDictionary
  3
ACAD_GROUP
350
D
  3
ACAD_MLINESTYLE
350
E
  0
DICTIONARY
  5
D
102
{ACAD_REACTORS
330
C
102
}
100
AcDbDictionary
  0
DICTIONARY
  5
E
102
{ACAD_REACTORS
330
C
102
}
100
AcDbDictionary
  3
STANDARD
350
13
  0
MLINESTYLE
  5
13
102
{ACAD_REACTORS
330
E
102
}
100
AcDbMlineStyle
  2
STANDARD
 70
     0
  3

 62
     0
 51
90.0
 52
90.0
 71
     2
 49
0.5
 62
   256
  6
BYLAYER
 49
-0.5
 62
   256
  6
BYLAYER
  0
ENDSEC
  0
EOF
